  0
SECTION
  2
HEADER
  9
$ACADVER
  1
AC1024
  9
$ACADMAINTVER
 70
   226
  9
$DWGCODEPAGE
  3
ANSI_1252
  9
$INSBASE
 10
0.0
 20
0.0
 30
0.0
  9
$EXTMIN
 10
1.000000000000000E+20
 20
1.000000000000000E+20
 30
1.000000000000000E+20
  9
$EXTMAX
 10
-1.000000000000000E+20
 20
-1.000000000000000E+20
 30
-1.000000000000000E+20
  9
$LIMMIN
 10
0.0
 20
0.0
  9
$LIMMAX
 10
12.0
 20
9.0
  9
$ORTHOMODE
 70
     0
  9
$REGENMODE
 70
     1
  9
$FILLMODE
 70
     1
  9
$QTEXTMODE
 70
     0
  9
$MIRRTEXT
 70
     1
  9
$LTSCALE
 40
1.0
  9
$ATTMODE
 70
     1
  9
$TEXTSIZE
 40
0.2
  9
$TRACEWID
 40
0.05
  9
$TEXTSTYLE
  7
Standard
  9
$CLAYER
  8
Insert Point
  9
$CELTYPE
  6
ByLayer
  9
$CECOLOR
 62
   256
  9
$CELTSCALE
 40
1.0
  9
$DISPSILH
 70
     0
  9
$DIMSCALE
 40
1.0
  9
$DIMASZ
 40
0.18
  9
$DIMEXO
 40
0.0625
  9
$DIMDLI
 40
0.38
  9
$DIMRND
 40
0.0
  9
$DIMDLE
 40
0.0
  9
$DIMEXE
 40
0.18
  9
$DIMTP
 40
0.0
  9
$DIMTM
 40
0.0
  9
$DIMTXT
 40
0.18
  9
$DIMCEN
 40
0.09
  9
$DIMTSZ
 40
0.0
  9
$DIMTOL
 70
     0
  9
$DIMLIM
 70
     0
  9
$DIMTIH
 70
     1
  9
$DIMTOH
 70
     1
  9
$DIMSE1
 70
     0
  9
$DIMSE2
 70
     0
  9
$DIMTAD
 70
     0
  9
$DIMZIN
 70
     0
  9
$DIMBLK
  1

  9
$DIMASO
 70
     1
  9
$DIMSHO
 70
     1
  9
$DIMPOST
  1

  9
$DIMAPOST
  1

  9
$DIMALT
 70
     0
  9
$DIMALTD
 70
     2
  9
$DIMALTF
 40
25.4
  9
$DIMLFAC
 40
1.0
  9
$DIMTOFL
 70
     0
  9
$DIMTVP
 40
0.0
  9
$DIMTIX
 70
     0
  9
$DIMSOXD
 70
     0
  9
$DIMSAH
 70
     0
  9
$DIMBLK1
  1

  9
$DIMBLK2
  1

  9
$DIMSTYLE
  2
Standard
  9
$DIMCLRD
 70
     0
  9
$DIMCLRE
 70
     0
  9
$DIMCLRT
 70
     0
  9
$DIMTFAC
 40
1.0
  9
$DIMGAP
 40
0.09
  9
$DIMJUST
 70
     0
  9
$DIMSD1
 70
     0
  9
$DIMSD2
 70
     0
  9
$DIMTOLJ
 70
     1
  9
$DIMTZIN
 70
     0
  9
$DIMALTZ
 70
     0
  9
$DIMALTTZ
 70
     0
  9
$DIMUPT
 70
     0
  9
$DIMDEC
 70
     4
  9
$DIMTDEC
 70
     4
  9
$DIMALTU
 70
     2
  9
$DIMALTTD
 70
     2
  9
$DIMTXSTY
  7
Standard
  9
$DIMAUNIT
 70
     0
  9
$DIMADEC
 70
     0
  9
$DIMALTRND
 40
0.0
  9
$DIMAZIN
 70
     0
  9
$DIMDSEP
 70
    46
  9
$DIMATFIT
 70
     3
  9
$DIMFRAC
 70
     0
  9
$DIMLDRBLK
  1

  9
$DIMLUNIT
 70
     2
  9
$DIMLWD
 70
    -2
  9
$DIMLWE
 70
    -2
  9
$DIMTMOVE
 70
     0
  9
$DIMFXL
 40
1.0
  9
$DIMFXLON
 70
     0
  9
$DIMJOGANG
 40
0.7853981633974483
  9
$DIMTFILL
 70
     0
  9
$DIMTFILLCLR
 70
     0
  9
$DIMARCSYM
 70
     0
  9
$DIMLTYPE
  6

  9
$DIMLTEX1
  6

  9
$DIMLTEX2
  6

  9
$DIMTXTDIRECTION
 70
     0
  9
$LUNITS
 70
     2
  9
$LUPREC
 70
     4
  9
$SKETCHINC
 40
0.1
  9
$FILLETRAD
 40
0.5
  9
$AUNITS
 70
     0
  9
$AUPREC
 70
     0
  9
$MENU
  1
.
  9
$ELEVATION
 40
0.0
  9
$PELEVATION
 40
0.0
  9
$THICKNESS
 40
0.0
  9
$LIMCHECK
 70
     0
  9
$CHAMFERA
 40
0.5
  9
$CHAMFERB
 40
0.5
  9
$CHAMFERC
 40
1.0
  9
$CHAMFERD
 40
0.0
  9
$SKPOLY
 70
     0
  9
$TDCREATE
 40
2451380.888761574
  9
$TDUCREATE
 40
2451380.805432396
  9
$TDUPDATE
 40
2451380.924513889
  9
$TDUUPDATE
 40
2451380.841180556
  9
$TDINDWG
 40
0.0075602199
  9
$TDUSRTIMER
 40
0.0075511806
  9
$USRTIMER
 70
     1
  9
$ANGBASE
 50
0.0
  9
$ANGDIR
 70
     0
  9
$PDMODE
 70
     0
  9
$PDSIZE
 40
0.0
  9
$PLINEWID
 40
0.0
  9
$SPLFRAME
 70
     0
  9
$SPLINETYPE
 70
     6
  9
$SPLINESEGS
 70
     8
  9
$HANDSEED
  5
3CA
  9
$SURFTAB1
 70
     6
  9
$SURFTAB2
 70
     6
  9
$SURFTYPE
 70
     6
  9
$SURFU
 70
     6
  9
$SURFV
 70
     6
  9
$UCSBASE
  2

  9
$UCSNAME
  2

  9
$UCSORG
 10
0.0
 20
0.0
 30
0.0
  9
$UCSXDIR
 10
1.0
 20
0.0
 30
0.0
  9
$UCSYDIR
 10
0.0
 20
1.0
 30
0.0
  9
$UCSORTHOREF
  2

  9
$UCSORTHOVIEW
 70
     0
  9
$UCSORGTOP
 10
0.0
 20
0.0
 30
0.0
  9
$UCSORGBOTTOM
 10
0.0
 20
0.0
 30
0.0
  9
$UCSORGLEFT
 10
0.0
 20
0.0
 30
0.0
  9
$UCSORGRIGHT
 10
0.0
 20
0.0
 30
0.0
  9
$UCSORGFRONT
 10
0.0
 20
0.0
 30
0.0
  9
$UCSORGBACK
 10
0.0
 20
0.0
 30
0.0
  9
$PUCSBASE
  2

  9
$PUCSNAME
  2

  9
$PUCSORG
 10
0.0
 20
0.0
 30
0.0
  9
$PUCSXDIR
 10
1.0
 20
0.0
 30
0.0
  9
$PUCSYDIR
 10
0.0
 20
1.0
 30
0.0
  9
$PUCSORTHOREF
  2

  9
$PUCSORTHOVIEW
 70
     0
  9
$PUCSORGTOP
 10
0.0
 20
0.0
 30
0.0
  9
$PUCSORGBOTTOM
 10
0.0
 20
0.0
 30
0.0
  9
$PUCSORGLEFT
 10
0.0
 20
0.0
 30
0.0
  9
$PUCSORGRIGHT
 10
0.0
 20
0.0
 30
0.0
  9
$PUCSORGFRONT
 10
0.0
 20
0.0
 30
0.0
  9
$PUCSORGBACK
 10
0.0
 20
0.0
 30
0.0
  9
$USERI1
 70
     0
  9
$USERI2
 70
     0
  9
$USERI3
 70
     0
  9
$USERI4
 70
     0
  9
$USERI5
 70
     0
  9
$USERR1
 40
0.0
  9
$USERR2
 40
0.0
  9
$USERR3
 40
0.0
  9
$USERR4
 40
0.0
  9
$USERR5
 40
0.0
  9
$WORLDVIEW
 70
     1
  9
$SHADEDGE
 70
     3
  9
$SHADEDIF
 70
    70
  9
$TILEMODE
 70
     1
  9
$MAXACTVP
 70
    64
  9
$PINSBASE
 10
0.0
 20
0.0
 30
0.0
  9
$PLIMCHECK
 70
     0
  9
$PEXTMIN
 10
1.000000000000000E+20
 20
1.000000000000000E+20
 30
1.000000000000000E+20
  9
$PEXTMAX
 10
-1.000000000000000E+20
 20
-1.000000000000000E+20
 30
-1.000000000000000E+20
  9
$PLIMMIN
 10
0.0
 20
0.0
  9
$PLIMMAX
 10
12.0
 20
9.0
  9
$UNITMODE
 70
     0
  9
$VISRETAIN
 70
     1
  9
$PLINEGEN
 70
     0
  9
$PSLTSCALE
 70
     1
  9
$TREEDEPTH
 70
  3020
  9
$CMLSTYLE
  2
Standard
  9
$CMLJUST
 70
     0
  9
$CMLSCALE
 40
1.0
  9
$PROXYGRAPHICS
 70
     1
  9
$MEASUREMENT
 70
     1
  9
$CELWEIGHT
370
    -1
  9
$ENDCAPS
280
     0
  9
$JOINSTYLE
280
     0
  9
$LWDISPLAY
290
     0
  9
$INSUNITS
 70
     4
  9
$HYPERLINKBASE
  1

  9
$STYLESHEET
  1

  9
$XEDIT
290
     1
  9
$CEPSNTYPE
380
     0
  9
$PSTYLEMODE
290
     1
  9
$FINGERPRINTGUID
  2
{12F50282-3ED8-11D3-A8B7-0060B0F84BC6}
  9
$VERSIONGUID
  2
{12F50293-3ED8-11D3-A8B7-0060B0F84BC6}
  9
$EXTNAMES
290
     1
  9
$PSVPSCALE
 40
0.0
  9
$OLESTARTUP
290
     0
  9
$SORTENTS
280
   127
  9
$INDEXCTL
280
     0
  9
$HIDETEXT
280
     0
  9
$XCLIPFRAME
280
     2
  9
$HALOGAP
280
     0
  9
$OBSCOLOR
 70
   257
  9
$OBSLTYPE
280
     0
  9
$INTERSECTIONDISPLAY
280
     0
  9
$INTERSECTIONCOLOR
 70
   257
  9
$DIMASSOC
280
     1
  9
$PROJECTNAME
  1

  9
$CAMERADISPLAY
290
     0
  9
$LENSLENGTH
 40
50.0
  9
$CAMERAHEIGHT
 40
0.0
  9
$STEPSPERSEC
 40
2.0
  9
$STEPSIZE
 40
6.0
  9
$3DDWFPREC
 40
2.0
  9
$PSOLWIDTH
 40
0.25
  9
$PSOLHEIGHT
 40
4.0
  9
$LOFTANG1
 40
1.570796326794896
  9
$LOFTANG2
 40
1.570796326794896
  9
$LOFTMAG1
 40
0.0
  9
$LOFTMAG2
 40
0.0
  9
$LOFTPARAM
 70
     7
  9
$LOFTNORMALS
280
     1
  9
$LATITUDE
 40
37.795
  9
$LONGITUDE
 40
-122.394
  9
$NORTHDIRECTION
 40
0.0
  9
$TIMEZONE
 70
 -8000
  9
$LIGHTGLYPHDISPLAY
280
     1
  9
$TILEMODELIGHTSYNCH
280
     1
  9
$CMATERIAL
347
AB
  9
$SOLIDHIST
280
     0
  9
$SHOWHIST
280
     1
  9
$DWFFRAME
280
     2
  9
$DGNFRAME
280
     0
  9
$REALWORLDSCALE
290
     1
  9
$INTERFERECOLOR
 62
     1
  9
$INTERFEREOBJVS
345
CD
  9
$INTERFEREVPVS
346
CA
  9
$CSHADOW
280
     0
  9
$SHADOWPLANELOCATION
 40
0.0
  0
ENDSEC
  0
SECTION
  2
CLASSES
  0
CLASS
  1
ACDBDICTIONARYWDFLT
  2
AcDbDictionaryWithDefault
  3
ObjectDBX Classes
 90
        0
 91
        1
280
     0
281
     0
  0
CLASS
  1
ACDBPLACEHOLDER
  2
AcDbPlaceHolder
  3
ObjectDBX Classes
 90
        0
 91
        2
280
     0
281
     0
  0
CLASS
  1
LAYOUT
  2
AcDbLayout
  3
ObjectDBX Classes
 90
        0
 91
        3
280
     0
281
     0
  0
CLASS
  1
MATERIAL
  2
AcDbMaterial
  3
ObjectDBX Classes
 90
     1153
 91
        3
280
     0
281
     0
  0
CLASS
  1
VISUALSTYLE
  2
AcDbVisualStyle
  3
ObjectDBX Classes
 90
     4095
 91
       24
280
     0
281
     0
  0
CLASS
  1
TABLESTYLE
  2
AcDbTableStyle
  3
ObjectDBX Classes
 90
     4095
 91
        1
280
     0
281
     0
  0
CLASS
  1
SCALE
  2
AcDbScale
  3
ObjectDBX Classes
 90
     1153
 91
       17
280
     0
281
     0
  0
CLASS
  1
MLEADERSTYLE
  2
AcDbMLeaderStyle
  3
ACDB_MLEADERSTYLE_CLASS
 90
     4095
 91
        1
280
     0
281
     0
  0
CLASS
  1
ACDBSECTIONVIEWSTYLE
  2
AcDbSectionViewStyle
  3
ObjectDBX Classes
 90
     1025
 91
        1
280
     0
281
     0
  0
CLASS
  1
ACDBDETAILVIEWSTYLE
  2
AcDbDetailViewStyle
  3
ObjectDBX Classes
 90
     1025
 91
        1
280
     0
281
     0
  0
CLASS
  1
MESH
  2
AcDbSubDMesh
  3
ObjectDBX Classes
 90
        0
 91
        1
280
     0
281
     1
  0
CLASS
  1
DICTIONARYVAR
  2
AcDbDictionaryVar
  3
ObjectDBX Classes
 90
        0
 91
        9
280
     0
281
     0
  0
CLASS
  1
CELLSTYLEMAP
  2
AcDbCellStyleMap
  3
ObjectDBX Classes
 90
     1152
 91
        1
280
     0
281
     0
  0
ENDSEC
  0
SECTION
  2
TABLES
  0
TABLE
  2
VPORT
  5
8
330
0
100
AcDbSymbolTable
 70
     1
  0
VPORT
  5
A8
330
8
100
AcDbSymbolTableRecord
100
AcDbViewportTableRecord
  2
*Active
 70
     0
 10
0.0
 20
0.0
 11
1.0
 21
1.0
 12
318.1980590820312
 22
257.1964416503906
 13
0.0
 23
0.0
 14
0.5
 24
0.5
 15
0.5
 25
0.5
 16
-1.0
 26
-1.0
 36
1.0
 17
0.0
 27
0.0
 37
0.0
 40
780.0000405220475
 41
1.221317881221798
 42
50.0
 43
0.0
 44
0.0
 50
0.0
 51
0.0
 71
     0
 72
   100
 73
     1
 74
     3
 75
     0
 76
     0
 77
     0
 78
     0
281
     0
 65
     1
110
0.0
120
0.0
130
0.0
111
1.0
121
0.0
131
0.0
112
0.0
122
1.0
132
0.0
 79
     0
146
0.0
348
C9
 60
     3
 61
     5
292
     1
282
     1
141
0.0
142
0.0
 63
   250
421
  3355443
  0
ENDTAB
  0
TABLE
  2
LTYPE
  5
5
330
0
100
AcDbSymbolTable
 70
     1
  0
LTYPE
  5
14
330
5
100
AcDbSymbolTableRecord
100
AcDbLinetypeTableRecord
  2
ByBlock
 70
     0
  3

 72
    65
 73
     0
 40
0.0
  0
LTYPE
  5
15
330
5
100
AcDbSymbolTableRecord
100
AcDbLinetypeTableRecord
  2
ByLayer
 70
     0
  3

 72
    65
 73
     0
 40
0.0
  0
LTYPE
  5
16
330
5
100
AcDbSymbolTableRecord
100
AcDbLinetypeTableRecord
  2
Continuous
 70
     0
  3
Solid line
 72
    65
 73
     0
 40
0.0
  0
ENDTAB
  0
TABLE
  2
LAYER
  5
2
330
0
100
AcDbSymbolTable
 70
     5
  0
LAYER
  5
10
330
2
100
AcDbSymbolTableRecord
100
AcDbLayerTableRecord
  2
0
 70
     0
 62
     7
  6
Continuous
370
    -3
390
F
347
BB
  0
LAYER
  5
2B
330
2
100
AcDbSymbolTableRecord
100
AcDbLayerTableRecord
  2
ASHADE
 70
     4
 62
     7
  6
Continuous
370
    -3
390
2D
347
BB
  0
LAYER
  5
F9
330
2
100
AcDbSymbolTableRecord
100
AcDbLayerTableRecord
  2
assembly hole
 70
     0
 62
     1
420
 16711680
  6
Continuous
370
    -3
390
F
347
BB
  0
LAYER
  5
FA
330
2
100
AcDbSymbolTableRecord
100
AcDbLayerTableRecord
  2
WandProfileHorizontal_00
 70
     0
 62
     7
420
 16777215
  6
Continuous
370
    -3
390
F
347
BB
  0
LAYER
  5
FB
330
2
100
AcDbSymbolTableRecord
100
AcDbLayerTableRecord
  2
Insert Point
 70
     0
 62
    41
420
 16768895
  6
Continuous
370
    -3
390
F
347
BB
  0
ENDTAB
  0
TABLE
  2
STYLE
  5
3
330
0
100
AcDbSymbolTable
 70
     2
  0
STYLE
  5
11
330
3
100
AcDbSymbolTableRecord
100
AcDbTextStyleTableRecord
  2
Standard
 70
     0
 40
0.0
 41
1.0
 50
0.0
 71
     0
 42
0.2
  3
txt
  4

  0
STYLE
  5
2C
330
3
100
AcDbSymbolTableRecord
100
AcDbTextStyleTableRecord
  2
ASHADE
 70
     0
 40
0.2
 41
1.0
 50
0.0
 71
     0
 42
0.2
  3
simplex
  4

  0
ENDTAB
  0
TABLE
  2
VIEW
  5
6
330
0
100
AcDbSymbolTable
 70
     0
  0
ENDTAB
  0
TABLE
  2
UCS
  5
7
330
0
100
AcDbSymbolTable
 70
     0
  0
ENDTAB
  0
TABLE
  2
APPID
  5
9
330
0
100
AcDbSymbolTable
 70
     6
  0
APPID
  5
12
330
9
100
AcDbSymbolTableRecord
100
AcDbRegAppTableRecord
  2
ACAD
 70
     0
  0
APPID
  5
8F
330
9
100
AcDbSymbolTableRecord
100
AcDbRegAppTableRecord
  2
AVE_RENDER
 70
     0
  0
APPID
  5
90
330
9
100
AcDbSymbolTableRecord
100
AcDbRegAppTableRecord
  2
AVE_ENTITY_MATERIAL
 70
     0
  0
APPID
  5
9C
330
9
100
AcDbSymbolTableRecord
100
AcDbRegAppTableRecord
  2
AVE_FINISH
 70
     0
  0
APPID
  5
9D
330
9
100
AcDbSymbolTableRecord
100
AcDbRegAppTableRecord
  2
AVE_MATERIAL
 70
     0
  0
APPID
  5
9E
330
9
100
AcDbSymbolTableRecord
100
AcDbRegAppTableRecord
  2
AVE_GLOBAL
 70
     0
  0
ENDTAB
  0
TABLE
  2
DIMSTYLE
  5
A
330
0
100
AcDbSymbolTable
 70
     1
100
AcDbDimStyleTable
 71
     0
  0
DIMSTYLE
105
27
330
A
100
AcDbSymbolTableRecord
100
AcDbDimStyleTableRecord
  2
Standard
 70
     0
340
11
  0
ENDTAB
  0
TABLE
  2
BLOCK_RECORD
  5
1
330
0
100
AcDbSymbolTable
 70
     6
  0
BLOCK_RECORD
  5
1F
330
1
100
AcDbSymbolTableRecord
100
AcDbBlockTableRecord
  2
*Model_Space
340
22
 70
     0
280
     1
281
     0
  0
BLOCK_RECORD
  5
1B
330
1
100
AcDbSymbolTableRecord
100
AcDbBlockTableRecord
  2
*Paper_Space
340
1E
 70
     0
280
     1
281
     0
  0
BLOCK_RECORD
  5
23
330
1
100
AcDbSymbolTableRecord
100
AcDbBlockTableRecord
  2
*Paper_Space0
340
26
 70
     0
280
     1
281
     0
  0
BLOCK_RECORD
  5
2E
330
1
100
AcDbSymbolTableRecord
100
AcDbBlockTableRecord
  2
direct
340
0
 70
     0
280
     1
281
     0
  0
BLOCK_RECORD
  5
42
330
1
100
AcDbSymbolTableRecord
100
AcDbBlockTableRecord
  2
overhead
340
0
 70
     0
280
     1
281
     0
  0
BLOCK_RECORD
  5
5F
330
1
100
AcDbSymbolTableRecord
100
AcDbBlockTableRecord
  2
sh_spot
340
0
 70
     0
280
     1
281
     0
  0
BLOCK_RECORD
  5
91
330
1
100
AcDbSymbolTableRecord
100
AcDbBlockTableRecord
  2
AVE_RENDER
340
0
102
{BLKREFS
331
94
331
95
331
96
331
97
331
98
331
99
331
9A
331
9B
102
}
 70
     0
280
     1
281
     0
  0
BLOCK_RECORD
  5
9F
330
1
100
AcDbSymbolTableRecord
100
AcDbBlockTableRecord
  2
AVE_GLOBAL
340
0
102
{BLKREFS
331
A2
102
}
 70
     0
280
     1
281
     0
  0
ENDTAB
  0
ENDSEC
  0
SECTION
  2
BLOCKS
  0
BLOCK
  5
20
330
1F
100
AcDbEntity
  8
0
100
AcDbBlockBegin
  2
*Model_Space
 70
     0
 10
0.0
 20
0.0
 30
0.0
  3
*Model_Space
  1

  0
ENDBLK
  5
21
330
1F
100
AcDbEntity
  8
0
100
AcDbBlockEnd
  0
BLOCK
  5
1C
330
1B
100
AcDbEntity
 67
     1
  8
0
100
AcDbBlockBegin
  2
*Paper_Space
 70
     0
 10
0.0
 20
0.0
 30
0.0
  3
*Paper_Space
  1

  0
ENDBLK
  5
1D
330
1B
100
AcDbEntity
 67
     1
  8
0
100
AcDbBlockEnd
  0
BLOCK
  5
24
330
23
100
AcDbEntity
 67
     1
  8
0
100
AcDbBlockBegin
  2
*Paper_Space0
 70
     0
 10
0.0
 20
0.0
 30
0.0
  3
*Paper_Space0
  1

  0
ENDBLK
  5
25
330
23
100
AcDbEntity
 67
     1
  8
0
100
AcDbBlockEnd
  0
BLOCK
  5
40
330
2E
100
AcDbEntity
  8
0
100
AcDbBlockBegin
  2
direct
 70
     2
 10
0.0
 20
0.0
 30
0.0
  3
direct
  1

  0
ATTDEF
  5
2F
330
2E
100
AcDbEntity
  8
ASHADE
  6
Continuous
 62
     1
100
AcDbText
 10
0.0
 20
-0.1
 30
0.0
 40
0.2
  1

  7
ASHADE
 72
     1
 11
0.0
 21
-0.1
 31
0.0
100
AcDbAttributeDefinition
280
     0
  3
Light Name
  2
SNAME
 70
     0
280
     0
  0
ARC
  5
30
330
2E
100
AcDbEntity
  8
ASHADE
  6
Continuous
 62
     7
100
AcDbCircle
 10
0.0
 20
0.0
 30
0.0
 40
0.3
100
AcDbArc
 50
205.6792886194569
 51
334.3207113805431
  0
ARC
  5
31
330
2E
100
AcDbEntity
  8
ASHADE
  6
Continuous
 62
     7
100
AcDbCircle
 10
0.0
 20
0.0
 30
0.0
 40
0.3
100
AcDbArc
 50
25.67928861945685
 51
154.3207113805431
  0
LINE
  5
32
330
2E
100
AcDbEntity
  8
ASHADE
  6
Continuous
 62
     7
100
AcDbLine
 10
-0.21
 20
0.2142428528562855
 30
0.0
 11
-0.21
 21
0.5
 31
0.0
  0
LINE
  5
33
330
2E
100
AcDbEntity
  8
ASHADE
  6
Continuous
 62
     7
100
AcDbLine
 10
-0.11
 20
0.2791057147390572
 30
0.0
 11
-0.11
 21
0.5
 31
0.0
  0
LINE
  5
34
330
2E
100
AcDbEntity
  8
ASHADE
  6
Continuous
 62
     7
100
AcDbLine
 10
0.21
 20
0.2142428528562855
 30
0.0
 11
0.21
 21
0.5
 31
0.0
  0
ATTDEF
  5
35
330
2E
100
AcDbEntity
  8
ASHADE
  6
Continuous
 62
     7
100
AcDbText
 10
0.0
 20
0.25
 30
0.0
 40
0.01
  1

100
AcDbAttributeDefinition
280
     0
  3
Look-at Y
  2
LAY
 70
     1
280
     0
  0
ATTDEF
  5
36
330
2E
100
AcDbEntity
  8
ASHADE
  6
Continuous
 62
     7
100
AcDbText
 10
0.0
 20
0.22
 30
0.0
 40
0.01
  1
1
100
AcDbAttributeDefinition
280
     0
  3
Light Intensity
  2
INTENSITY
 70
     1
280
     0
  0
ATTDEF
  5
37
330
2E
100
AcDbEntity
  8
ASHADE
  6
Continuous
 62
     7
100
AcDbText
 10
0.0
 20
0.16
 30
0.0
 40
0.01
  1
-1
100
AcDbAttributeDefinition
280
     0
  3
*not used*
  2
BEAMD
 70
     1
280
     0
  0
ATTDEF
  5
38
330
2E
100
AcDbEntity
  8
ASHADE
  6
Continuous
 62
     7
100
AcDbText
 10
0.0
 20
0.175
 30
0.0
 40
0.01
  1
-1
100
AcDbAttributeDefinition
280
     0
  3
*not used*
  2
CONED
 70
     1
280
     0
  0
ATTDEF
  5
39
330
2E
100
AcDbEntity
  8
ASHADE
  6
Continuous
 62
     7
100
AcDbText
 10
0.0
 20
0.19
 30
0.0
 40
0.01
  1
0
100
AcDbAttributeDefinition
280
     0
  3
Depth Map Size
  2
CONEA
 70
     1
280
     0
  0
ATTDEF
  5
3A
330
2E
100
AcDbEntity
  8
ASHADE
  6
Continuous
 62
     7
100
AcDbText
 10
0.0
 20
0.2050000000000001
 30
0.0
 40
0.01
  1
1,1,1
100
AcDbAttributeDefinition
280
     0
  3
Light Color (RGB)
  2
COLOR
 70
     1
280
     0
  0
ATTDEF
  5
3B
330
2E
100
AcDbEntity
  8
ASHADE
  6
Continuous
 62
     7
100
AcDbText
 10
0.0
 20
0.235
 30
0.0
 40
0.01
  1

100
AcDbAttributeDefinition
280
     0
  3
Look-at Z
  2
LAZ
 70
     1
280
     0
  0
LINE
  5
3C
330
2E
100
AcDbEntity
  8
ASHADE
  6
Continuous
 62
     7
100
AcDbLine
 10
0.0
 20
0.3
 30
0.0
 11
0.0
 21
0.5
 31
0.0
  0
LINE
  5
3D
330
2E
100
AcDbEntity
  8
ASHADE
  6
Continuous
 62
     7
100
AcDbLine
 10
0.11
 20
0.2791057147390572
 30
0.0
 11
0.11
 21
0.5
 31
0.0
  0
ATTDEF
  5
3E
330
2E
100
AcDbEntity
  8
ASHADE
  6
Continuous
 62
     7
100
AcDbText
 10
0.0
 20
0.265
 30
0.0
 40
0.01
  1

100
AcDbAttributeDefinition
280
     0
  3
Look-at X
  2
LAX
 70
     1
280
     0
  0
ATTDEF
  5
3F
330
2E
100
AcDbEntity
  8
ASHADE
  6
Continuous
 62
     7
100
AcDbText
 10
0.0
 20
0.28
 30
0.0
 40
0.01
  1

100
AcDbAttributeDefinition
280
     0
  3

  2
GNAME
 70
     1
280
     0
  0
ENDBLK
  5
41
330
2E
100
AcDbEntity
  8
0
100
AcDbBlockEnd
  0
BLOCK
  5
5D
330
42
100
AcDbEntity
  8
0
100
AcDbBlockBegin
  2
overhead
 70
     2
 10
0.0
 20
0.0
 30
0.0
  3
overhead
  1

  0
ATTDEF
  5
43
330
42
100
AcDbEntity
  8
ASHADE
  6
Continuous
 62
     1
100
AcDbText
 10
0.0
 20
-0.1
 30
0.0
 40
0.2
  1

  7
ASHADE
 72
     1
 11
0.0
 21
-0.1
 31
0.0
100
AcDbAttributeDefinition
280
     0
  3
Light Name
  2
SNAME
 70
     0
280
     0
  0
ARC
  5
44
330
42
100
AcDbEntity
  8
ASHADE
  6
Continuous
 62
     7
100
AcDbCircle
 10
0.0
 20
0.0
 30
0.0
 40
0.3
100
AcDbArc
 50
205.6792886194569
 51
334.3207113805431
  0
LINE
  5
45
330
42
100
AcDbEntity
  8
ASHADE
  6
Continuous
 62
     7
100
AcDbLine
 10
-0.2041413561583015
 20
-0.2198324514393848
 30
0.0
 11
-0.2721884748777353
 21
-0.2931099352525131
 31
0.0
  0
LINE
  5
46
330
42
100
AcDbEntity
  8
ASHADE
  6
Continuous
 62
     7
100
AcDbLine
 10
-0.1096591641591904
 20
-0.2792398032442862
 30
0.0
 11
-0.1279356915190555
 21
-0.3257797704516673
 31
0.0
  0
LINE
  5
47
330
42
100
AcDbEntity
  8
ASHADE
  6
Continuous
 62
     7
100
AcDbLine
 10
0.0
 20
-0.2999999999999999
 30
0.0
 11
0.0
 21
-0.4
 31
0.0
  0
LINE
  5
48
330
42
100
AcDbEntity
  8
ASHADE
  6
Continuous
 62
     7
100
AcDbLine
 10
0.1096591641591904
 20
-0.2792398032442862
 30
0.0
 11
0.1279356915190555
 21
-0.3257797704516673
 31
0.0
  0
LINE
  5
49
330
42
100
AcDbEntity
  8
ASHADE
  6
Continuous
 62
     7
100
AcDbLine
 10
0.2041413561583015
 20
-0.2198324514393848
 30
0.0
 11
0.2721884748777353
 21
-0.2931099352525131
 31
0.0
  0
ARC
  5
4A
330
42
100
AcDbEntity
  8
ASHADE
  6
Continuous
 62
     7
100
AcDbCircle
 10
0.0
 20
0.0
 30
0.0
 40
0.3
100
AcDbArc
 50
25.67928861945685
 51
154.3207113805431
  0
LINE
  5
4B
330
42
100
AcDbEntity
  8
ASHADE
  6
Continuous
 62
     7
100
AcDbLine
 10
-0.2703701166919155
 20
0.13
 30
0.0
 11
-0.3154318028072347
 21
0.1516666666666666
 31
0.0
  0
LINE
  5
4C
330
42
100
AcDbEntity
  8
ASHADE
  6
Continuous
 62
     7
100
AcDbLine
 10
-0.2703701166919155
 20
-0.13
 30
0.0
 11
-0.3154318028072347
 21
-0.1516666666666666
 31
0.0
  0
LINE
  5
4D
330
42
100
AcDbEntity
  8
ASHADE
  6
Continuous
 62
     7
100
AcDbLine
 10
-0.2041413561583015
 20
0.2198324514393849
 30
0.0
 11
-0.2721884748777353
 21
0.2931099352525131
 31
0.0
  0
LINE
  5
4E
330
42
100
AcDbEntity
  8
ASHADE
  6
Continuous
 62
     7
100
AcDbLine
 10
-0.1096591641591904
 20
0.2792398032442862
 30
0.0
 11
-0.1279356915190555
 21
0.3257797704516674
 31
0.0
  0
LINE
  5
4F
330
42
100
AcDbEntity
  8
ASHADE
  6
Continuous
 62
     7
100
AcDbLine
 10
0.2703701166919155
 20
-0.13
 30
0.0
 11
0.3154318028072347
 21
-0.1516666666666666
 31
0.0
  0
LINE
  5
50
330
42
100
AcDbEntity
  8
ASHADE
  6
Continuous
 62
     7
100
AcDbLine
 10
0.2703701166919155
 20
0.13
 30
0.0
 11
0.3154318028072347
 21
0.1516666666666666
 31
0.0
  0
LINE
  5
51
330
42
100
AcDbEntity
  8
ASHADE
  6
Continuous
 62
     7
100
AcDbLine
 10
0.0
 20
0.3
 30
0.0
 11
0.0
 21
0.4
 31
0.0
  0
ATTDEF
  5
52
330
42
100
AcDbEntity
  8
ASHADE
  6
Continuous
 62
     7
100
AcDbText
 10
0.0
 20
0.22
 30
0.0
 40
0.01
  1
1
100
AcDbAttributeDefinition
280
     0
  3
Light Intensity
  2
INTENSITY
 70
     1
280
     0
  0
ATTDEF
  5
53
330
42
100
AcDbEntity
  8
ASHADE
  6
Continuous
 62
     7
100
AcDbText
 10
0.0
 20
0.16
 30
0.0
 40
0.01
  1
-1
100
AcDbAttributeDefinition
280
     0
  3
*not used*
  2
BEAMD
 70
     1
280
     0
  0
ATTDEF
  5
54
330
42
100
AcDbEntity
  8
ASHADE
  6
Continuous
 62
     7
100
AcDbText
 10
0.0
 20
0.175
 30
0.0
 40
0.01
  1
-1
100
AcDbAttributeDefinition
280
     0
  3
*not used*
  2
CONED
 70
     1
280
     0
  0
ATTDEF
  5
55
330
42
100
AcDbEntity
  8
ASHADE
  6
Continuous
 62
     7
100
AcDbText
 10
0.0
 20
0.19
 30
0.0
 40
0.01
  1
0
100
AcDbAttributeDefinition
280
     0
  3
Depth Map Size
  2
CONEA
 70
     1
280
     0
  0
ATTDEF
  5
56
330
42
100
AcDbEntity
  8
ASHADE
  6
Continuous
 62
     7
100
AcDbText
 10
0.0
 20
0.2050000000000001
 30
0.0
 40
0.01
  1
1,1,1
100
AcDbAttributeDefinition
280
     0
  3
Light Color (RGB)
  2
COLOR
 70
     1
280
     0
  0
ATTDEF
  5
57
330
42
100
AcDbEntity
  8
ASHADE
  6
Continuous
 62
     7
100
AcDbText
 10
0.0
 20
0.235
 30
0.0
 40
0.01
  1

100
AcDbAttributeDefinition
280
     0
  3
Look-at Z
  2
LAZ
 70
     1
280
     0
  0
ATTDEF
  5
58
330
42
100
AcDbEntity
  8
ASHADE
  6
Continuous
 62
     7
100
AcDbText
 10
0.0
 20
0.25
 30
0.0
 40
0.01
  1

100
AcDbAttributeDefinition
280
     0
  3
Look-at Y
  2
LAY
 70
     1
280
     0
  0
ATTDEF
  5
59
330
42
100
AcDbEntity
  8
ASHADE
  6
Continuous
 62
     7
100
AcDbText
 10
0.0
 20
0.265
 30
0.0
 40
0.01
  1

100
AcDbAttributeDefinition
280
     0
  3
Look-at X
  2
LAX
 70
     1
280
     0
  0
ATTDEF
  5
5A
330
42
100
AcDbEntity
  8
ASHADE
  6
Continuous
 62
     7
100
AcDbText
 10
0.0
 20
0.28
 30
0.0
 40
0.01
  1

100
AcDbAttributeDefinition
280
     0
  3

  2
GNAME
 70
     1
280
     0
  0
LINE
  5
5B
330
42
100
AcDbEntity
  8
ASHADE
  6
Continuous
 62
     7
100
AcDbLine
 10
0.1096591641591904
 20
0.2792398032442862
 30
0.0
 11
0.1279356915190555
 21
0.3257797704516674
 31
0.0
  0
LINE
  5
5C
330
42
100
AcDbEntity
  8
ASHADE
  6
Continuous
 62
     7
100
AcDbLine
 10
0.2041413561583015
 20
0.2198324514393849
 30
0.0
 11
0.2721884748777353
 21
0.2931099352525131
 31
0.0
  0
ENDBLK
  5
5E
330
42
100
AcDbEntity
  8
0
100
AcDbBlockEnd
  0
BLOCK
  5
85
330
5F
100
AcDbEntity
  8
0
100
AcDbBlockBegin
  2
sh_spot
 70
     2
 10
0.0
 20
0.0
 30
0.0
  3
sh_spot
  1

  0
LINE
  5
60
330
5F
100
AcDbEntity
  8
ASHADE
  6
Continuous
 62
     7
100
AcDbLine
 10
0.25
 20
0.26
 30
0.0
 11
-0.25
 21
0.26
 31
0.0
  0
LINE
  5
61
330
5F
100
AcDbEntity
  8
ASHADE
  6
Continuous
 62
     7
100
AcDbLine
 10
-0.25
 20
-0.3399999999999999
 30
0.0
 11
0.25
 21
-0.3399999999999999
 31
0.0
  0
ATTDEF
  5
62
330
5F
100
AcDbEntity
  8
ASHADE
  6
Continuous
 62
     1
100
AcDbText
 10
0.0
 20
-0.1
 30
0.0
 40
0.2
  1

  7
ASHADE
 72
     1
 11
0.0
 21
-0.1
 31
0.0
100
AcDbAttributeDefinition
280
     0
  3
Light Name
  2
SNAME
 70
     0
280
     0
  0
LINE
  5
63
330
5F
100
AcDbEntity
  8
ASHADE
  6
Continuous
 62
     7
100
AcDbLine
 10
-0.25
 20
-0.13
 30
0.0
 11
-0.25
 21
-0.3399999999999999
 31
0.0
  0
LINE
  5
64
330
5F
100
AcDbEntity
  8
ASHADE
  6
Continuous
 62
     7
100
AcDbLine
 10
-0.25
 20
-0.18
 30
0.0
 11
-0.29
 21
-0.18
 31
0.0
  0
LINE
  5
65
330
5F
100
AcDbEntity
  8
ASHADE
  6
Continuous
 62
     7
100
AcDbLine
 10
-0.29
 20
-0.22
 30
0.0
 11
-0.25
 21
-0.22
 31
0.0
  0
LINE
  5
66
330
5F
100
AcDbEntity
  8
ASHADE
  6
Continuous
 62
     7
100
AcDbLine
 10
-0.29
 20
-0.18
 30
0.0
 11
-0.29
 21
-0.22
 31
0.0
  0
LINE
  5
67
330
5F
100
AcDbEntity
  8
ASHADE
  6
Continuous
 62
     7
100
AcDbLine
 10
-0.1045454545454545
 20
0.26
 30
0.0
 11
-0.15
 21
0.46
 31
0.0
  0
LINE
  5
68
330
5F
100
AcDbEntity
  8
ASHADE
  6
Continuous
 62
     7
100
AcDbLine
 10
-0.21
 20
0.26
 30
0.0
 11
-0.301304347826087
 21
0.46
 31
0.0
  0
LINE
  5
69
330
5F
100
AcDbEntity
  8
ASHADE
  6
Continuous
 62
     7
100
AcDbLine
 10
-0.25
 20
0.26
 30
0.0
 11
-0.25
 21
0.13
 31
0.0
  0
LINE
  5
6A
330
5F
100
AcDbEntity
  8
ASHADE
  6
Continuous
 62
     7
100
AcDbLine
 10
-0.25
 20
0.22
 30
0.0
 11
-0.29
 21
0.22
 31
0.0
  0
LINE
  5
6B
330
5F
100
AcDbEntity
  8
ASHADE
  6
Continuous
 62
     7
100
AcDbLine
 10
-0.29
 20
0.1799999999999999
 30
0.0
 11
-0.25
 21
0.1799999999999999
 31
0.0
  0
LINE
  5
6C
330
5F
100
AcDbEntity
  8
ASHADE
  6
Continuous
 62
     7
100
AcDbLine
 10
-0.29
 20
0.22
 30
0.0
 11
-0.29
 21
0.1799999999999999
 31
0.0
  0
ATTDEF
  5
6D
330
5F
100
AcDbEntity
  8
ASHADE
  6
Continuous
 62
     7
100
AcDbText
 10
0.0
 20
-0.24
 30
0.0
 40
0.01
  1
0
100
AcDbAttributeDefinition
280
     0
  3
Depth Map Size
  2
ZSIZE
 70
     1
280
     0
  0
ATTDEF
  5
6E
330
5F
100
AcDbEntity
  8
ASHADE
  6
Continuous
 62
     7
100
AcDbText
 10
0.0
 20
-0.3300000000000001
 30
0.0
 40
0.01
  1
0,0,0
100
AcDbAttributeDefinition
280
     0
  3
Look-from XYZ
  2
LFXYZ
 70
     1
280
     0
  0
ATTDEF
  5
6F
330
5F
100
AcDbEntity
  8
ASHADE
  6
Continuous
 62
     7
100
AcDbText
 10
0.0
 20
-0.315
 30
0.0
 40
0.01
  1
0.0
100
AcDbAttributeDefinition
280
     0
  3
Beam Distribution
  2
BEAMDI
 70
     1
280
     0
  0
ATTDEF
  5
70
330
5F
100
AcDbEntity
  8
ASHADE
  6
Continuous
 62
     7
100
AcDbText
 10
0.0
 20
-0.3
 30
0.0
 40
0.01
  1
0.0
100
AcDbAttributeDefinition
280
     0
  3
Cone Delta
  2
CONEDE
 70
     1
280
     0
  0
ATTDEF
  5
71
330
5F
100
AcDbEntity
  8
ASHADE
  6
Continuous
 62
     7
100
AcDbText
 10
0.0
 20
-0.2850000000000001
 30
0.0
 40
0.01
  1
10.0
100
AcDbAttributeDefinition
280
     0
  3
Cone Angle
  2
CONEAN
 70
     1
280
     0
  0
ATTDEF
  5
72
330
5F
100
AcDbEntity
  8
ASHADE
  6
Continuous
 62
     7
100
AcDbText
 10
0.0
 20
-0.27
 30
0.0
 40
0.01
  1
-1
100
AcDbAttributeDefinition
280
     0
  3
*not used*
  2
BIASMAX
 70
     1
280
     0
  0
ATTDEF
  5
73
330
5F
100
AcDbEntity
  8
ASHADE
  6
Continuous
 62
     7
100
AcDbText
 10
0.0
 20
-0.255
 30
0.0
 40
0.01
  1
-1
100
AcDbAttributeDefinition
280
     0
  3
*not used*
  2
BIASMIN
 70
     1
280
     0
  0
ATTDEF
  5
74
330
5F
100
AcDbEntity
  8
ASHADE
  6
Continuous
 62
     7
100
AcDbText
 10
0.0
 20
-0.225
 30
0.0
 40
0.01
  1
1,1,1
100
AcDbAttributeDefinition
280
     0
  3
Light Color (RGB)
  2
COLOR
 70
     1
280
     0
  0
ATTDEF
  5
75
330
5F
100
AcDbEntity
  8
ASHADE
  6
Continuous
 62
     7
100
AcDbText
 10
0.0
 20
-0.21
 30
0.0
 40
0.01
  1
1
100
AcDbAttributeDefinition
280
     0
  3
Light Intensity
  2
INTENSITY
 70
     1
280
     0
  0
ATTDEF
  5
76
330
5F
100
AcDbEntity
  8
ASHADE
  6
Continuous
 62
     7
100
AcDbText
 10
0.0
 20
-0.15
 30
0.0
 40
0.01
  1

100
AcDbAttributeDefinition
280
     0
  3

  2
GNAME
 70
     1
280
     0
  0
ATTDEF
  5
77
330
5F
100
AcDbEntity
  8
ASHADE
  6
Continuous
 62
     7
100
AcDbText
 10
0.0
 20
-0.195
 30
0.0
 40
0.01
  1

100
AcDbAttributeDefinition
280
     0
  3
Look-at Z
  2
LAZ
 70
     1
280
     0
  0
ATTDEF
  5
78
330
5F
100
AcDbEntity
  8
ASHADE
  6
Continuous
 62
     7
100
AcDbText
 10
0.0
 20
-0.18
 30
0.0
 40
0.01
  1

100
AcDbAttributeDefinition
280
     0
  3
Look-at Y
  2
LAY
 70
     1
280
     0
  0
ATTDEF
  5
79
330
5F
100
AcDbEntity
  8
ASHADE
  6
Continuous
 62
     7
100
AcDbText
 10
0.0
 20
-0.165
 30
0.0
 40
0.01
  1

100
AcDbAttributeDefinition
280
     0
  3
Look-at X
  2
LAX
 70
     1
280
     0
  0
LINE
  5
7A
330
5F
100
AcDbEntity
  8
ASHADE
  6
Continuous
 62
     7
100
AcDbLine
 10
0.25
 20
-0.3399999999999999
 30
0.0
 11
0.25
 21
-0.13
 31
0.0
  0
LINE
  5
7B
330
5F
100
AcDbEntity
  8
ASHADE
  6
Continuous
 62
     7
100
AcDbLine
 10
0.25
 20
-0.18
 30
0.0
 11
0.29
 21
-0.18
 31
0.0
  0
LINE
  5
7C
330
5F
100
AcDbEntity
  8
ASHADE
  6
Continuous
 62
     7
100
AcDbLine
 10
0.29
 20
-0.22
 30
0.0
 11
0.25
 21
-0.22
 31
0.0
  0
LINE
  5
7D
330
5F
100
AcDbEntity
  8
ASHADE
  6
Continuous
 62
     7
100
AcDbLine
 10
0.29
 20
-0.18
 30
0.0
 11
0.29
 21
-0.22
 31
0.0
  0
LINE
  5
7E
330
5F
100
AcDbEntity
  8
ASHADE
  6
Continuous
 62
     7
100
AcDbLine
 10
0.21
 20
0.26
 30
0.0
 11
0.301304347826087
 21
0.46
 31
0.0
  0
LINE
  5
7F
330
5F
100
AcDbEntity
  8
ASHADE
  6
Continuous
 62
     7
100
AcDbLine
 10
0.1045454545454545
 20
0.26
 30
0.0
 11
0.15
 21
0.46
 31
0.0
  0
LINE
  5
80
330
5F
100
AcDbEntity
  8
ASHADE
  6
Continuous
 62
     7
100
AcDbLine
 10
0.0
 20
0.26
 30
0.0
 11
0.0
 21
0.46
 31
0.0
  0
LINE
  5
81
330
5F
100
AcDbEntity
  8
ASHADE
  6
Continuous
 62
     7
100
AcDbLine
 10
0.25
 20
0.13
 30
0.0
 11
0.25
 21
0.26
 31
0.0
  0
LINE
  5
82
330
5F
100
AcDbEntity
  8
ASHADE
  6
Continuous
 62
     7
100
AcDbLine
 10
0.25
 20
0.22
 30
0.0
 11
0.29
 21
0.22
 31
0.0
  0
LINE
  5
83
330
5F
100
AcDbEntity
  8
ASHADE
  6
Continuous
 62
     7
100
AcDbLine
 10
0.29
 20
0.1799999999999999
 30
0.0
 11
0.25
 21
0.1799999999999999
 31
0.0
  0
LINE
  5
84
330
5F
100
AcDbEntity
  8
ASHADE
  6
Continuous
 62
     7
100
AcDbLine
 10
0.29
 20
0.22
 30
0.0
 11
0.29
 21
0.1799999999999999
 31
0.0
  0
ENDBLK
  5
86
330
5F
100
AcDbEntity
  8
0
100
AcDbBlockEnd
  0
BLOCK
  5
92
330
91
100
AcDbEntity
  8
ASHADE
100
AcDbBlockBegin
  2
AVE_RENDER
 70
     0
 10
0.0
 20
0.0
 30
0.0
  3
AVE_RENDER
  1
AVE_RENDER
  0
ENDBLK
  5
93
330
91
100
AcDbEntity
  8
0
100
AcDbBlockEnd
  0
BLOCK
  5
A0
330
9F
100
AcDbEntity
  8
ASHADE
100
AcDbBlockBegin
  2
AVE_GLOBAL
 70
     0
 10
0.0
 20
0.0
 30
0.0
  3
AVE_GLOBAL
  1
AVE_GLOBAL
  0
ENDBLK
  5
A1
330
9F
100
AcDbEntity
  8
0
100
AcDbBlockEnd
  0
ENDSEC
  0
SECTION
  2
ENTITIES
  0
INSERT
  5
94
330
1F
100
AcDbEntity
  8
ASHADE
 62
     1
100
AcDbBlockReference
  2
AVE_RENDER
 10
0.0
 20
0.0
 30
0.0
1001
AVE_RENDER
1002
{
1070
     7
1000
Pref
1070
    30
1070
    20
1070
     1
1070
     0
1000

1070
    10
1070
     1
1070
    10
1040
1.0
1070
     1
1040
0.3
1040
0.7
1040
0.0
1040
10.0
1010
-1.0
1020
-1.0
1030
-1.0
1040
0.3
1070
    49
1070
     0
1070
     0
1010
1.0
1020
1.0
1030
1.0
1040
45.0
1070
     1
1070
     0
1000
WCS
1040
0.0
1070
     0
1040
10.0
1002
}
  0
INSERT
  5
95
330
1F
100
AcDbEntity
  8
ASHADE
 62
     3
100
AcDbBlockReference
  2
AVE_RENDER
 10
0.0
 20
0.0
 30
0.0
1001
AVE_RENDER
1002
{
1070
     0
1000
Full Opt
1070
     0
1070
     1
1070
     1
1070
     1
1070
     0
1070
     0
1070
     0
1070
     1
1070
     1
1040
0.0001
1040
0.0001
1002
}
  0
INSERT
  5
96
330
1F
100
AcDbEntity
  8
ASHADE
 62
     4
100
AcDbBlockReference
  2
AVE_RENDER
 10
0.0
 20
0.0
 30
0.0
1001
AVE_RENDER
1002
{
1070
     0
1000
Quick Opt
1070
     0
1070
     1
1070
     1
1070
     1
1070
     0
1070
     0
1070
     1
1002
}
  0
INSERT
  5
97
330
1F
100
AcDbEntity
  8
ASHADE
 62
     5
100
AcDbBlockReference
  2
AVE_RENDER
 10
0.0
 20
0.0
 30
0.0
1001
AVE_RENDER
1002
{
1070
     1
1000
Scanl Opt
1070
     2
1070
     0
1070
     2
1040
2.0
1040
4.0
1070
     0
1070
     1
1070
     0
1040
0.03
1002
}
  0
INSERT
  5
98
330
1F
100
AcDbEntity
  8
ASHADE
 62
     6
100
AcDbBlockReference
  2
AVE_RENDER
 10
0.0
 20
0.0
 30
0.0
1001
AVE_RENDER
1002
{
1070
     2
1000
Raytr Opt
1070
     2
1070
     0
1070
     2
1040
2.0
1040
4.0
1070
     0
1070
     1
1070
     1
1040
0.03
1070
     3
1040
0.03
1002
}
  0
INSERT
  5
99
330
1F
100
AcDbEntity
  8
ASHADE
 62
     7
100
AcDbBlockReference
  2
AVE_RENDER
 10
0.0
 20
0.0
 30
0.0
1001
AVE_RENDER
1002
{
1070
     0
1000
RFile Opt
1070
     1
1070
   640
1070
   480
1070
 10000
1070
     1
1070
     8
1070
     8
1070
     0
1070
     0
1070
     0
1070
     0
1070
     0
1070
     0
1070
     0
1002
}
  0
INSERT
  5
9A
330
1F
100
AcDbEntity
  8
ASHADE
 62
     8
100
AcDbBlockReference
  2
AVE_RENDER
 10
0.0
 20
0.0
 30
0.0
1001
AVE_RENDER
1002
{
1070
     0
1000
Fog Opt
1070
     0
1070
     0
1040
0.0
1040
1.0
1040
0.0
1040
1.0
1010
0.5
1020
0.5
1030
0.5
1002
}
  0
INSERT
  5
9B
330
1F
100
AcDbEntity
  8
ASHADE
 62
     9
100
AcDbBlockReference
  2
AVE_RENDER
 10
0.0
 20
0.0
 30
0.0
1001
AVE_RENDER
1002
{
1070
     0
1000
BG Opt
1070
     0
1070
     1
1010
0.0
1020
0.0
1030
0.0
1010
1.0
1020
0.0
1030
0.0
1010
0.0
1020
1.0
1030
0.0
1010
0.0
1020
0.0
1030
1.0
1040
0.5
1040
0.33
1040
0.0
1000

1070
     1
1000

1070
     1
1070
     1
1040
1.0
1040
1.0
1040
0.0
1040
0.0
1070
     0
1002
}
  0
INSERT
  5
A2
330
1F
100
AcDbEntity
  8
ASHADE
 62
     1
100
AcDbBlockReference
  2
AVE_GLOBAL
 10
0.0
 20
0.0
 30
0.0
1001
AVE_MATERIAL
1002
{
1000
*GLOBAL*
1000
2
1000
Global finish.
1002
{
1002
}
1002
{
1070
    63
1002
{
1002
{
1010
-1.0
1020
-1.0
1030
-1.0
1002
}
1040
0.1000000014901161
1000

1040
0.0
1002
{
1002
}
1040
0.0
1002
{
1002
}
1040
0.0
1002
}
1002
{
1002
{
1010
-1.0
1020
-1.0
1030
-1.0
1002
}
1040
0.6999999880790711
1000

1040
0.0
1002
{
1002
}
1040
0.0
1002
{
1002
}
1040
0.0
1002
}
1002
{
1002
{
1010
-1.0
1020
-1.0
1030
-1.0
1002
}
1040
0.2000000029802322
1000

1040
0.0
1002
{
1002
}
1040
0.0
1002
{
1002
}
1040
0.0
1002
}
1002
{
1070
     0
1002
{
1070
     1
1002
{
1040
1.0
1040
1.0
1000

1040
0.0
1002
{
1002
}
1040
0.0
1002
{
1002
}
1040
0.0
1002
}
1002
}
1040
1.0
1040
0.0
1040
0.0
1002
}
1002
{
1040
1.0
1040
1.0
1000

1040
0.0
1002
{
1002
}
1040
0.0
1002
{
1002
}
1040
0.0
1002
}
1002
{
1040
0.5
1040
1.0
1000

1040
0.0
1002
{
1002
}
1040
0.0
1002
{
1002
}
1040
0.0
1002
}
1002
{
1070
     0
1040
0.0
1002
{
1002
}
1040
1.0
1002
{
1002
}
1040
0.0
1002
}
1002
{
1040
0.0
1002
{
1002
{
1010
0.0
1020
0.0
1030
0.0
1002
}
1040
1.0
1000

1040
0.0
1002
{
1002
}
1040
0.0
1002
{
1002
}
1040
0.0
1002
}
1002
}
1002
{
1002
{
1070
     1
1002
{
1040
0.0
1040
1.0
1000

1040
0.0
1002
{
1002
}
1040
0.0
1002
{
1002
}
1040
0.0
1002
}
1002
}
1040
0.0
1002
{
1002
}
1010
1.0
1020
0.0
1030
0.0
1010
0.0
1020
1.0
1030
0.0
1010
0.0
1020
0.0
1030
1.0
1070
     0
1002
}
1002
{
1002
{
1040
1.0
1040
1.0
1002
{
1070
     1
1002
{
1040
1.0
1040
1.0
1000

1040
0.0
1002
{
1002
}
1040
0.0
1002
{
1002
}
1040
0.0
1002
}
1002
}
1002
}
1070
     0
1040
0.0
1002
{
1002
}
1002
}
1002
{
1002
}
1002
}
1002
{
1071
        3
1070
     3
1070
     0
1002
{
1070
     2
1070
     0
1070
     0
1040
0.0
1002
}
1070
     0
1070
     2
1002
{
1002
}
1002
}
1002
{
1040
8030.0
1040
190.3000030517578
1040
0.3050000071525574
1040
228.0
1040
545.0
1040
14.0
1040
17.39999961853027
1040
0.4560000002384186
1002
}
1002
}
  0
POLYLINE
  5
FC
330
1F
100
AcDbEntity
  8
assembly hole
100
AcDb3dPolyline
 66
     1
 10
0.0
 20
0.0
 30
0.0
 70
     9
  0
VERTEX
  5
FD
330
FC
100
AcDbEntity
  8
assembly hole
100
AcDbVertex
100
AcDb3dPolylineVertex
 10
280.0
 20
9.45687198638916
 30
113.0
 70
    32
  0
VERTEX
  5
FE
330
FC
100
AcDbEntity
  8
assembly hole
100
AcDbVertex
100
AcDb3dPolylineVertex
 10
279.9609375
 20
9.45687198638916
 30
114.54248046875
 70
    32
  0
VERTEX
  5
FF
330
FC
100
AcDbEntity
  8
assembly hole
100
AcDbVertex
100
AcDb3dPolylineVertex
 10
279.8449401855469
 20
9.45687198638916
 30
116.0648651123047
 70
    32
  0
VERTEX
  5
100
330
FC
100
AcDbEntity
  8
assembly hole
100
AcDbVertex
100
AcDb3dPolylineVertex
 10
279.6539916992188
 20
9.45687198638916
 30
117.5652465820312
 70
    32
  0
VERTEX
  5
101
330
FC
100
AcDbEntity
  8
assembly hole
100
AcDbVertex
100
AcDb3dPolylineVertex
 10
279.389892578125
 20
9.45687198638916
 30
119.0417556762695
 70
    32
  0
VERTEX
  5
102
330
FC
100
AcDbEntity
  8
assembly hole
100
AcDbVertex
100
AcDb3dPolylineVertex
 10
279.0545959472656
 20
9.45687198638916
 30
120.4924774169922
 70
    32
  0
VERTEX
  5
103
330
FC
100
AcDbEntity
  8
assembly hole
100
AcDbVertex
100
AcDb3dPolylineVertex
 10
278.6499633789063
 20
9.45687198638916
 30
121.91552734375
 70
    32
  0
VERTEX
  5
104
330
FC
100
AcDbEntity
  8
assembly hole
100
AcDbVertex
100
AcDb3dPolylineVertex
 10
278.1779174804687
 20
9.45687198638916
 30
123.3090133666992
 70
    32
  0
VERTEX
  5
105
330
FC
100
AcDbEntity
  8
assembly hole
100
AcDbVertex
100
AcDb3dPolylineVertex
 10
277.6403503417969
 20
9.45687198638916
 30
124.6710433959961
 70
    32
  0
VERTEX
  5
106
330
FC
100
AcDbEntity
  8
assembly hole
100
AcDbVertex
100
AcDb3dPolylineVertex
 10
277.0391235351563
 20
9.45687198638916
 30
125.9997253417969
 70
    32
  0
VERTEX
  5
107
330
FC
100
AcDbEntity
  8
assembly hole
100
AcDbVertex
100
AcDb3dPolylineVertex
 10
276.3761596679688
 20
9.45687198638916
 30
127.2931518554687
 70
    32
  0
VERTEX
  5
108
330
FC
100
AcDbEntity
  8
assembly hole
100
AcDbVertex
100
AcDb3dPolylineVertex
 10
275.6533203125
 20
9.45687198638916
 30
128.5494537353515
 70
    32
  0
VERTEX
  5
109
330
FC
100
AcDbEntity
  8
assembly hole
100
AcDbVertex
100
AcDb3dPolylineVertex
 10
274.8725280761719
 20
9.45687198638916
 30
129.7667083740234
 70
    32
  0
VERTEX
  5
10A
330
FC
100
AcDbEntity
  8
assembly hole
100
AcDbVertex
100
AcDb3dPolylineVertex
 10
274.0356750488281
 20
9.45687198638916
 30
130.9430541992187
 70
    32
  0
VERTEX
  5
10B
330
FC
100
AcDbEntity
  8
assembly hole
100
AcDbVertex
100
AcDb3dPolylineVertex
 10
273.1446228027344
 20
9.45687198638916
 30
132.0765686035156
 70
    32
  0
VERTEX
  5
10C
330
FC
100
AcDbEntity
  8
assembly hole
100
AcDbVertex
100
AcDb3dPolylineVertex
 10
272.2012939453125
 20
9.45687198638916
 30
133.1653900146484
 70
    32
  0
VERTEX
  5
10D
330
FC
100
AcDbEntity
  8
assembly hole
100
AcDbVertex
100
AcDb3dPolylineVertex
 10
271.2075805664063
 20
9.45687198638916
 30
134.2075958251953
 70
    32
  0
VERTEX
  5
10E
330
FC
100
AcDbEntity
  8
assembly hole
100
AcDbVertex
100
AcDb3dPolylineVertex
 10
270.1654052734375
 20
9.45687198638916
 30
135.2013092041015
 70
    32
  0
VERTEX
  5
10F
330
FC
100
AcDbEntity
  8
assembly hole
100
AcDbVertex
100
AcDb3dPolylineVertex
 10
269.0765991210938
 20
9.45687198638916
 30
136.1446228027344
 70
    32
  0
VERTEX
  5
110
330
FC
100
AcDbEntity
  8
assembly hole
100
AcDbVertex
100
AcDb3dPolylineVertex
 10
267.9430541992187
 20
9.45687198638916
 30
137.0356750488281
 70
    32
  0
VERTEX
  5
111
330
FC
100
AcDbEntity
  8
assembly hole
100
AcDbVertex
100
AcDb3dPolylineVertex
 10
266.7667236328125
 20
9.45687198638916
 30
137.8725280761718
 70
    32
  0
VERTEX
  5
112
330
FC
100
AcDbEntity
  8
assembly hole
100
AcDbVertex
100
AcDb3dPolylineVertex
 10
265.5494384765625
 20
9.45687198638916
 30
138.6533203125
 70
    32
  0
VERTEX
  5
113
330
FC
100
AcDbEntity
  8
assembly hole
100
AcDbVertex
100
AcDb3dPolylineVertex
 10
264.2931518554687
 20
9.45687198638916
 30
139.3761444091797
 70
    32
  0
VERTEX
  5
114
330
FC
100
AcDbEntity
  8
assembly hole
100
AcDbVertex
100
AcDb3dPolylineVertex
 10
262.9997253417969
 20
9.45687198638916
 30
140.0391235351562
 70
    32
  0
VERTEX
  5
115
330
FC
100
AcDbEntity
  8
assembly hole
100
AcDbVertex
100
AcDb3dPolylineVertex
 10
261.6710510253906
 20
9.45687198638916
 30
140.6403503417968
 70
    32
  0
VERTEX
  5
116
330
FC
100
AcDbEntity
  8
assembly hole
100
AcDbVertex
100
AcDb3dPolylineVertex
 10
260.3090209960937
 20
9.45687198638916
 30
141.1779327392578
 70
    32
  0
VERTEX
  5
117
330
FC
100
AcDbEntity
  8
assembly hole
100
AcDbVertex
100
AcDb3dPolylineVertex
 10
258.91552734375
 20
9.45687198638916
 30
141.6499786376953
 70
    32
  0
VERTEX
  5
118
330
FC
100
AcDbEntity
  8
assembly hole
100
AcDbVertex
100
AcDb3dPolylineVertex
 10
257.4924926757812
 20
9.45687198638916
 30
142.0545959472656
 70
    32
  0
VERTEX
  5
119
330
FC
100
AcDbEntity
  8
assembly hole
100
AcDbVertex
100
AcDb3dPolylineVertex
 10
256.041748046875
 20
9.45687198638916
 30
142.389892578125
 70
    32
  0
VERTEX
  5
11A
330
FC
100
AcDbEntity
  8
assembly hole
100
AcDbVertex
100
AcDb3dPolylineVertex
 10
254.5652465820313
 20
9.45687198638916
 30
142.6539764404297
 70
    32
  0
VERTEX
  5
11B
330
FC
100
AcDbEntity
  8
assembly hole
100
AcDbVertex
100
AcDb3dPolylineVertex
 10
253.0648651123047
 20
9.45687198638916
 30
142.8449554443359
 70
    32
  0
VERTEX
  5
11C
330
FC
100
AcDbEntity
  8
assembly hole
100
AcDbVertex
100
AcDb3dPolylineVertex
 10
251.54248046875
 20
9.45687198638916
 30
142.9609222412109
 70
    32
  0
VERTEX
  5
11D
330
FC
100
AcDbEntity
  8
assembly hole
100
AcDbVertex
100
AcDb3dPolylineVertex
 10
250.0
 20
9.45687198638916
 30
143.0
 70
    32
  0
VERTEX
  5
11E
330
FC
100
AcDbEntity
  8
assembly hole
100
AcDbVertex
100
AcDb3dPolylineVertex
 10
248.45751953125
 20
9.45687198638916
 30
142.9609222412109
 70
    32
  0
VERTEX
  5
11F
330
FC
100
AcDbEntity
  8
assembly hole
100
AcDbVertex
100
AcDb3dPolylineVertex
 10
246.9351501464844
 20
9.45687198638916
 30
142.8449401855468
 70
    32
  0
VERTEX
  5
120
330
FC
100
AcDbEntity
  8
assembly hole
100
AcDbVertex
100
AcDb3dPolylineVertex
 10
245.4347534179687
 20
9.45687198638916
 30
142.6539764404297
 70
    32
  0
VERTEX
  5
121
330
FC
100
AcDbEntity
  8
assembly hole
100
AcDbVertex
100
AcDb3dPolylineVertex
 10
243.958251953125
 20
9.45687198638916
 30
142.389892578125
 70
    32
  0
VERTEX
  5
122
330
FC
100
AcDbEntity
  8
assembly hole
100
AcDbVertex
100
AcDb3dPolylineVertex
 10
242.5075225830078
 20
9.45687198638916
 30
142.0545959472656
 70
    32
  0
VERTEX
  5
123
330
FC
100
AcDbEntity
  8
assembly hole
100
AcDbVertex
100
AcDb3dPolylineVertex
 10
241.084457397461
 20
9.45687198638916
 30
141.6499786376953
 70
    32
  0
VERTEX
  5
124
330
FC
100
AcDbEntity
  8
assembly hole
100
AcDbVertex
100
AcDb3dPolylineVertex
 10
239.6909942626953
 20
9.45687198638916
 30
141.1779327392578
 70
    32
  0
VERTEX
  5
125
330
FC
100
AcDbEntity
  8
assembly hole
100
AcDbVertex
100
AcDb3dPolylineVertex
 10
238.3289489746094
 20
9.45687198638916
 30
140.6403503417968
 70
    32
  0
VERTEX
  5
126
330
FC
100
AcDbEntity
  8
assembly hole
100
AcDbVertex
100
AcDb3dPolylineVertex
 10
237.0002746582031
 20
9.45687198638916
 30
140.0391235351562
 70
    32
  0
VERTEX
  5
127
330
FC
100
AcDbEntity
  8
assembly hole
100
AcDbVertex
100
AcDb3dPolylineVertex
 10
235.7068481445312
 20
9.45687198638916
 30
139.3761596679687
 70
    32
  0
VERTEX
  5
128
330
FC
100
AcDbEntity
  8
assembly hole
100
AcDbVertex
100
AcDb3dPolylineVertex
 10
234.4505615234375
 20
9.45687198638916
 30
138.6533203125
 70
    32
  0
VERTEX
  5
129
330
FC
100
AcDbEntity
  8
assembly hole
100
AcDbVertex
100
AcDb3dPolylineVertex
 10
233.2332763671875
 20
9.45687198638916
 30
137.8725280761718
 70
    32
  0
VERTEX
  5
12A
330
FC
100
AcDbEntity
  8
assembly hole
100
AcDbVertex
100
AcDb3dPolylineVertex
 10
232.0569610595703
 20
9.45687198638916
 30
137.0356750488281
 70
    32
  0
VERTEX
  5
12B
330
FC
100
AcDbEntity
  8
assembly hole
100
AcDbVertex
100
AcDb3dPolylineVertex
 10
230.9234313964844
 20
9.45687198638916
 30
136.1446228027344
 70
    32
  0
VERTEX
  5
12C
330
FC
100
AcDbEntity
  8
assembly hole
100
AcDbVertex
100
AcDb3dPolylineVertex
 10
229.8346099853516
 20
9.45687198638916
 30
135.2013092041015
 70
    32
  0
VERTEX
  5
12D
330
FC
100
AcDbEntity
  8
assembly hole
100
AcDbVertex
100
AcDb3dPolylineVertex
 10
228.7924041748047
 20
9.45687198638916
 30
134.2075958251953
 70
    32
  0
VERTEX
  5
12E
330
FC
100
AcDbEntity
  8
assembly hole
100
AcDbVertex
100
AcDb3dPolylineVertex
 10
227.7986907958984
 20
9.45687198638916
 30
133.1653900146484
 70
    32
  0
VERTEX
  5
12F
330
FC
100
AcDbEntity
  8
assembly hole
100
AcDbVertex
100
AcDb3dPolylineVertex
 10
226.8553771972656
 20
9.45687198638916
 30
132.0765686035156
 70
    32
  0
VERTEX
  5
130
330
FC
100
AcDbEntity
  8
assembly hole
100
AcDbVertex
100
AcDb3dPolylineVertex
 10
225.9643249511719
 20
9.45687198638916
 30
130.9430541992187
 70
    32
  0
VERTEX
  5
131
330
FC
100
AcDbEntity
  8
assembly hole
100
AcDbVertex
100
AcDb3dPolylineVertex
 10
225.1274719238281
 20
9.45687198638916
 30
129.7667083740234
 70
    32
  0
VERTEX
  5
132
330
FC
100
AcDbEntity
  8
assembly hole
100
AcDbVertex
100
AcDb3dPolylineVertex
 10
224.3466796875
 20
9.45687198638916
 30
128.5494537353515
 70
    32
  0
VERTEX
  5
133
330
FC
100
AcDbEntity
  8
assembly hole
100
AcDbVertex
100
AcDb3dPolylineVertex
 10
223.6238403320312
 20
9.45687198638916
 30
127.2931518554687
 70
    32
  0
VERTEX
  5
134
330
FC
100
AcDbEntity
  8
assembly hole
100
AcDbVertex
100
AcDb3dPolylineVertex
 10
222.9608764648438
 20
9.45687198638916
 30
125.9997253417969
 70
    32
  0
VERTEX
  5
135
330
FC
100
AcDbEntity
  8
assembly hole
100
AcDbVertex
100
AcDb3dPolylineVertex
 10
222.3596496582031
 20
9.45687198638916
 30
124.6710433959961
 70
    32
  0
VERTEX
  5
136
330
FC
100
AcDbEntity
  8
assembly hole
100
AcDbVertex
100
AcDb3dPolylineVertex
 10
221.8220672607422
 20
9.45687198638916
 30
123.3090133666992
 70
    32
  0
VERTEX
  5
137
330
FC
100
AcDbEntity
  8
assembly hole
100
AcDbVertex
100
AcDb3dPolylineVertex
 10
221.3500213623047
 20
9.45687198638916
 30
121.91552734375
 70
    32
  0
VERTEX
  5
138
330
FC
100
AcDbEntity
  8
assembly hole
100
AcDbVertex
100
AcDb3dPolylineVertex
 10
220.9454040527344
 20
9.45687198638916
 30
120.4924774169922
 70
    32
  0
VERTEX
  5
139
330
FC
100
AcDbEntity
  8
assembly hole
100
AcDbVertex
100
AcDb3dPolylineVertex
 10
220.610107421875
 20
9.45687198638916
 30
119.0417556762695
 70
    32
  0
VERTEX
  5
13A
330
FC
100
AcDbEntity
  8
assembly hole
100
AcDbVertex
100
AcDb3dPolylineVertex
 10
220.3460235595703
 20
9.45687198638916
 30
117.5652465820312
 70
    32
  0
VERTEX
  5
13B
330
FC
100
AcDbEntity
  8
assembly hole
100
AcDbVertex
100
AcDb3dPolylineVertex
 10
220.1550598144531
 20
9.45687198638916
 30
116.0648651123047
 70
    32
  0
VERTEX
  5
13C
330
FC
100
AcDbEntity
  8
assembly hole
100
AcDbVertex
100
AcDb3dPolylineVertex
 10
220.0390777587891
 20
9.45687198638916
 30
114.54248046875
 70
    32
  0
VERTEX
  5
13D
330
FC
100
AcDbEntity
  8
assembly hole
100
AcDbVertex
100
AcDb3dPolylineVertex
 10
220.0
 20
9.45687198638916
 30
113.0
 70
    32
  0
VERTEX
  5
13E
330
FC
100
AcDbEntity
  8
assembly hole
100
AcDbVertex
100
AcDb3dPolylineVertex
 10
220.0390777587891
 20
9.45687198638916
 30
111.45751953125
 70
    32
  0
VERTEX
  5
13F
330
FC
100
AcDbEntity
  8
assembly hole
100
AcDbVertex
100
AcDb3dPolylineVertex
 10
220.1550598144531
 20
9.45687198638916
 30
109.9351348876953
 70
    32
  0
VERTEX
  5
140
330
FC
100
AcDbEntity
  8
assembly hole
100
AcDbVertex
100
AcDb3dPolylineVertex
 10
220.3460388183594
 20
9.45687198638916
 30
108.4347534179687
 70
    32
  0
VERTEX
  5
141
330
FC
100
AcDbEntity
  8
assembly hole
100
AcDbVertex
100
AcDb3dPolylineVertex
 10
220.610107421875
 20
9.45687198638916
 30
106.9582443237304
 70
    32
  0
VERTEX
  5
142
330
FC
100
AcDbEntity
  8
assembly hole
100
AcDbVertex
100
AcDb3dPolylineVertex
 10
220.9453887939453
 20
9.45687198638916
 30
105.5075225830078
 70
    32
  0
VERTEX
  5
143
330
FC
100
AcDbEntity
  8
assembly hole
100
AcDbVertex
100
AcDb3dPolylineVertex
 10
221.3500213623047
 20
9.45687198638916
 30
104.08447265625
 70
    32
  0
VERTEX
  5
144
330
FC
100
AcDbEntity
  8
assembly hole
100
AcDbVertex
100
AcDb3dPolylineVertex
 10
221.8220672607422
 20
9.45687198638916
 30
102.6909866333008
 70
    32
  0
VERTEX
  5
145
330
FC
100
AcDbEntity
  8
assembly hole
100
AcDbVertex
100
AcDb3dPolylineVertex
 10
222.3596496582031
 20
9.45687198638916
 30
101.3289566040039
 70
    32
  0
VERTEX
  5
146
330
FC
100
AcDbEntity
  8
assembly hole
100
AcDbVertex
100
AcDb3dPolylineVertex
 10
222.9608764648438
 20
9.45687198638916
 30
100.0002746582031
 70
    32
  0
VERTEX
  5
147
330
FC
100
AcDbEntity
  8
assembly hole
100
AcDbVertex
100
AcDb3dPolylineVertex
 10
223.6238555908203
 20
9.45687198638916
 30
98.70684814453126
 70
    32
  0
VERTEX
  5
148
330
FC
100
AcDbEntity
  8
assembly hole
100
AcDbVertex
100
AcDb3dPolylineVertex
 10
224.3466949462891
 20
9.45687198638916
 30
97.45054626464844
 70
    32
  0
VERTEX
  5
149
330
FC
100
AcDbEntity
  8
assembly hole
100
AcDbVertex
100
AcDb3dPolylineVertex
 10
225.1274719238281
 20
9.45687198638916
 30
96.23328399658204
 70
    32
  0
VERTEX
  5
14A
330
FC
100
AcDbEntity
  8
assembly hole
100
AcDbVertex
100
AcDb3dPolylineVertex
 10
225.9643249511719
 20
9.45687198638916
 30
95.05694580078126
 70
    32
  0
VERTEX
  5
14B
330
FC
100
AcDbEntity
  8
assembly hole
100
AcDbVertex
100
AcDb3dPolylineVertex
 10
226.8553771972656
 20
9.45687198638916
 30
93.92342376708985
 70
    32
  0
VERTEX
  5
14C
330
FC
100
AcDbEntity
  8
assembly hole
100
AcDbVertex
100
AcDb3dPolylineVertex
 10
227.7986907958984
 20
9.45687198638916
 30
92.83460998535156
 70
    32
  0
VERTEX
  5
14D
330
FC
100
AcDbEntity
  8
assembly hole
100
AcDbVertex
100
AcDb3dPolylineVertex
 10
228.7924041748047
 20
9.45687198638916
 30
91.79240417480469
 70
    32
  0
VERTEX
  5
14E
330
FC
100
AcDbEntity
  8
assembly hole
100
AcDbVertex
100
AcDb3dPolylineVertex
 10
229.8346099853516
 20
9.45687198638916
 30
90.79869079589844
 70
    32
  0
VERTEX
  5
14F
330
FC
100
AcDbEntity
  8
assembly hole
100
AcDbVertex
100
AcDb3dPolylineVertex
 10
230.9234161376953
 20
9.45687198638916
 30
89.85536956787109
 70
    32
  0
VERTEX
  5
150
330
FC
100
AcDbEntity
  8
assembly hole
100
AcDbVertex
100
AcDb3dPolylineVertex
 10
232.0569458007812
 20
9.45687198638916
 30
88.9643325805664
 70
    32
  0
VERTEX
  5
151
330
FC
100
AcDbEntity
  8
assembly hole
100
AcDbVertex
100
AcDb3dPolylineVertex
 10
233.2332763671875
 20
9.45687198638916
 30
88.12747192382813
 70
    32
  0
VERTEX
  5
152
330
FC
100
AcDbEntity
  8
assembly hole
100
AcDbVertex
100
AcDb3dPolylineVertex
 10
234.4505462646484
 20
9.45687198638916
 30
87.34667968750001
 70
    32
  0
VERTEX
  5
153
330
FC
100
AcDbEntity
  8
assembly hole
100
AcDbVertex
100
AcDb3dPolylineVertex
 10
235.7068481445312
 20
9.45687198638916
 30
86.62384796142578
 70
    32
  0
VERTEX
  5
154
330
FC
100
AcDbEntity
  8
assembly hole
100
AcDbVertex
100
AcDb3dPolylineVertex
 10
237.0002746582031
 20
9.45687198638916
 30
85.96087646484376
 70
    32
  0
VERTEX
  5
155
330
FC
100
AcDbEntity
  8
assembly hole
100
AcDbVertex
100
AcDb3dPolylineVertex
 10
238.3289489746094
 20
9.45687198638916
 30
85.35964965820312
 70
    32
  0
VERTEX
  5
156
330
FC
100
AcDbEntity
  8
assembly hole
100
AcDbVertex
100
AcDb3dPolylineVertex
 10
239.6909790039063
 20
9.45687198638916
 30
84.82206726074219
 70
    32
  0
VERTEX
  5
157
330
FC
100
AcDbEntity
  8
assembly hole
100
AcDbVertex
100
AcDb3dPolylineVertex
 10
241.08447265625
 20
9.45687198638916
 30
84.35002136230469
 70
    32
  0
VERTEX
  5
158
330
FC
100
AcDbEntity
  8
assembly hole
100
AcDbVertex
100
AcDb3dPolylineVertex
 10
242.5075225830078
 20
9.45687198638916
 30
83.94540405273437
 70
    32
  0
VERTEX
  5
159
330
FC
100
AcDbEntity
  8
assembly hole
100
AcDbVertex
100
AcDb3dPolylineVertex
 10
243.958251953125
 20
9.45687198638916
 30
83.61010742187501
 70
    32
  0
VERTEX
  5
15A
330
FC
100
AcDbEntity
  8
assembly hole
100
AcDbVertex
100
AcDb3dPolylineVertex
 10
245.4347534179687
 20
9.45687198638916
 30
83.34602355957031
 70
    32
  0
VERTEX
  5
15B
330
FC
100
AcDbEntity
  8
assembly hole
100
AcDbVertex
100
AcDb3dPolylineVertex
 10
246.9351348876953
 20
9.45687198638916
 30
83.1550521850586
 70
    32
  0
VERTEX
  5
15C
330
FC
100
AcDbEntity
  8
assembly hole
100
AcDbVertex
100
AcDb3dPolylineVertex
 10
248.45751953125
 20
9.45687198638916
 30
83.03907775878906
 70
    32
  0
VERTEX
  5
15D
330
FC
100
AcDbEntity
  8
assembly hole
100
AcDbVertex
100
AcDb3dPolylineVertex
 10
250.0
 20
9.45687198638916
 30
83.0
 70
    32
  0
VERTEX
  5
15E
330
FC
100
AcDbEntity
  8
assembly hole
100
AcDbVertex
100
AcDb3dPolylineVertex
 10
251.54248046875
 20
9.45687198638916
 30
83.03907775878906
 70
    32
  0
VERTEX
  5
15F
330
FC
100
AcDbEntity
  8
assembly hole
100
AcDbVertex
100
AcDb3dPolylineVertex
 10
253.0648498535156
 20
9.45687198638916
 30
83.1550521850586
 70
    32
  0
VERTEX
  5
160
330
FC
100
AcDbEntity
  8
assembly hole
100
AcDbVertex
100
AcDb3dPolylineVertex
 10
254.5652465820313
 20
9.45687198638916
 30
83.34602355957031
 70
    32
  0
VERTEX
  5
161
330
FC
100
AcDbEntity
  8
assembly hole
100
AcDbVertex
100
AcDb3dPolylineVertex
 10
256.041748046875
 20
9.45687198638916
 30
83.61010742187501
 70
    32
  0
VERTEX
  5
162
330
FC
100
AcDbEntity
  8
assembly hole
100
AcDbVertex
100
AcDb3dPolylineVertex
 10
257.4924926757812
 20
9.45687198638916
 30
83.94540405273437
 70
    32
  0
VERTEX
  5
163
330
FC
100
AcDbEntity
  8
assembly hole
100
AcDbVertex
100
AcDb3dPolylineVertex
 10
258.91552734375
 20
9.45687198638916
 30
84.35002136230469
 70
    32
  0
VERTEX
  5
164
330
FC
100
AcDbEntity
  8
assembly hole
100
AcDbVertex
100
AcDb3dPolylineVertex
 10
260.3090209960937
 20
9.45687198638916
 30
84.82206726074219
 70
    32
  0
VERTEX
  5
165
330
FC
100
AcDbEntity
  8
assembly hole
100
AcDbVertex
100
AcDb3dPolylineVertex
 10
261.6710510253906
 20
9.45687198638916
 30
85.35964965820312
 70
    32
  0
VERTEX
  5
166
330
FC
100
AcDbEntity
  8
assembly hole
100
AcDbVertex
100
AcDb3dPolylineVertex
 10
262.9997253417969
 20
9.45687198638916
 30
85.96087646484376
 70
    32
  0
VERTEX
  5
167
330
FC
100
AcDbEntity
  8
assembly hole
100
AcDbVertex
100
AcDb3dPolylineVertex
 10
264.2931518554687
 20
9.45687198638916
 30
86.62384796142578
 70
    32
  0
VERTEX
  5
168
330
FC
100
AcDbEntity
  8
assembly hole
100
AcDbVertex
100
AcDb3dPolylineVertex
 10
265.5494384765625
 20
9.45687198638916
 30
87.34667968750001
 70
    32
  0
VERTEX
  5
169
330
FC
100
AcDbEntity
  8
assembly hole
100
AcDbVertex
100
AcDb3dPolylineVertex
 10
266.7667236328125
 20
9.45687198638916
 30
88.12747192382813
 70
    32
  0
VERTEX
  5
16A
330
FC
100
AcDbEntity
  8
assembly hole
100
AcDbVertex
100
AcDb3dPolylineVertex
 10
267.9430541992187
 20
9.45687198638916
 30
88.9643325805664
 70
    32
  0
VERTEX
  5
16B
330
FC
100
AcDbEntity
  8
assembly hole
100
AcDbVertex
100
AcDb3dPolylineVertex
 10
269.0765686035156
 20
9.45687198638916
 30
89.85537719726563
 70
    32
  0
VERTEX
  5
16C
330
FC
100
AcDbEntity
  8
assembly hole
100
AcDbVertex
100
AcDb3dPolylineVertex
 10
270.1654052734375
 20
9.45687198638916
 30
90.79869079589844
 70
    32
  0
VERTEX
  5
16D
330
FC
100
AcDbEntity
  8
assembly hole
100
AcDbVertex
100
AcDb3dPolylineVertex
 10
271.2075805664063
 20
9.45687198638916
 30
91.79240417480469
 70
    32
  0
VERTEX
  5
16E
330
FC
100
AcDbEntity
  8
assembly hole
100
AcDbVertex
100
AcDb3dPolylineVertex
 10
272.2012939453125
 20
9.45687198638916
 30
92.83460998535156
 70
    32
  0
VERTEX
  5
16F
330
FC
100
AcDbEntity
  8
assembly hole
100
AcDbVertex
100
AcDb3dPolylineVertex
 10
273.1446228027344
 20
9.45687198638916
 30
93.92342376708985
 70
    32
  0
VERTEX
  5
170
330
FC
100
AcDbEntity
  8
assembly hole
100
AcDbVertex
100
AcDb3dPolylineVertex
 10
274.0356750488281
 20
9.45687198638916
 30
95.05694580078126
 70
    32
  0
VERTEX
  5
171
330
FC
100
AcDbEntity
  8
assembly hole
100
AcDbVertex
100
AcDb3dPolylineVertex
 10
274.8725280761719
 20
9.45687198638916
 30
96.23329162597656
 70
    32
  0
VERTEX
  5
172
330
FC
100
AcDbEntity
  8
assembly hole
100
AcDbVertex
100
AcDb3dPolylineVertex
 10
275.6533203125
 20
9.45687198638916
 30
97.45054626464844
 70
    32
  0
VERTEX
  5
173
330
FC
100
AcDbEntity
  8
assembly hole
100
AcDbVertex
100
AcDb3dPolylineVertex
 10
276.3761596679688
 20
9.45687198638916
 30
98.70684814453126
 70
    32
  0
VERTEX
  5
174
330
FC
100
AcDbEntity
  8
assembly hole
100
AcDbVertex
100
AcDb3dPolylineVertex
 10
277.0391235351563
 20
9.45687198638916
 30
100.0002746582031
 70
    32
  0
VERTEX
  5
175
330
FC
100
AcDbEntity
  8
assembly hole
100
AcDbVertex
100
AcDb3dPolylineVertex
 10
277.6403503417969
 20
9.45687198638916
 30
101.3289566040039
 70
    32
  0
VERTEX
  5
176
330
FC
100
AcDbEntity
  8
assembly hole
100
AcDbVertex
100
AcDb3dPolylineVertex
 10
278.1779174804687
 20
9.45687198638916
 30
102.6909866333008
 70
    32
  0
VERTEX
  5
177
330
FC
100
AcDbEntity
  8
assembly hole
100
AcDbVertex
100
AcDb3dPolylineVertex
 10
278.6499633789063
 20
9.45687198638916
 30
104.08447265625
 70
    32
  0
VERTEX
  5
178
330
FC
100
AcDbEntity
  8
assembly hole
100
AcDbVertex
100
AcDb3dPolylineVertex
 10
279.0545959472656
 20
9.45687198638916
 30
105.5075225830078
 70
    32
  0
VERTEX
  5
179
330
FC
100
AcDbEntity
  8
assembly hole
100
AcDbVertex
100
AcDb3dPolylineVertex
 10
279.389892578125
 20
9.45687198638916
 30
106.9582443237304
 70
    32
  0
VERTEX
  5
17A
330
FC
100
AcDbEntity
  8
assembly hole
100
AcDbVertex
100
AcDb3dPolylineVertex
 10
279.6539916992188
 20
9.45687198638916
 30
108.4347534179687
 70
    32
  0
VERTEX
  5
17B
330
FC
100
AcDbEntity
  8
assembly hole
100
AcDbVertex
100
AcDb3dPolylineVertex
 10
279.844970703125
 20
9.45687198638916
 30
109.9351348876953
 70
    32
  0
VERTEX
  5
17C
330
FC
100
AcDbEntity
  8
assembly hole
100
AcDbVertex
100
AcDb3dPolylineVertex
 10
279.9609375
 20
9.45687198638916
 30
111.45751953125
 70
    32
  0
SEQEND
  5
300
330
FC
100
AcDbEntity
  8
assembly hole
  0
POLYLINE
  5
17D
330
1F
100
AcDbEntity
  8
assembly hole
100
AcDb3dPolyline
 66
     1
 10
0.0
 20
0.0
 30
0.0
 70
     9
  0
VERTEX
  5
17E
330
17D
100
AcDbEntity
  8
assembly hole
100
AcDbVertex
100
AcDb3dPolylineVertex
 10
220.0
 20
-9.543128013610839
 30
113.0
 70
    32
  0
VERTEX
  5
17F
330
17D
100
AcDbEntity
  8
assembly hole
100
AcDbVertex
100
AcDb3dPolylineVertex
 10
220.0390777587891
 20
-9.543128013610839
 30
114.54248046875
 70
    32
  0
VERTEX
  5
180
330
17D
100
AcDbEntity
  8
assembly hole
100
AcDbVertex
100
AcDb3dPolylineVertex
 10
220.1550598144531
 20
-9.543128013610839
 30
116.0648651123047
 70
    32
  0
VERTEX
  5
181
330
17D
100
AcDbEntity
  8
assembly hole
100
AcDbVertex
100
AcDb3dPolylineVertex
 10
220.3460388183594
 20
-9.543128013610839
 30
117.5652465820312
 70
    32
  0
VERTEX
  5
182
330
17D
100
AcDbEntity
  8
assembly hole
100
AcDbVertex
100
AcDb3dPolylineVertex
 10
220.610107421875
 20
-9.543128013610839
 30
119.0417556762695
 70
    32
  0
VERTEX
  5
183
330
17D
100
AcDbEntity
  8
assembly hole
100
AcDbVertex
100
AcDb3dPolylineVertex
 10
220.9453887939453
 20
-9.543128013610839
 30
120.4924774169922
 70
    32
  0
VERTEX
  5
184
330
17D
100
AcDbEntity
  8
assembly hole
100
AcDbVertex
100
AcDb3dPolylineVertex
 10
221.3500213623047
 20
-9.543128013610839
 30
121.91552734375
 70
    32
  0
VERTEX
  5
185
330
17D
100
AcDbEntity
  8
assembly hole
100
AcDbVertex
100
AcDb3dPolylineVertex
 10
221.8220672607422
 20
-9.543128013610839
 30
123.3090133666992
 70
    32
  0
VERTEX
  5
186
330
17D
100
AcDbEntity
  8
assembly hole
100
AcDbVertex
100
AcDb3dPolylineVertex
 10
222.3596496582031
 20
-9.543128013610839
 30
124.6710433959961
 70
    32
  0
VERTEX
  5
187
330
17D
100
AcDbEntity
  8
assembly hole
100
AcDbVertex
100
AcDb3dPolylineVertex
 10
222.9608764648438
 20
-9.543128013610839
 30
125.9997253417969
 70
    32
  0
VERTEX
  5
188
330
17D
100
AcDbEntity
  8
assembly hole
100
AcDbVertex
100
AcDb3dPolylineVertex
 10
223.6238555908203
 20
-9.543128013610839
 30
127.2931518554687
 70
    32
  0
VERTEX
  5
189
330
17D
100
AcDbEntity
  8
assembly hole
100
AcDbVertex
100
AcDb3dPolylineVertex
 10
224.3466949462891
 20
-9.543128013610839
 30
128.5494537353515
 70
    32
  0
VERTEX
  5
18A
330
17D
100
AcDbEntity
  8
assembly hole
100
AcDbVertex
100
AcDb3dPolylineVertex
 10
225.1274719238281
 20
-9.543128013610839
 30
129.7667083740234
 70
    32
  0
VERTEX
  5
18B
330
17D
100
AcDbEntity
  8
assembly hole
100
AcDbVertex
100
AcDb3dPolylineVertex
 10
225.9643249511719
 20
-9.543128013610839
 30
130.9430541992187
 70
    32
  0
VERTEX
  5
18C
330
17D
100
AcDbEntity
  8
assembly hole
100
AcDbVertex
100
AcDb3dPolylineVertex
 10
226.8553771972656
 20
-9.543128013610839
 30
132.0765686035156
 70
    32
  0
VERTEX
  5
18D
330
17D
100
AcDbEntity
  8
assembly hole
100
AcDbVertex
100
AcDb3dPolylineVertex
 10
227.7986907958984
 20
-9.543128013610839
 30
133.1653900146484
 70
    32
  0
VERTEX
  5
18E
330
17D
100
AcDbEntity
  8
assembly hole
100
AcDbVertex
100
AcDb3dPolylineVertex
 10
228.7924041748047
 20
-9.543128013610839
 30
134.2075958251953
 70
    32
  0
VERTEX
  5
18F
330
17D
100
AcDbEntity
  8
assembly hole
100
AcDbVertex
100
AcDb3dPolylineVertex
 10
229.8346099853516
 20
-9.543128013610839
 30
135.2013092041015
 70
    32
  0
VERTEX
  5
190
330
17D
100
AcDbEntity
  8
assembly hole
100
AcDbVertex
100
AcDb3dPolylineVertex
 10
230.9234161376953
 20
-9.543128013610839
 30
136.1446228027344
 70
    32
  0
VERTEX
  5
191
330
17D
100
AcDbEntity
  8
assembly hole
100
AcDbVertex
100
AcDb3dPolylineVertex
 10
232.0569458007812
 20
-9.543128013610839
 30
137.0356750488281
 70
    32
  0
VERTEX
  5
192
330
17D
100
AcDbEntity
  8
assembly hole
100
AcDbVertex
100
AcDb3dPolylineVertex
 10
233.2332763671875
 20
-9.543128013610839
 30
137.8725280761718
 70
    32
  0
VERTEX
  5
193
330
17D
100
AcDbEntity
  8
assembly hole
100
AcDbVertex
100
AcDb3dPolylineVertex
 10
234.4505462646484
 20
-9.543128013610839
 30
138.6533203125
 70
    32
  0
VERTEX
  5
194
330
17D
100
AcDbEntity
  8
assembly hole
100
AcDbVertex
100
AcDb3dPolylineVertex
 10
235.7068481445312
 20
-9.543128013610839
 30
139.3761444091797
 70
    32
  0
VERTEX
  5
195
330
17D
100
AcDbEntity
  8
assembly hole
100
AcDbVertex
100
AcDb3dPolylineVertex
 10
237.0002746582031
 20
-9.543128013610839
 30
140.0391235351562
 70
    32
  0
VERTEX
  5
196
330
17D
100
AcDbEntity
  8
assembly hole
100
AcDbVertex
100
AcDb3dPolylineVertex
 10
238.3289489746094
 20
-9.543128013610839
 30
140.6403503417968
 70
    32
  0
VERTEX
  5
197
330
17D
100
AcDbEntity
  8
assembly hole
100
AcDbVertex
100
AcDb3dPolylineVertex
 10
239.6909790039063
 20
-9.543128013610839
 30
141.1779327392578
 70
    32
  0
VERTEX
  5
198
330
17D
100
AcDbEntity
  8
assembly hole
100
AcDbVertex
100
AcDb3dPolylineVertex
 10
241.08447265625
 20
-9.543128013610839
 30
141.6499786376953
 70
    32
  0
VERTEX
  5
199
330
17D
100
AcDbEntity
  8
assembly hole
100
AcDbVertex
100
AcDb3dPolylineVertex
 10
242.5075225830078
 20
-9.543128013610839
 30
142.0545959472656
 70
    32
  0
VERTEX
  5
19A
330
17D
100
AcDbEntity
  8
assembly hole
100
AcDbVertex
100
AcDb3dPolylineVertex
 10
243.958251953125
 20
-9.543128013610839
 30
142.389892578125
 70
    32
  0
VERTEX
  5
19B
330
17D
100
AcDbEntity
  8
assembly hole
100
AcDbVertex
100
AcDb3dPolylineVertex
 10
245.4347534179687
 20
-9.543128013610839
 30
142.6539764404297
 70
    32
  0
VERTEX
  5
19C
330
17D
100
AcDbEntity
  8
assembly hole
100
AcDbVertex
100
AcDb3dPolylineVertex
 10
246.9351348876953
 20
-9.543128013610839
 30
142.8449554443359
 70
    32
  0
VERTEX
  5
19D
330
17D
100
AcDbEntity
  8
assembly hole
100
AcDbVertex
100
AcDb3dPolylineVertex
 10
248.45751953125
 20
-9.543128013610839
 30
142.9609222412109
 70
    32
  0
VERTEX
  5
19E
330
17D
100
AcDbEntity
  8
assembly hole
100
AcDbVertex
100
AcDb3dPolylineVertex
 10
250.0
 20
-9.543128013610839
 30
143.0
 70
    32
  0
VERTEX
  5
19F
330
17D
100
AcDbEntity
  8
assembly hole
100
AcDbVertex
100
AcDb3dPolylineVertex
 10
251.54248046875
 20
-9.543128013610839
 30
142.9609222412109
 70
    32
  0
VERTEX
  5
1A0
330
17D
100
AcDbEntity
  8
assembly hole
100
AcDbVertex
100
AcDb3dPolylineVertex
 10
253.0648498535156
 20
-9.543128013610839
 30
142.8449401855468
 70
    32
  0
VERTEX
  5
1A1
330
17D
100
AcDbEntity
  8
assembly hole
100
AcDbVertex
100
AcDb3dPolylineVertex
 10
254.5652465820313
 20
-9.543128013610839
 30
142.6539764404297
 70
    32
  0
VERTEX
  5
1A2
330
17D
100
AcDbEntity
  8
assembly hole
100
AcDbVertex
100
AcDb3dPolylineVertex
 10
256.041748046875
 20
-9.543128013610839
 30
142.389892578125
 70
    32
  0
VERTEX
  5
1A3
330
17D
100
AcDbEntity
  8
assembly hole
100
AcDbVertex
100
AcDb3dPolylineVertex
 10
257.4924926757812
 20
-9.543128013610839
 30
142.0545959472656
 70
    32
  0
VERTEX
  5
1A4
330
17D
100
AcDbEntity
  8
assembly hole
100
AcDbVertex
100
AcDb3dPolylineVertex
 10
258.91552734375
 20
-9.543128013610839
 30
141.6499786376953
 70
    32
  0
VERTEX
  5
1A5
330
17D
100
AcDbEntity
  8
assembly hole
100
AcDbVertex
100
AcDb3dPolylineVertex
 10
260.3090209960937
 20
-9.543128013610839
 30
141.1779327392578
 70
    32
  0
VERTEX
  5
1A6
330
17D
100
AcDbEntity
  8
assembly hole
100
AcDbVertex
100
AcDb3dPolylineVertex
 10
261.6710510253906
 20
-9.543128013610839
 30
140.6403503417968
 70
    32
  0
VERTEX
  5
1A7
330
17D
100
AcDbEntity
  8
assembly hole
100
AcDbVertex
100
AcDb3dPolylineVertex
 10
262.9997253417969
 20
-9.543128013610839
 30
140.0391235351562
 70
    32
  0
VERTEX
  5
1A8
330
17D
100
AcDbEntity
  8
assembly hole
100
AcDbVertex
100
AcDb3dPolylineVertex
 10
264.2931518554687
 20
-9.543128013610839
 30
139.3761596679687
 70
    32
  0
VERTEX
  5
1A9
330
17D
100
AcDbEntity
  8
assembly hole
100
AcDbVertex
100
AcDb3dPolylineVertex
 10
265.5494384765625
 20
-9.543128013610839
 30
138.6533203125
 70
    32
  0
VERTEX
  5
1AA
330
17D
100
AcDbEntity
  8
assembly hole
100
AcDbVertex
100
AcDb3dPolylineVertex
 10
266.7667236328125
 20
-9.543128013610839
 30
137.8725280761718
 70
    32
  0
VERTEX
  5
1AB
330
17D
100
AcDbEntity
  8
assembly hole
100
AcDbVertex
100
AcDb3dPolylineVertex
 10
267.9430541992187
 20
-9.543128013610839
 30
137.0356750488281
 70
    32
  0
VERTEX
  5
1AC
330
17D
100
AcDbEntity
  8
assembly hole
100
AcDbVertex
100
AcDb3dPolylineVertex
 10
269.0765686035156
 20
-9.543128013610839
 30
136.1446228027344
 70
    32
  0
VERTEX
  5
1AD
330
17D
100
AcDbEntity
  8
assembly hole
100
AcDbVertex
100
AcDb3dPolylineVertex
 10
270.1654052734375
 20
-9.543128013610839
 30
135.2013092041015
 70
    32
  0
VERTEX
  5
1AE
330
17D
100
AcDbEntity
  8
assembly hole
100
AcDbVertex
100
AcDb3dPolylineVertex
 10
271.2075805664063
 20
-9.543128013610839
 30
134.2075958251953
 70
    32
  0
VERTEX
  5
1AF
330
17D
100
AcDbEntity
  8
assembly hole
100
AcDbVertex
100
AcDb3dPolylineVertex
 10
272.2012939453125
 20
-9.543128013610839
 30
133.1653900146484
 70
    32
  0
VERTEX
  5
1B0
330
17D
100
AcDbEntity
  8
assembly hole
100
AcDbVertex
100
AcDb3dPolylineVertex
 10
273.1446228027344
 20
-9.543128013610839
 30
132.0765686035156
 70
    32
  0
VERTEX
  5
1B1
330
17D
100
AcDbEntity
  8
assembly hole
100
AcDbVertex
100
AcDb3dPolylineVertex
 10
274.0356750488281
 20
-9.543128013610839
 30
130.9430541992187
 70
    32
  0
VERTEX
  5
1B2
330
17D
100
AcDbEntity
  8
assembly hole
100
AcDbVertex
100
AcDb3dPolylineVertex
 10
274.8725280761719
 20
-9.543128013610839
 30
129.7667083740234
 70
    32
  0
VERTEX
  5
1B3
330
17D
100
AcDbEntity
  8
assembly hole
100
AcDbVertex
100
AcDb3dPolylineVertex
 10
275.6533203125
 20
-9.543128013610839
 30
128.5494537353515
 70
    32
  0
VERTEX
  5
1B4
330
17D
100
AcDbEntity
  8
assembly hole
100
AcDbVertex
100
AcDb3dPolylineVertex
 10
276.3761596679688
 20
-9.543128013610839
 30
127.2931518554687
 70
    32
  0
VERTEX
  5
1B5
330
17D
100
AcDbEntity
  8
assembly hole
100
AcDbVertex
100
AcDb3dPolylineVertex
 10
277.0391235351563
 20
-9.543128013610839
 30
125.9997253417969
 70
    32
  0
VERTEX
  5
1B6
330
17D
100
AcDbEntity
  8
assembly hole
100
AcDbVertex
100
AcDb3dPolylineVertex
 10
277.6403503417969
 20
-9.543128013610839
 30
124.6710433959961
 70
    32
  0
VERTEX
  5
1B7
330
17D
100
AcDbEntity
  8
assembly hole
100
AcDbVertex
100
AcDb3dPolylineVertex
 10
278.1779174804687
 20
-9.543128013610839
 30
123.3090133666992
 70
    32
  0
VERTEX
  5
1B8
330
17D
100
AcDbEntity
  8
assembly hole
100
AcDbVertex
100
AcDb3dPolylineVertex
 10
278.6499633789063
 20
-9.543128013610839
 30
121.91552734375
 70
    32
  0
VERTEX
  5
1B9
330
17D
100
AcDbEntity
  8
assembly hole
100
AcDbVertex
100
AcDb3dPolylineVertex
 10
279.0545959472656
 20
-9.543128013610839
 30
120.4924774169922
 70
    32
  0
VERTEX
  5
1BA
330
17D
100
AcDbEntity
  8
assembly hole
100
AcDbVertex
100
AcDb3dPolylineVertex
 10
279.389892578125
 20
-9.543128013610839
 30
119.0417556762695
 70
    32
  0
VERTEX
  5
1BB
330
17D
100
AcDbEntity
  8
assembly hole
100
AcDbVertex
100
AcDb3dPolylineVertex
 10
279.6539916992188
 20
-9.543128013610839
 30
117.5652465820312
 70
    32
  0
VERTEX
  5
1BC
330
17D
100
AcDbEntity
  8
assembly hole
100
AcDbVertex
100
AcDb3dPolylineVertex
 10
279.844970703125
 20
-9.543128013610839
 30
116.0648651123047
 70
    32
  0
VERTEX
  5
1BD
330
17D
100
AcDbEntity
  8
assembly hole
100
AcDbVertex
100
AcDb3dPolylineVertex
 10
279.9609375
 20
-9.543128013610839
 30
114.54248046875
 70
    32
  0
VERTEX
  5
1BE
330
17D
100
AcDbEntity
  8
assembly hole
100
AcDbVertex
100
AcDb3dPolylineVertex
 10
280.0
 20
-9.543128013610839
 30
113.0
 70
    32
  0
VERTEX
  5
1BF
330
17D
100
AcDbEntity
  8
assembly hole
100
AcDbVertex
100
AcDb3dPolylineVertex
 10
279.9609375
 20
-9.543128013610839
 30
111.45751953125
 70
    32
  0
VERTEX
  5
1C0
330
17D
100
AcDbEntity
  8
assembly hole
100
AcDbVertex
100
AcDb3dPolylineVertex
 10
279.8449401855469
 20
-9.543128013610839
 30
109.9351348876953
 70
    32
  0
VERTEX
  5
1C1
330
17D
100
AcDbEntity
  8
assembly hole
100
AcDbVertex
100
AcDb3dPolylineVertex
 10
279.6539916992188
 20
-9.543128013610839
 30
108.4347534179687
 70
    32
  0
VERTEX
  5
1C2
330
17D
100
AcDbEntity
  8
assembly hole
100
AcDbVertex
100
AcDb3dPolylineVertex
 10
279.389892578125
 20
-9.543128013610839
 30
106.9582443237304
 70
    32
  0
VERTEX
  5
1C3
330
17D
100
AcDbEntity
  8
assembly hole
100
AcDbVertex
100
AcDb3dPolylineVertex
 10
279.0545959472656
 20
-9.543128013610839
 30
105.5075225830078
 70
    32
  0
VERTEX
  5
1C4
330
17D
100
AcDbEntity
  8
assembly hole
100
AcDbVertex
100
AcDb3dPolylineVertex
 10
278.6499633789063
 20
-9.543128013610839
 30
104.08447265625
 70
    32
  0
VERTEX
  5
1C5
330
17D
100
AcDbEntity
  8
assembly hole
100
AcDbVertex
100
AcDb3dPolylineVertex
 10
278.1779174804687
 20
-9.543128013610839
 30
102.6909866333008
 70
    32
  0
VERTEX
  5
1C6
330
17D
100
AcDbEntity
  8
assembly hole
100
AcDbVertex
100
AcDb3dPolylineVertex
 10
277.6403503417969
 20
-9.543128013610839
 30
101.3289566040039
 70
    32
  0
VERTEX
  5
1C7
330
17D
100
AcDbEntity
  8
assembly hole
100
AcDbVertex
100
AcDb3dPolylineVertex
 10
277.0391235351563
 20
-9.543128013610839
 30
100.0002746582031
 70
    32
  0
VERTEX
  5
1C8
330
17D
100
AcDbEntity
  8
assembly hole
100
AcDbVertex
100
AcDb3dPolylineVertex
 10
276.3761596679688
 20
-9.543128013610839
 30
98.70684814453126
 70
    32
  0
VERTEX
  5
1C9
330
17D
100
AcDbEntity
  8
assembly hole
100
AcDbVertex
100
AcDb3dPolylineVertex
 10
275.6533203125
 20
-9.543128013610839
 30
97.45054626464844
 70
    32
  0
VERTEX
  5
1CA
330
17D
100
AcDbEntity
  8
assembly hole
100
AcDbVertex
100
AcDb3dPolylineVertex
 10
274.8725280761719
 20
-9.543128013610839
 30
96.23328399658204
 70
    32
  0
VERTEX
  5
1CB
330
17D
100
AcDbEntity
  8
assembly hole
100
AcDbVertex
100
AcDb3dPolylineVertex
 10
274.0356750488281
 20
-9.543128013610839
 30
95.05694580078126
 70
    32
  0
VERTEX
  5
1CC
330
17D
100
AcDbEntity
  8
assembly hole
100
AcDbVertex
100
AcDb3dPolylineVertex
 10
273.1446228027344
 20
-9.543128013610839
 30
93.92342376708985
 70
    32
  0
VERTEX
  5
1CD
330
17D
100
AcDbEntity
  8
assembly hole
100
AcDbVertex
100
AcDb3dPolylineVertex
 10
272.2012939453125
 20
-9.543128013610839
 30
92.83460998535156
 70
    32
  0
VERTEX
  5
1CE
330
17D
100
AcDbEntity
  8
assembly hole
100
AcDbVertex
100
AcDb3dPolylineVertex
 10
271.2075805664063
 20
-9.543128013610839
 30
91.79240417480469
 70
    32
  0
VERTEX
  5
1CF
330
17D
100
AcDbEntity
  8
assembly hole
100
AcDbVertex
100
AcDb3dPolylineVertex
 10
270.1654052734375
 20
-9.543128013610839
 30
90.79869079589844
 70
    32
  0
VERTEX
  5
1D0
330
17D
100
AcDbEntity
  8
assembly hole
100
AcDbVertex
100
AcDb3dPolylineVertex
 10
269.0765991210938
 20
-9.543128013610839
 30
89.85536956787109
 70
    32
  0
VERTEX
  5
1D1
330
17D
100
AcDbEntity
  8
assembly hole
100
AcDbVertex
100
AcDb3dPolylineVertex
 10
267.9430541992187
 20
-9.543128013610839
 30
88.9643325805664
 70
    32
  0
VERTEX
  5
1D2
330
17D
100
AcDbEntity
  8
assembly hole
100
AcDbVertex
100
AcDb3dPolylineVertex
 10
266.7667236328125
 20
-9.543128013610839
 30
88.12747192382813
 70
    32
  0
VERTEX
  5
1D3
330
17D
100
AcDbEntity
  8
assembly hole
100
AcDbVertex
100
AcDb3dPolylineVertex
 10
265.5494384765625
 20
-9.543128013610839
 30
87.34667968750001
 70
    32
  0
VERTEX
  5
1D4
330
17D
100
AcDbEntity
  8
assembly hole
100
AcDbVertex
100
AcDb3dPolylineVertex
 10
264.2931518554687
 20
-9.543128013610839
 30
86.62384796142578
 70
    32
  0
VERTEX
  5
1D5
330
17D
100
AcDbEntity
  8
assembly hole
100
AcDbVertex
100
AcDb3dPolylineVertex
 10
262.9997253417969
 20
-9.543128013610839
 30
85.96087646484376
 70
    32
  0
VERTEX
  5
1D6
330
17D
100
AcDbEntity
  8
assembly hole
100
AcDbVertex
100
AcDb3dPolylineVertex
 10
261.6710510253906
 20
-9.543128013610839
 30
85.35964965820312
 70
    32
  0
VERTEX
  5
1D7
330
17D
100
AcDbEntity
  8
assembly hole
100
AcDbVertex
100
AcDb3dPolylineVertex
 10
260.3090209960937
 20
-9.543128013610839
 30
84.82206726074219
 70
    32
  0
VERTEX
  5
1D8
330
17D
100
AcDbEntity
  8
assembly hole
100
AcDbVertex
100
AcDb3dPolylineVertex
 10
258.91552734375
 20
-9.543128013610839
 30
84.35002136230469
 70
    32
  0
VERTEX
  5
1D9
330
17D
100
AcDbEntity
  8
assembly hole
100
AcDbVertex
100
AcDb3dPolylineVertex
 10
257.4924926757812
 20
-9.543128013610839
 30
83.94540405273437
 70
    32
  0
VERTEX
  5
1DA
330
17D
100
AcDbEntity
  8
assembly hole
100
AcDbVertex
100
AcDb3dPolylineVertex
 10
256.041748046875
 20
-9.543128013610839
 30
83.61010742187501
 70
    32
  0
VERTEX
  5
1DB
330
17D
100
AcDbEntity
  8
assembly hole
100
AcDbVertex
100
AcDb3dPolylineVertex
 10
254.5652465820313
 20
-9.543128013610839
 30
83.34602355957031
 70
    32
  0
VERTEX
  5
1DC
330
17D
100
AcDbEntity
  8
assembly hole
100
AcDbVertex
100
AcDb3dPolylineVertex
 10
253.0648651123047
 20
-9.543128013610839
 30
83.1550521850586
 70
    32
  0
VERTEX
  5
1DD
330
17D
100
AcDbEntity
  8
assembly hole
100
AcDbVertex
100
AcDb3dPolylineVertex
 10
251.54248046875
 20
-9.543128013610839
 30
83.03907775878906
 70
    32
  0
VERTEX
  5
1DE
330
17D
100
AcDbEntity
  8
assembly hole
100
AcDbVertex
100
AcDb3dPolylineVertex
 10
250.0
 20
-9.543128013610839
 30
83.0
 70
    32
  0
VERTEX
  5
1DF
330
17D
100
AcDbEntity
  8
assembly hole
100
AcDbVertex
100
AcDb3dPolylineVertex
 10
248.45751953125
 20
-9.543128013610839
 30
83.03907775878906
 70
    32
  0
VERTEX
  5
1E0
330
17D
100
AcDbEntity
  8
assembly hole
100
AcDbVertex
100
AcDb3dPolylineVertex
 10
246.9351501464844
 20
-9.543128013610839
 30
83.1550521850586
 70
    32
  0
VERTEX
  5
1E1
330
17D
100
AcDbEntity
  8
assembly hole
100
AcDbVertex
100
AcDb3dPolylineVertex
 10
245.4347534179687
 20
-9.543128013610839
 30
83.34602355957031
 70
    32
  0
VERTEX
  5
1E2
330
17D
100
AcDbEntity
  8
assembly hole
100
AcDbVertex
100
AcDb3dPolylineVertex
 10
243.958251953125
 20
-9.543128013610839
 30
83.61010742187501
 70
    32
  0
VERTEX
  5
1E3
330
17D
100
AcDbEntity
  8
assembly hole
100
AcDbVertex
100
AcDb3dPolylineVertex
 10
242.5075225830078
 20
-9.543128013610839
 30
83.94540405273437
 70
    32
  0
VERTEX
  5
1E4
330
17D
100
AcDbEntity
  8
assembly hole
100
AcDbVertex
100
AcDb3dPolylineVertex
 10
241.084457397461
 20
-9.543128013610839
 30
84.35002136230469
 70
    32
  0
VERTEX
  5
1E5
330
17D
100
AcDbEntity
  8
assembly hole
100
AcDbVertex
100
AcDb3dPolylineVertex
 10
239.6909942626953
 20
-9.543128013610839
 30
84.82206726074219
 70
    32
  0
VERTEX
  5
1E6
330
17D
100
AcDbEntity
  8
assembly hole
100
AcDbVertex
100
AcDb3dPolylineVertex
 10
238.3289489746094
 20
-9.543128013610839
 30
85.35964965820312
 70
    32
  0
VERTEX
  5
1E7
330
17D
100
AcDbEntity
  8
assembly hole
100
AcDbVertex
100
AcDb3dPolylineVertex
 10
237.0002746582031
 20
-9.543128013610839
 30
85.96087646484376
 70
    32
  0
VERTEX
  5
1E8
330
17D
100
AcDbEntity
  8
assembly hole
100
AcDbVertex
100
AcDb3dPolylineVertex
 10
235.7068481445312
 20
-9.543128013610839
 30
86.62384796142578
 70
    32
  0
VERTEX
  5
1E9
330
17D
100
AcDbEntity
  8
assembly hole
100
AcDbVertex
100
AcDb3dPolylineVertex
 10
234.4505615234375
 20
-9.543128013610839
 30
87.34667968750001
 70
    32
  0
VERTEX
  5
1EA
330
17D
100
AcDbEntity
  8
assembly hole
100
AcDbVertex
100
AcDb3dPolylineVertex
 10
233.2332763671875
 20
-9.543128013610839
 30
88.12747192382813
 70
    32
  0
VERTEX
  5
1EB
330
17D
100
AcDbEntity
  8
assembly hole
100
AcDbVertex
100
AcDb3dPolylineVertex
 10
232.0569610595703
 20
-9.543128013610839
 30
88.9643325805664
 70
    32
  0
VERTEX
  5
1EC
330
17D
100
AcDbEntity
  8
assembly hole
100
AcDbVertex
100
AcDb3dPolylineVertex
 10
230.9234313964844
 20
-9.543128013610839
 30
89.85537719726563
 70
    32
  0
VERTEX
  5
1ED
330
17D
100
AcDbEntity
  8
assembly hole
100
AcDbVertex
100
AcDb3dPolylineVertex
 10
229.8346099853516
 20
-9.543128013610839
 30
90.79869079589844
 70
    32
  0
VERTEX
  5
1EE
330
17D
100
AcDbEntity
  8
assembly hole
100
AcDbVertex
100
AcDb3dPolylineVertex
 10
228.7924041748047
 20
-9.543128013610839
 30
91.79240417480469
 70
    32
  0
VERTEX
  5
1EF
330
17D
100
AcDbEntity
  8
assembly hole
100
AcDbVertex
100
AcDb3dPolylineVertex
 10
227.7986907958984
 20
-9.543128013610839
 30
92.83460998535156
 70
    32
  0
VERTEX
  5
1F0
330
17D
100
AcDbEntity
  8
assembly hole
100
AcDbVertex
100
AcDb3dPolylineVertex
 10
226.8553771972656
 20
-9.543128013610839
 30
93.92342376708985
 70
    32
  0
VERTEX
  5
1F1
330
17D
100
AcDbEntity
  8
assembly hole
100
AcDbVertex
100
AcDb3dPolylineVertex
 10
225.9643249511719
 20
-9.543128013610839
 30
95.05694580078126
 70
    32
  0
VERTEX
  5
1F2
330
17D
100
AcDbEntity
  8
assembly hole
100
AcDbVertex
100
AcDb3dPolylineVertex
 10
225.1274719238281
 20
-9.543128013610839
 30
96.23329162597656
 70
    32
  0
VERTEX
  5
1F3
330
17D
100
AcDbEntity
  8
assembly hole
100
AcDbVertex
100
AcDb3dPolylineVertex
 10
224.3466796875
 20
-9.543128013610839
 30
97.45054626464844
 70
    32
  0
VERTEX
  5
1F4
330
17D
100
AcDbEntity
  8
assembly hole
100
AcDbVertex
100
AcDb3dPolylineVertex
 10
223.6238403320312
 20
-9.543128013610839
 30
98.70684814453126
 70
    32
  0
VERTEX
  5
1F5
330
17D
100
AcDbEntity
  8
assembly hole
100
AcDbVertex
100
AcDb3dPolylineVertex
 10
222.9608764648438
 20
-9.543128013610839
 30
100.0002746582031
 70
    32
  0
VERTEX
  5
1F6
330
17D
100
AcDbEntity
  8
assembly hole
100
AcDbVertex
100
AcDb3dPolylineVertex
 10
222.3596496582031
 20
-9.543128013610839
 30
101.3289566040039
 70
    32
  0
VERTEX
  5
1F7
330
17D
100
AcDbEntity
  8
assembly hole
100
AcDbVertex
100
AcDb3dPolylineVertex
 10
221.8220672607422
 20
-9.543128013610839
 30
102.6909866333008
 70
    32
  0
VERTEX
  5
1F8
330
17D
100
AcDbEntity
  8
assembly hole
100
AcDbVertex
100
AcDb3dPolylineVertex
 10
221.3500213623047
 20
-9.543128013610839
 30
104.08447265625
 70
    32
  0
VERTEX
  5
1F9
330
17D
100
AcDbEntity
  8
assembly hole
100
AcDbVertex
100
AcDb3dPolylineVertex
 10
220.9454040527344
 20
-9.543128013610839
 30
105.5075225830078
 70
    32
  0
VERTEX
  5
1FA
330
17D
100
AcDbEntity
  8
assembly hole
100
AcDbVertex
100
AcDb3dPolylineVertex
 10
220.610107421875
 20
-9.543128013610839
 30
106.9582443237304
 70
    32
  0
VERTEX
  5
1FB
330
17D
100
AcDbEntity
  8
assembly hole
100
AcDbVertex
100
AcDb3dPolylineVertex
 10
220.3460235595703
 20
-9.543128013610839
 30
108.4347534179687
 70
    32
  0
VERTEX
  5
1FC
330
17D
100
AcDbEntity
  8
assembly hole
100
AcDbVertex
100
AcDb3dPolylineVertex
 10
220.1550598144531
 20
-9.543128013610839
 30
109.9351348876953
 70
    32
  0
VERTEX
  5
1FD
330
17D
100
AcDbEntity
  8
assembly hole
100
AcDbVertex
100
AcDb3dPolylineVertex
 10
220.0390777587891
 20
-9.543128013610839
 30
111.45751953125
 70
    32
  0
SEQEND
  5
301
330
17D
100
AcDbEntity
  8
assembly hole
  0
POLYLINE
  5
1FE
330
1F
100
AcDbEntity
  8
assembly hole
100
AcDb3dPolyline
 66
     1
 10
0.0
 20
0.0
 30
0.0
 70
     9
  0
VERTEX
  5
1FF
330
1FE
100
AcDbEntity
  8
assembly hole
100
AcDbVertex
100
AcDb3dPolylineVertex
 10
690.0
 20
9.45687198638916
 30
113.0
 70
    32
  0
VERTEX
  5
200
330
1FE
100
AcDbEntity
  8
assembly hole
100
AcDbVertex
100
AcDb3dPolylineVertex
 10
689.9609374999999
 20
9.45687198638916
 30
114.54248046875
 70
    32
  0
VERTEX
  5
201
330
1FE
100
AcDbEntity
  8
assembly hole
100
AcDbVertex
100
AcDb3dPolylineVertex
 10
689.8449707031249
 20
9.45687198638916
 30
116.0648651123047
 70
    32
  0
VERTEX
  5
202
330
1FE
100
AcDbEntity
  8
assembly hole
100
AcDbVertex
100
AcDb3dPolylineVertex
 10
689.6539306640625
 20
9.45687198638916
 30
117.5652465820312
 70
    32
  0
VERTEX
  5
203
330
1FE
100
AcDbEntity
  8
assembly hole
100
AcDbVertex
100
AcDb3dPolylineVertex
 10
689.3898925781249
 20
9.45687198638916
 30
119.0417556762695
 70
    32
  0
VERTEX
  5
204
330
1FE
100
AcDbEntity
  8
assembly hole
100
AcDbVertex
100
AcDb3dPolylineVertex
 10
689.0546264648437
 20
9.45687198638916
 30
120.4924774169922
 70
    32
  0
VERTEX
  5
205
330
1FE
100
AcDbEntity
  8
assembly hole
100
AcDbVertex
100
AcDb3dPolylineVertex
 10
688.6499633789062
 20
9.45687198638916
 30
121.91552734375
 70
    32
  0
VERTEX
  5
206
330
1FE
100
AcDbEntity
  8
assembly hole
100
AcDbVertex
100
AcDb3dPolylineVertex
 10
688.1779174804687
 20
9.45687198638916
 30
123.3090133666992
 70
    32
  0
VERTEX
  5
207
330
1FE
100
AcDbEntity
  8
assembly hole
100
AcDbVertex
100
AcDb3dPolylineVertex
 10
687.640380859375
 20
9.45687198638916
 30
124.6710433959961
 70
    32
  0
VERTEX
  5
208
330
1FE
100
AcDbEntity
  8
assembly hole
100
AcDbVertex
100
AcDb3dPolylineVertex
 10
687.0391235351562
 20
9.45687198638916
 30
125.9997253417969
 70
    32
  0
VERTEX
  5
209
330
1FE
100
AcDbEntity
  8
assembly hole
100
AcDbVertex
100
AcDb3dPolylineVertex
 10
686.3761596679687
 20
9.45687198638916
 30
127.2931518554687
 70
    32
  0
VERTEX
  5
20A
330
1FE
100
AcDbEntity
  8
assembly hole
100
AcDbVertex
100
AcDb3dPolylineVertex
 10
685.6533203125
 20
9.45687198638916
 30
128.5494537353515
 70
    32
  0
VERTEX
  5
20B
330
1FE
100
AcDbEntity
  8
assembly hole
100
AcDbVertex
100
AcDb3dPolylineVertex
 10
684.87255859375
 20
9.45687198638916
 30
129.7667083740234
 70
    32
  0
VERTEX
  5
20C
330
1FE
100
AcDbEntity
  8
assembly hole
100
AcDbVertex
100
AcDb3dPolylineVertex
 10
684.03564453125
 20
9.45687198638916
 30
130.9430541992187
 70
    32
  0
VERTEX
  5
20D
330
1FE
100
AcDbEntity
  8
assembly hole
100
AcDbVertex
100
AcDb3dPolylineVertex
 10
683.1446533203124
 20
9.45687198638916
 30
132.0765686035156
 70
    32
  0
VERTEX
  5
20E
330
1FE
100
AcDbEntity
  8
assembly hole
100
AcDbVertex
100
AcDb3dPolylineVertex
 10
682.2012939453125
 20
9.45687198638916
 30
133.1653900146484
 70
    32
  0
VERTEX
  5
20F
330
1FE
100
AcDbEntity
  8
assembly hole
100
AcDbVertex
100
AcDb3dPolylineVertex
 10
681.2075805664062
 20
9.45687198638916
 30
134.2075958251953
 70
    32
  0
VERTEX
  5
210
330
1FE
100
AcDbEntity
  8
assembly hole
100
AcDbVertex
100
AcDb3dPolylineVertex
 10
680.1654052734375
 20
9.45687198638916
 30
135.2013092041015
 70
    32
  0
VERTEX
  5
211
330
1FE
100
AcDbEntity
  8
assembly hole
100
AcDbVertex
100
AcDb3dPolylineVertex
 10
679.0765991210937
 20
9.45687198638916
 30
136.1446228027344
 70
    32
  0
VERTEX
  5
212
330
1FE
100
AcDbEntity
  8
assembly hole
100
AcDbVertex
100
AcDb3dPolylineVertex
 10
677.9430541992187
 20
9.45687198638916
 30
137.0356750488281
 70
    32
  0
VERTEX
  5
213
330
1FE
100
AcDbEntity
  8
assembly hole
100
AcDbVertex
100
AcDb3dPolylineVertex
 10
676.7667236328125
 20
9.45687198638916
 30
137.8725280761718
 70
    32
  0
VERTEX
  5
214
330
1FE
100
AcDbEntity
  8
assembly hole
100
AcDbVertex
100
AcDb3dPolylineVertex
 10
675.5494384765625
 20
9.45687198638916
 30
138.6533203125
 70
    32
  0
VERTEX
  5
215
330
1FE
100
AcDbEntity
  8
assembly hole
100
AcDbVertex
100
AcDb3dPolylineVertex
 10
674.2931518554687
 20
9.45687198638916
 30
139.3761444091797
 70
    32
  0
VERTEX
  5
216
330
1FE
100
AcDbEntity
  8
assembly hole
100
AcDbVertex
100
AcDb3dPolylineVertex
 10
672.9997558593749
 20
9.45687198638916
 30
140.0391235351562
 70
    32
  0
VERTEX
  5
217
330
1FE
100
AcDbEntity
  8
assembly hole
100
AcDbVertex
100
AcDb3dPolylineVertex
 10
671.6710205078125
 20
9.45687198638916
 30
140.6403503417968
 70
    32
  0
VERTEX
  5
218
330
1FE
100
AcDbEntity
  8
assembly hole
100
AcDbVertex
100
AcDb3dPolylineVertex
 10
670.3090209960937
 20
9.45687198638916
 30
141.1779327392578
 70
    32
  0
VERTEX
  5
219
330
1FE
100
AcDbEntity
  8
assembly hole
100
AcDbVertex
100
AcDb3dPolylineVertex
 10
668.9155273437499
 20
9.45687198638916
 30
141.6499786376953
 70
    32
  0
VERTEX
  5
21A
330
1FE
100
AcDbEntity
  8
assembly hole
100
AcDbVertex
100
AcDb3dPolylineVertex
 10
667.4924926757812
 20
9.45687198638916
 30
142.0545959472656
 70
    32
  0
VERTEX
  5
21B
330
1FE
100
AcDbEntity
  8
assembly hole
100
AcDbVertex
100
AcDb3dPolylineVertex
 10
666.0417480468749
 20
9.45687198638916
 30
142.389892578125
 70
    32
  0
VERTEX
  5
21C
330
1FE
100
AcDbEntity
  8
assembly hole
100
AcDbVertex
100
AcDb3dPolylineVertex
 10
664.5652465820312
 20
9.45687198638916
 30
142.6539764404297
 70
    32
  0
VERTEX
  5
21D
330
1FE
100
AcDbEntity
  8
assembly hole
100
AcDbVertex
100
AcDb3dPolylineVertex
 10
663.0648803710937
 20
9.45687198638916
 30
142.8449554443359
 70
    32
  0
VERTEX
  5
21E
330
1FE
100
AcDbEntity
  8
assembly hole
100
AcDbVertex
100
AcDb3dPolylineVertex
 10
661.5424804687499
 20
9.45687198638916
 30
142.9609222412109
 70
    32
  0
VERTEX
  5
21F
330
1FE
100
AcDbEntity
  8
assembly hole
100
AcDbVertex
100
AcDb3dPolylineVertex
 10
660.0
 20
9.45687198638916
 30
143.0
 70
    32
  0
VERTEX
  5
220
330
1FE
100
AcDbEntity
  8
assembly hole
100
AcDbVertex
100
AcDb3dPolylineVertex
 10
658.45751953125
 20
9.45687198638916
 30
142.9609222412109
 70
    32
  0
VERTEX
  5
221
330
1FE
100
AcDbEntity
  8
assembly hole
100
AcDbVertex
100
AcDb3dPolylineVertex
 10
656.9351806640625
 20
9.45687198638916
 30
142.8449401855468
 70
    32
  0
VERTEX
  5
222
330
1FE
100
AcDbEntity
  8
assembly hole
100
AcDbVertex
100
AcDb3dPolylineVertex
 10
655.4347534179687
 20
9.45687198638916
 30
142.6539764404297
 70
    32
  0
VERTEX
  5
223
330
1FE
100
AcDbEntity
  8
assembly hole
100
AcDbVertex
100
AcDb3dPolylineVertex
 10
653.958251953125
 20
9.45687198638916
 30
142.389892578125
 70
    32
  0
VERTEX
  5
224
330
1FE
100
AcDbEntity
  8
assembly hole
100
AcDbVertex
100
AcDb3dPolylineVertex
 10
652.5075073242187
 20
9.45687198638916
 30
142.0545959472656
 70
    32
  0
VERTEX
  5
225
330
1FE
100
AcDbEntity
  8
assembly hole
100
AcDbVertex
100
AcDb3dPolylineVertex
 10
651.08447265625
 20
9.45687198638916
 30
141.6499786376953
 70
    32
  0
VERTEX
  5
226
330
1FE
100
AcDbEntity
  8
assembly hole
100
AcDbVertex
100
AcDb3dPolylineVertex
 10
649.6909790039062
 20
9.45687198638916
 30
141.1779327392578
 70
    32
  0
VERTEX
  5
227
330
1FE
100
AcDbEntity
  8
assembly hole
100
AcDbVertex
100
AcDb3dPolylineVertex
 10
648.3289794921875
 20
9.45687198638916
 30
140.6403503417968
 70
    32
  0
VERTEX
  5
228
330
1FE
100
AcDbEntity
  8
assembly hole
100
AcDbVertex
100
AcDb3dPolylineVertex
 10
647.000244140625
 20
9.45687198638916
 30
140.0391235351562
 70
    32
  0
VERTEX
  5
229
330
1FE
100
AcDbEntity
  8
assembly hole
100
AcDbVertex
100
AcDb3dPolylineVertex
 10
645.7068481445312
 20
9.45687198638916
 30
139.3761596679687
 70
    32
  0
VERTEX
  5
22A
330
1FE
100
AcDbEntity
  8
assembly hole
100
AcDbVertex
100
AcDb3dPolylineVertex
 10
644.4505615234374
 20
9.45687198638916
 30
138.6533203125
 70
    32
  0
VERTEX
  5
22B
330
1FE
100
AcDbEntity
  8
assembly hole
100
AcDbVertex
100
AcDb3dPolylineVertex
 10
643.2332763671874
 20
9.45687198638916
 30
137.8725280761718
 70
    32
  0
VERTEX
  5
22C
330
1FE
100
AcDbEntity
  8
assembly hole
100
AcDbVertex
100
AcDb3dPolylineVertex
 10
642.0569458007812
 20
9.45687198638916
 30
137.0356750488281
 70
    32
  0
VERTEX
  5
22D
330
1FE
100
AcDbEntity
  8
assembly hole
100
AcDbVertex
100
AcDb3dPolylineVertex
 10
640.9234619140625
 20
9.45687198638916
 30
136.1446228027344
 70
    32
  0
VERTEX
  5
22E
330
1FE
100
AcDbEntity
  8
assembly hole
100
AcDbVertex
100
AcDb3dPolylineVertex
 10
639.8345947265625
 20
9.45687198638916
 30
135.2013092041015
 70
    32
  0
VERTEX
  5
22F
330
1FE
100
AcDbEntity
  8
assembly hole
100
AcDbVertex
100
AcDb3dPolylineVertex
 10
638.7924194335937
 20
9.45687198638916
 30
134.2075958251953
 70
    32
  0
VERTEX
  5
230
330
1FE
100
AcDbEntity
  8
assembly hole
100
AcDbVertex
100
AcDb3dPolylineVertex
 10
637.7987060546875
 20
9.45687198638916
 30
133.1653900146484
 70
    32
  0
VERTEX
  5
231
330
1FE
100
AcDbEntity
  8
assembly hole
100
AcDbVertex
100
AcDb3dPolylineVertex
 10
636.8553466796875
 20
9.45687198638916
 30
132.0765686035156
 70
    32
  0
VERTEX
  5
232
330
1FE
100
AcDbEntity
  8
assembly hole
100
AcDbVertex
100
AcDb3dPolylineVertex
 10
635.96435546875
 20
9.45687198638916
 30
130.9430541992187
 70
    32
  0
VERTEX
  5
233
330
1FE
100
AcDbEntity
  8
assembly hole
100
AcDbVertex
100
AcDb3dPolylineVertex
 10
635.1274414062499
 20
9.45687198638916
 30
129.7667083740234
 70
    32
  0
VERTEX
  5
234
330
1FE
100
AcDbEntity
  8
assembly hole
100
AcDbVertex
100
AcDb3dPolylineVertex
 10
634.3466796875
 20
9.45687198638916
 30
128.5494537353515
 70
    32
  0
VERTEX
  5
235
330
1FE
100
AcDbEntity
  8
assembly hole
100
AcDbVertex
100
AcDb3dPolylineVertex
 10
633.6238403320312
 20
9.45687198638916
 30
127.2931518554687
 70
    32
  0
VERTEX
  5
236
330
1FE
100
AcDbEntity
  8
assembly hole
100
AcDbVertex
100
AcDb3dPolylineVertex
 10
632.9608764648437
 20
9.45687198638916
 30
125.9997253417969
 70
    32
  0
VERTEX
  5
237
330
1FE
100
AcDbEntity
  8
assembly hole
100
AcDbVertex
100
AcDb3dPolylineVertex
 10
632.359619140625
 20
9.45687198638916
 30
124.6710433959961
 70
    32
  0
VERTEX
  5
238
330
1FE
100
AcDbEntity
  8
assembly hole
100
AcDbVertex
100
AcDb3dPolylineVertex
 10
631.8220825195312
 20
9.45687198638916
 30
123.3090133666992
 70
    32
  0
VERTEX
  5
239
330
1FE
100
AcDbEntity
  8
assembly hole
100
AcDbVertex
100
AcDb3dPolylineVertex
 10
631.3500366210937
 20
9.45687198638916
 30
121.91552734375
 70
    32
  0
VERTEX
  5
23A
330
1FE
100
AcDbEntity
  8
assembly hole
100
AcDbVertex
100
AcDb3dPolylineVertex
 10
630.9454345703125
 20
9.45687198638916
 30
120.4924774169922
 70
    32
  0
VERTEX
  5
23B
330
1FE
100
AcDbEntity
  8
assembly hole
100
AcDbVertex
100
AcDb3dPolylineVertex
 10
630.610107421875
 20
9.45687198638916
 30
119.0417556762695
 70
    32
  0
VERTEX
  5
23C
330
1FE
100
AcDbEntity
  8
assembly hole
100
AcDbVertex
100
AcDb3dPolylineVertex
 10
630.3460083007812
 20
9.45687198638916
 30
117.5652465820312
 70
    32
  0
VERTEX
  5
23D
330
1FE
100
AcDbEntity
  8
assembly hole
100
AcDbVertex
100
AcDb3dPolylineVertex
 10
630.155029296875
 20
9.45687198638916
 30
116.0648651123047
 70
    32
  0
VERTEX
  5
23E
330
1FE
100
AcDbEntity
  8
assembly hole
100
AcDbVertex
100
AcDb3dPolylineVertex
 10
630.0390625
 20
9.45687198638916
 30
114.54248046875
 70
    32
  0
VERTEX
  5
23F
330
1FE
100
AcDbEntity
  8
assembly hole
100
AcDbVertex
100
AcDb3dPolylineVertex
 10
630.0
 20
9.45687198638916
 30
113.0
 70
    32
  0
VERTEX
  5
240
330
1FE
100
AcDbEntity
  8
assembly hole
100
AcDbVertex
100
AcDb3dPolylineVertex
 10
630.0390625
 20
9.45687198638916
 30
111.45751953125
 70
    32
  0
VERTEX
  5
241
330
1FE
100
AcDbEntity
  8
assembly hole
100
AcDbVertex
100
AcDb3dPolylineVertex
 10
630.155029296875
 20
9.45687198638916
 30
109.9351348876953
 70
    32
  0
VERTEX
  5
242
330
1FE
100
AcDbEntity
  8
assembly hole
100
AcDbVertex
100
AcDb3dPolylineVertex
 10
630.3460083007812
 20
9.45687198638916
 30
108.4347534179687
 70
    32
  0
VERTEX
  5
243
330
1FE
100
AcDbEntity
  8
assembly hole
100
AcDbVertex
100
AcDb3dPolylineVertex
 10
630.610107421875
 20
9.45687198638916
 30
106.9582443237304
 70
    32
  0
VERTEX
  5
244
330
1FE
100
AcDbEntity
  8
assembly hole
100
AcDbVertex
100
AcDb3dPolylineVertex
 10
630.9454345703125
 20
9.45687198638916
 30
105.5075225830078
 70
    32
  0
VERTEX
  5
245
330
1FE
100
AcDbEntity
  8
assembly hole
100
AcDbVertex
100
AcDb3dPolylineVertex
 10
631.3500366210937
 20
9.45687198638916
 30
104.08447265625
 70
    32
  0
VERTEX
  5
246
330
1FE
100
AcDbEntity
  8
assembly hole
100
AcDbVertex
100
AcDb3dPolylineVertex
 10
631.8220825195312
 20
9.45687198638916
 30
102.6909866333008
 70
    32
  0
VERTEX
  5
247
330
1FE
100
AcDbEntity
  8
assembly hole
100
AcDbVertex
100
AcDb3dPolylineVertex
 10
632.359619140625
 20
9.45687198638916
 30
101.3289566040039
 70
    32
  0
VERTEX
  5
248
330
1FE
100
AcDbEntity
  8
assembly hole
100
AcDbVertex
100
AcDb3dPolylineVertex
 10
632.9608764648437
 20
9.45687198638916
 30
100.0002746582031
 70
    32
  0
VERTEX
  5
249
330
1FE
100
AcDbEntity
  8
assembly hole
100
AcDbVertex
100
AcDb3dPolylineVertex
 10
633.6238403320312
 20
9.45687198638916
 30
98.70684814453126
 70
    32
  0
VERTEX
  5
24A
330
1FE
100
AcDbEntity
  8
assembly hole
100
AcDbVertex
100
AcDb3dPolylineVertex
 10
634.3466796875
 20
9.45687198638916
 30
97.45054626464844
 70
    32
  0
VERTEX
  5
24B
330
1FE
100
AcDbEntity
  8
assembly hole
100
AcDbVertex
100
AcDb3dPolylineVertex
 10
635.1274414062499
 20
9.45687198638916
 30
96.23328399658204
 70
    32
  0
VERTEX
  5
24C
330
1FE
100
AcDbEntity
  8
assembly hole
100
AcDbVertex
100
AcDb3dPolylineVertex
 10
635.96435546875
 20
9.45687198638916
 30
95.05694580078126
 70
    32
  0
VERTEX
  5
24D
330
1FE
100
AcDbEntity
  8
assembly hole
100
AcDbVertex
100
AcDb3dPolylineVertex
 10
636.8553466796875
 20
9.45687198638916
 30
93.92342376708985
 70
    32
  0
VERTEX
  5
24E
330
1FE
100
AcDbEntity
  8
assembly hole
100
AcDbVertex
100
AcDb3dPolylineVertex
 10
637.7987060546875
 20
9.45687198638916
 30
92.83460998535156
 70
    32
  0
VERTEX
  5
24F
330
1FE
100
AcDbEntity
  8
assembly hole
100
AcDbVertex
100
AcDb3dPolylineVertex
 10
638.7924194335937
 20
9.45687198638916
 30
91.79240417480469
 70
    32
  0
VERTEX
  5
250
330
1FE
100
AcDbEntity
  8
assembly hole
100
AcDbVertex
100
AcDb3dPolylineVertex
 10
639.8345947265625
 20
9.45687198638916
 30
90.79869079589844
 70
    32
  0
VERTEX
  5
251
330
1FE
100
AcDbEntity
  8
assembly hole
100
AcDbVertex
100
AcDb3dPolylineVertex
 10
640.9234008789062
 20
9.45687198638916
 30
89.85536956787109
 70
    32
  0
VERTEX
  5
252
330
1FE
100
AcDbEntity
  8
assembly hole
100
AcDbVertex
100
AcDb3dPolylineVertex
 10
642.0569458007812
 20
9.45687198638916
 30
88.9643325805664
 70
    32
  0
VERTEX
  5
253
330
1FE
100
AcDbEntity
  8
assembly hole
100
AcDbVertex
100
AcDb3dPolylineVertex
 10
643.2332763671874
 20
9.45687198638916
 30
88.12747192382813
 70
    32
  0
VERTEX
  5
254
330
1FE
100
AcDbEntity
  8
assembly hole
100
AcDbVertex
100
AcDb3dPolylineVertex
 10
644.4505615234374
 20
9.45687198638916
 30
87.34667968750001
 70
    32
  0
VERTEX
  5
255
330
1FE
100
AcDbEntity
  8
assembly hole
100
AcDbVertex
100
AcDb3dPolylineVertex
 10
645.7068481445312
 20
9.45687198638916
 30
86.62384796142578
 70
    32
  0
VERTEX
  5
256
330
1FE
100
AcDbEntity
  8
assembly hole
100
AcDbVertex
100
AcDb3dPolylineVertex
 10
647.000244140625
 20
9.45687198638916
 30
85.96087646484376
 70
    32
  0
VERTEX
  5
257
330
1FE
100
AcDbEntity
  8
assembly hole
100
AcDbVertex
100
AcDb3dPolylineVertex
 10
648.3289794921875
 20
9.45687198638916
 30
85.35964965820312
 70
    32
  0
VERTEX
  5
258
330
1FE
100
AcDbEntity
  8
assembly hole
100
AcDbVertex
100
AcDb3dPolylineVertex
 10
649.6909790039062
 20
9.45687198638916
 30
84.82206726074219
 70
    32
  0
VERTEX
  5
259
330
1FE
100
AcDbEntity
  8
assembly hole
100
AcDbVertex
100
AcDb3dPolylineVertex
 10
651.08447265625
 20
9.45687198638916
 30
84.35002136230469
 70
    32
  0
VERTEX
  5
25A
330
1FE
100
AcDbEntity
  8
assembly hole
100
AcDbVertex
100
AcDb3dPolylineVertex
 10
652.5075073242187
 20
9.45687198638916
 30
83.94540405273437
 70
    32
  0
VERTEX
  5
25B
330
1FE
100
AcDbEntity
  8
assembly hole
100
AcDbVertex
100
AcDb3dPolylineVertex
 10
653.958251953125
 20
9.45687198638916
 30
83.61010742187501
 70
    32
  0
VERTEX
  5
25C
330
1FE
100
AcDbEntity
  8
assembly hole
100
AcDbVertex
100
AcDb3dPolylineVertex
 10
655.4347534179687
 20
9.45687198638916
 30
83.34602355957031
 70
    32
  0
VERTEX
  5
25D
330
1FE
100
AcDbEntity
  8
assembly hole
100
AcDbVertex
100
AcDb3dPolylineVertex
 10
656.9351196289062
 20
9.45687198638916
 30
83.1550521850586
 70
    32
  0
VERTEX
  5
25E
330
1FE
100
AcDbEntity
  8
assembly hole
100
AcDbVertex
100
AcDb3dPolylineVertex
 10
658.45751953125
 20
9.45687198638916
 30
83.03907775878906
 70
    32
  0
VERTEX
  5
25F
330
1FE
100
AcDbEntity
  8
assembly hole
100
AcDbVertex
100
AcDb3dPolylineVertex
 10
660.0
 20
9.45687198638916
 30
83.0
 70
    32
  0
VERTEX
  5
260
330
1FE
100
AcDbEntity
  8
assembly hole
100
AcDbVertex
100
AcDb3dPolylineVertex
 10
661.5424804687499
 20
9.45687198638916
 30
83.03907775878906
 70
    32
  0
VERTEX
  5
261
330
1FE
100
AcDbEntity
  8
assembly hole
100
AcDbVertex
100
AcDb3dPolylineVertex
 10
663.0648193359375
 20
9.45687198638916
 30
83.1550521850586
 70
    32
  0
VERTEX
  5
262
330
1FE
100
AcDbEntity
  8
assembly hole
100
AcDbVertex
100
AcDb3dPolylineVertex
 10
664.5652465820312
 20
9.45687198638916
 30
83.34602355957031
 70
    32
  0
VERTEX
  5
263
330
1FE
100
AcDbEntity
  8
assembly hole
100
AcDbVertex
100
AcDb3dPolylineVertex
 10
666.0417480468749
 20
9.45687198638916
 30
83.61010742187501
 70
    32
  0
VERTEX
  5
264
330
1FE
100
AcDbEntity
  8
assembly hole
100
AcDbVertex
100
AcDb3dPolylineVertex
 10
667.4924926757812
 20
9.45687198638916
 30
83.94540405273437
 70
    32
  0
VERTEX
  5
265
330
1FE
100
AcDbEntity
  8
assembly hole
100
AcDbVertex
100
AcDb3dPolylineVertex
 10
668.9155273437499
 20
9.45687198638916
 30
84.35002136230469
 70
    32
  0
VERTEX
  5
266
330
1FE
100
AcDbEntity
  8
assembly hole
100
AcDbVertex
100
AcDb3dPolylineVertex
 10
670.3090209960937
 20
9.45687198638916
 30
84.82206726074219
 70
    32
  0
VERTEX
  5
267
330
1FE
100
AcDbEntity
  8
assembly hole
100
AcDbVertex
100
AcDb3dPolylineVertex
 10
671.6710205078125
 20
9.45687198638916
 30
85.35964965820312
 70
    32
  0
VERTEX
  5
268
330
1FE
100
AcDbEntity
  8
assembly hole
100
AcDbVertex
100
AcDb3dPolylineVertex
 10
672.9997558593749
 20
9.45687198638916
 30
85.96087646484376
 70
    32
  0
VERTEX
  5
269
330
1FE
100
AcDbEntity
  8
assembly hole
100
AcDbVertex
100
AcDb3dPolylineVertex
 10
674.2931518554687
 20
9.45687198638916
 30
86.62384796142578
 70
    32
  0
VERTEX
  5
26A
330
1FE
100
AcDbEntity
  8
assembly hole
100
AcDbVertex
100
AcDb3dPolylineVertex
 10
675.5494384765625
 20
9.45687198638916
 30
87.34667968750001
 70
    32
  0
VERTEX
  5
26B
330
1FE
100
AcDbEntity
  8
assembly hole
100
AcDbVertex
100
AcDb3dPolylineVertex
 10
676.7667236328125
 20
9.45687198638916
 30
88.12747192382813
 70
    32
  0
VERTEX
  5
26C
330
1FE
100
AcDbEntity
  8
assembly hole
100
AcDbVertex
100
AcDb3dPolylineVertex
 10
677.9430541992187
 20
9.45687198638916
 30
88.9643325805664
 70
    32
  0
VERTEX
  5
26D
330
1FE
100
AcDbEntity
  8
assembly hole
100
AcDbVertex
100
AcDb3dPolylineVertex
 10
679.0765380859375
 20
9.45687198638916
 30
89.85537719726563
 70
    32
  0
VERTEX
  5
26E
330
1FE
100
AcDbEntity
  8
assembly hole
100
AcDbVertex
100
AcDb3dPolylineVertex
 10
680.1654052734375
 20
9.45687198638916
 30
90.79869079589844
 70
    32
  0
VERTEX
  5
26F
330
1FE
100
AcDbEntity
  8
assembly hole
100
AcDbVertex
100
AcDb3dPolylineVertex
 10
681.2075805664062
 20
9.45687198638916
 30
91.79240417480469
 70
    32
  0
VERTEX
  5
270
330
1FE
100
AcDbEntity
  8
assembly hole
100
AcDbVertex
100
AcDb3dPolylineVertex
 10
682.2012939453125
 20
9.45687198638916
 30
92.83460998535156
 70
    32
  0
VERTEX
  5
271
330
1FE
100
AcDbEntity
  8
assembly hole
100
AcDbVertex
100
AcDb3dPolylineVertex
 10
683.1446533203124
 20
9.45687198638916
 30
93.92342376708985
 70
    32
  0
VERTEX
  5
272
330
1FE
100
AcDbEntity
  8
assembly hole
100
AcDbVertex
100
AcDb3dPolylineVertex
 10
684.03564453125
 20
9.45687198638916
 30
95.05694580078126
 70
    32
  0
VERTEX
  5
273
330
1FE
100
AcDbEntity
  8
assembly hole
100
AcDbVertex
100
AcDb3dPolylineVertex
 10
684.87255859375
 20
9.45687198638916
 30
96.23329162597656
 70
    32
  0
VERTEX
  5
274
330
1FE
100
AcDbEntity
  8
assembly hole
100
AcDbVertex
100
AcDb3dPolylineVertex
 10
685.6533203125
 20
9.45687198638916
 30
97.45054626464844
 70
    32
  0
VERTEX
  5
275
330
1FE
100
AcDbEntity
  8
assembly hole
100
AcDbVertex
100
AcDb3dPolylineVertex
 10
686.3761596679687
 20
9.45687198638916
 30
98.70684814453126
 70
    32
  0
VERTEX
  5
276
330
1FE
100
AcDbEntity
  8
assembly hole
100
AcDbVertex
100
AcDb3dPolylineVertex
 10
687.0391235351562
 20
9.45687198638916
 30
100.0002746582031
 70
    32
  0
VERTEX
  5
277
330
1FE
100
AcDbEntity
  8
assembly hole
100
AcDbVertex
100
AcDb3dPolylineVertex
 10
687.640380859375
 20
9.45687198638916
 30
101.3289566040039
 70
    32
  0
VERTEX
  5
278
330
1FE
100
AcDbEntity
  8
assembly hole
100
AcDbVertex
100
AcDb3dPolylineVertex
 10
688.1779174804687
 20
9.45687198638916
 30
102.6909866333008
 70
    32
  0
VERTEX
  5
279
330
1FE
100
AcDbEntity
  8
assembly hole
100
AcDbVertex
100
AcDb3dPolylineVertex
 10
688.6499633789062
 20
9.45687198638916
 30
104.08447265625
 70
    32
  0
VERTEX
  5
27A
330
1FE
100
AcDbEntity
  8
assembly hole
100
AcDbVertex
100
AcDb3dPolylineVertex
 10
689.0545654296874
 20
9.45687198638916
 30
105.5075225830078
 70
    32
  0
VERTEX
  5
27B
330
1FE
100
AcDbEntity
  8
assembly hole
100
AcDbVertex
100
AcDb3dPolylineVertex
 10
689.3898925781249
 20
9.45687198638916
 30
106.9582443237304
 70
    32
  0
VERTEX
  5
27C
330
1FE
100
AcDbEntity
  8
assembly hole
100
AcDbVertex
100
AcDb3dPolylineVertex
 10
689.6539916992187
 20
9.45687198638916
 30
108.4347534179687
 70
    32
  0
VERTEX
  5
27D
330
1FE
100
AcDbEntity
  8
assembly hole
100
AcDbVertex
100
AcDb3dPolylineVertex
 10
689.8449707031249
 20
9.45687198638916
 30
109.9351348876953
 70
    32
  0
VERTEX
  5
27E
330
1FE
100
AcDbEntity
  8
assembly hole
100
AcDbVertex
100
AcDb3dPolylineVertex
 10
689.9609374999999
 20
9.45687198638916
 30
111.45751953125
 70
    32
  0
SEQEND
  5
302
330
1FE
100
AcDbEntity
  8
assembly hole
  0
POLYLINE
  5
27F
330
1F
100
AcDbEntity
  8
assembly hole
100
AcDb3dPolyline
 66
     1
 10
0.0
 20
0.0
 30
0.0
 70
     9
  0
VERTEX
  5
280
330
27F
100
AcDbEntity
  8
assembly hole
100
AcDbVertex
100
AcDb3dPolylineVertex
 10
630.0
 20
-9.543128013610839
 30
113.0
 70
    32
  0
VERTEX
  5
281
330
27F
100
AcDbEntity
  8
assembly hole
100
AcDbVertex
100
AcDb3dPolylineVertex
 10
630.0390625
 20
-9.543128013610839
 30
114.54248046875
 70
    32
  0
VERTEX
  5
282
330
27F
100
AcDbEntity
  8
assembly hole
100
AcDbVertex
100
AcDb3dPolylineVertex
 10
630.155029296875
 20
-9.543128013610839
 30
116.0648651123047
 70
    32
  0
VERTEX
  5
283
330
27F
100
AcDbEntity
  8
assembly hole
100
AcDbVertex
100
AcDb3dPolylineVertex
 10
630.3460083007812
 20
-9.543128013610839
 30
117.5652465820312
 70
    32
  0
VERTEX
  5
284
330
27F
100
AcDbEntity
  8
assembly hole
100
AcDbVertex
100
AcDb3dPolylineVertex
 10
630.610107421875
 20
-9.543128013610839
 30
119.0417556762695
 70
    32
  0
VERTEX
  5
285
330
27F
100
AcDbEntity
  8
assembly hole
100
AcDbVertex
100
AcDb3dPolylineVertex
 10
630.9454345703125
 20
-9.543128013610839
 30
120.4924774169922
 70
    32
  0
VERTEX
  5
286
330
27F
100
AcDbEntity
  8
assembly hole
100
AcDbVertex
100
AcDb3dPolylineVertex
 10
631.3500366210937
 20
-9.543128013610839
 30
121.91552734375
 70
    32
  0
VERTEX
  5
287
330
27F
100
AcDbEntity
  8
assembly hole
100
AcDbVertex
100
AcDb3dPolylineVertex
 10
631.8220825195312
 20
-9.543128013610839
 30
123.3090133666992
 70
    32
  0
VERTEX
  5
288
330
27F
100
AcDbEntity
  8
assembly hole
100
AcDbVertex
100
AcDb3dPolylineVertex
 10
632.359619140625
 20
-9.543128013610839
 30
124.6710433959961
 70
    32
  0
VERTEX
  5
289
330
27F
100
AcDbEntity
  8
assembly hole
100
AcDbVertex
100
AcDb3dPolylineVertex
 10
632.9608764648437
 20
-9.543128013610839
 30
125.9997253417969
 70
    32
  0
VERTEX
  5
28A
330
27F
100
AcDbEntity
  8
assembly hole
100
AcDbVertex
100
AcDb3dPolylineVertex
 10
633.6238403320312
 20
-9.543128013610839
 30
127.2931518554687
 70
    32
  0
VERTEX
  5
28B
330
27F
100
AcDbEntity
  8
assembly hole
100
AcDbVertex
100
AcDb3dPolylineVertex
 10
634.3466796875
 20
-9.543128013610839
 30
128.5494537353515
 70
    32
  0
VERTEX
  5
28C
330
27F
100
AcDbEntity
  8
assembly hole
100
AcDbVertex
100
AcDb3dPolylineVertex
 10
635.1274414062499
 20
-9.543128013610839
 30
129.7667083740234
 70
    32
  0
VERTEX
  5
28D
330
27F
100
AcDbEntity
  8
assembly hole
100
AcDbVertex
100
AcDb3dPolylineVertex
 10
635.96435546875
 20
-9.543128013610839
 30
130.9430541992187
 70
    32
  0
VERTEX
  5
28E
330
27F
100
AcDbEntity
  8
assembly hole
100
AcDbVertex
100
AcDb3dPolylineVertex
 10
636.8553466796875
 20
-9.543128013610839
 30
132.0765686035156
 70
    32
  0
VERTEX
  5
28F
330
27F
100
AcDbEntity
  8
assembly hole
100
AcDbVertex
100
AcDb3dPolylineVertex
 10
637.7987060546875
 20
-9.543128013610839
 30
133.1653900146484
 70
    32
  0
VERTEX
  5
290
330
27F
100
AcDbEntity
  8
assembly hole
100
AcDbVertex
100
AcDb3dPolylineVertex
 10
638.7924194335937
 20
-9.543128013610839
 30
134.2075958251953
 70
    32
  0
VERTEX
  5
291
330
27F
100
AcDbEntity
  8
assembly hole
100
AcDbVertex
100
AcDb3dPolylineVertex
 10
639.8345947265625
 20
-9.543128013610839
 30
135.2013092041015
 70
    32
  0
VERTEX
  5
292
330
27F
100
AcDbEntity
  8
assembly hole
100
AcDbVertex
100
AcDb3dPolylineVertex
 10
640.9234008789062
 20
-9.543128013610839
 30
136.1446228027344
 70
    32
  0
VERTEX
  5
293
330
27F
100
AcDbEntity
  8
assembly hole
100
AcDbVertex
100
AcDb3dPolylineVertex
 10
642.0569458007812
 20
-9.543128013610839
 30
137.0356750488281
 70
    32
  0
VERTEX
  5
294
330
27F
100
AcDbEntity
  8
assembly hole
100
AcDbVertex
100
AcDb3dPolylineVertex
 10
643.2332763671874
 20
-9.543128013610839
 30
137.8725280761718
 70
    32
  0
VERTEX
  5
295
330
27F
100
AcDbEntity
  8
assembly hole
100
AcDbVertex
100
AcDb3dPolylineVertex
 10
644.4505615234374
 20
-9.543128013610839
 30
138.6533203125
 70
    32
  0
VERTEX
  5
296
330
27F
100
AcDbEntity
  8
assembly hole
100
AcDbVertex
100
AcDb3dPolylineVertex
 10
645.7068481445312
 20
-9.543128013610839
 30
139.3761444091797
 70
    32
  0
VERTEX
  5
297
330
27F
100
AcDbEntity
  8
assembly hole
100
AcDbVertex
100
AcDb3dPolylineVertex
 10
647.000244140625
 20
-9.543128013610839
 30
140.0391235351562
 70
    32
  0
VERTEX
  5
298
330
27F
100
AcDbEntity
  8
assembly hole
100
AcDbVertex
100
AcDb3dPolylineVertex
 10
648.3289794921875
 20
-9.543128013610839
 30
140.6403503417968
 70
    32
  0
VERTEX
  5
299
330
27F
100
AcDbEntity
  8
assembly hole
100
AcDbVertex
100
AcDb3dPolylineVertex
 10
649.6909790039062
 20
-9.543128013610839
 30
141.1779327392578
 70
    32
  0
VERTEX
  5
29A
330
27F
100
AcDbEntity
  8
assembly hole
100
AcDbVertex
100
AcDb3dPolylineVertex
 10
651.08447265625
 20
-9.543128013610839
 30
141.6499786376953
 70
    32
  0
VERTEX
  5
29B
330
27F
100
AcDbEntity
  8
assembly hole
100
AcDbVertex
100
AcDb3dPolylineVertex
 10
652.5075073242187
 20
-9.543128013610839
 30
142.0545959472656
 70
    32
  0
VERTEX
  5
29C
330
27F
100
AcDbEntity
  8
assembly hole
100
AcDbVertex
100
AcDb3dPolylineVertex
 10
653.958251953125
 20
-9.543128013610839
 30
142.389892578125
 70
    32
  0
VERTEX
  5
29D
330
27F
100
AcDbEntity
  8
assembly hole
100
AcDbVertex
100
AcDb3dPolylineVertex
 10
655.4347534179687
 20
-9.543128013610839
 30
142.6539764404297
 70
    32
  0
VERTEX
  5
29E
330
27F
100
AcDbEntity
  8
assembly hole
100
AcDbVertex
100
AcDb3dPolylineVertex
 10
656.9351196289062
 20
-9.543128013610839
 30
142.8449554443359
 70
    32
  0
VERTEX
  5
29F
330
27F
100
AcDbEntity
  8
assembly hole
100
AcDbVertex
100
AcDb3dPolylineVertex
 10
658.45751953125
 20
-9.543128013610839
 30
142.9609222412109
 70
    32
  0
VERTEX
  5
2A0
330
27F
100
AcDbEntity
  8
assembly hole
100
AcDbVertex
100
AcDb3dPolylineVertex
 10
660.0
 20
-9.543128013610839
 30
143.0
 70
    32
  0
VERTEX
  5
2A1
330
27F
100
AcDbEntity
  8
assembly hole
100
AcDbVertex
100
AcDb3dPolylineVertex
 10
661.5424804687499
 20
-9.543128013610839
 30
142.9609222412109
 70
    32
  0
VERTEX
  5
2A2
330
27F
100
AcDbEntity
  8
assembly hole
100
AcDbVertex
100
AcDb3dPolylineVertex
 10
663.0648193359375
 20
-9.543128013610839
 30
142.8449401855468
 70
    32
  0
VERTEX
  5
2A3
330
27F
100
AcDbEntity
  8
assembly hole
100
AcDbVertex
100
AcDb3dPolylineVertex
 10
664.5652465820312
 20
-9.543128013610839
 30
142.6539764404297
 70
    32
  0
VERTEX
  5
2A4
330
27F
100
AcDbEntity
  8
assembly hole
100
AcDbVertex
100
AcDb3dPolylineVertex
 10
666.0417480468749
 20
-9.543128013610839
 30
142.389892578125
 70
    32
  0
VERTEX
  5
2A5
330
27F
100
AcDbEntity
  8
assembly hole
100
AcDbVertex
100
AcDb3dPolylineVertex
 10
667.4924926757812
 20
-9.543128013610839
 30
142.0545959472656
 70
    32
  0
VERTEX
  5
2A6
330
27F
100
AcDbEntity
  8
assembly hole
100
AcDbVertex
100
AcDb3dPolylineVertex
 10
668.9155273437499
 20
-9.543128013610839
 30
141.6499786376953
 70
    32
  0
VERTEX
  5
2A7
330
27F
100
AcDbEntity
  8
assembly hole
100
AcDbVertex
100
AcDb3dPolylineVertex
 10
670.3090209960937
 20
-9.543128013610839
 30
141.1779327392578
 70
    32
  0
VERTEX
  5
2A8
330
27F
100
AcDbEntity
  8
assembly hole
100
AcDbVertex
100
AcDb3dPolylineVertex
 10
671.6710205078125
 20
-9.543128013610839
 30
140.6403503417968
 70
    32
  0
VERTEX
  5
2A9
330
27F
100
AcDbEntity
  8
assembly hole
100
AcDbVertex
100
AcDb3dPolylineVertex
 10
672.9997558593749
 20
-9.543128013610839
 30
140.0391235351562
 70
    32
  0
VERTEX
  5
2AA
330
27F
100
AcDbEntity
  8
assembly hole
100
AcDbVertex
100
AcDb3dPolylineVertex
 10
674.2931518554687
 20
-9.543128013610839
 30
139.3761596679687
 70
    32
  0
VERTEX
  5
2AB
330
27F
100
AcDbEntity
  8
assembly hole
100
AcDbVertex
100
AcDb3dPolylineVertex
 10
675.5494384765625
 20
-9.543128013610839
 30
138.6533203125
 70
    32
  0
VERTEX
  5
2AC
330
27F
100
AcDbEntity
  8
assembly hole
100
AcDbVertex
100
AcDb3dPolylineVertex
 10
676.7667236328125
 20
-9.543128013610839
 30
137.8725280761718
 70
    32
  0
VERTEX
  5
2AD
330
27F
100
AcDbEntity
  8
assembly hole
100
AcDbVertex
100
AcDb3dPolylineVertex
 10
677.9430541992187
 20
-9.543128013610839
 30
137.0356750488281
 70
    32
  0
VERTEX
  5
2AE
330
27F
100
AcDbEntity
  8
assembly hole
100
AcDbVertex
100
AcDb3dPolylineVertex
 10
679.0765380859375
 20
-9.543128013610839
 30
136.1446228027344
 70
    32
  0
VERTEX
  5
2AF
330
27F
100
AcDbEntity
  8
assembly hole
100
AcDbVertex
100
AcDb3dPolylineVertex
 10
680.1654052734375
 20
-9.543128013610839
 30
135.2013092041015
 70
    32
  0
VERTEX
  5
2B0
330
27F
100
AcDbEntity
  8
assembly hole
100
AcDbVertex
100
AcDb3dPolylineVertex
 10
681.2075805664062
 20
-9.543128013610839
 30
134.2075958251953
 70
    32
  0
VERTEX
  5
2B1
330
27F
100
AcDbEntity
  8
assembly hole
100
AcDbVertex
100
AcDb3dPolylineVertex
 10
682.2012939453125
 20
-9.543128013610839
 30
133.1653900146484
 70
    32
  0
VERTEX
  5
2B2
330
27F
100
AcDbEntity
  8
assembly hole
100
AcDbVertex
100
AcDb3dPolylineVertex
 10
683.1446533203124
 20
-9.543128013610839
 30
132.0765686035156
 70
    32
  0
VERTEX
  5
2B3
330
27F
100
AcDbEntity
  8
assembly hole
100
AcDbVertex
100
AcDb3dPolylineVertex
 10
684.03564453125
 20
-9.543128013610839
 30
130.9430541992187
 70
    32
  0
VERTEX
  5
2B4
330
27F
100
AcDbEntity
  8
assembly hole
100
AcDbVertex
100
AcDb3dPolylineVertex
 10
684.87255859375
 20
-9.543128013610839
 30
129.7667083740234
 70
    32
  0
VERTEX
  5
2B5
330
27F
100
AcDbEntity
  8
assembly hole
100
AcDbVertex
100
AcDb3dPolylineVertex
 10
685.6533203125
 20
-9.543128013610839
 30
128.5494537353515
 70
    32
  0
VERTEX
  5
2B6
330
27F
100
AcDbEntity
  8
assembly hole
100
AcDbVertex
100
AcDb3dPolylineVertex
 10
686.3761596679687
 20
-9.543128013610839
 30
127.2931518554687
 70
    32
  0
VERTEX
  5
2B7
330
27F
100
AcDbEntity
  8
assembly hole
100
AcDbVertex
100
AcDb3dPolylineVertex
 10
687.0391235351562
 20
-9.543128013610839
 30
125.9997253417969
 70
    32
  0
VERTEX
  5
2B8
330
27F
100
AcDbEntity
  8
assembly hole
100
AcDbVertex
100
AcDb3dPolylineVertex
 10
687.640380859375
 20
-9.543128013610839
 30
124.6710433959961
 70
    32
  0
VERTEX
  5
2B9
330
27F
100
AcDbEntity
  8
assembly hole
100
AcDbVertex
100
AcDb3dPolylineVertex
 10
688.1779174804687
 20
-9.543128013610839
 30
123.3090133666992
 70
    32
  0
VERTEX
  5
2BA
330
27F
100
AcDbEntity
  8
assembly hole
100
AcDbVertex
100
AcDb3dPolylineVertex
 10
688.6499633789062
 20
-9.543128013610839
 30
121.91552734375
 70
    32
  0
VERTEX
  5
2BB
330
27F
100
AcDbEntity
  8
assembly hole
100
AcDbVertex
100
AcDb3dPolylineVertex
 10
689.0545654296874
 20
-9.543128013610839
 30
120.4924774169922
 70
    32
  0
VERTEX
  5
2BC
330
27F
100
AcDbEntity
  8
assembly hole
100
AcDbVertex
100
AcDb3dPolylineVertex
 10
689.3898925781249
 20
-9.543128013610839
 30
119.0417556762695
 70
    32
  0
VERTEX
  5
2BD
330
27F
100
AcDbEntity
  8
assembly hole
100
AcDbVertex
100
AcDb3dPolylineVertex
 10
689.6539916992187
 20
-9.543128013610839
 30
117.5652465820312
 70
    32
  0
VERTEX
  5
2BE
330
27F
100
AcDbEntity
  8
assembly hole
100
AcDbVertex
100
AcDb3dPolylineVertex
 10
689.8449707031249
 20
-9.543128013610839
 30
116.0648651123047
 70
    32
  0
VERTEX
  5
2BF
330
27F
100
AcDbEntity
  8
assembly hole
100
AcDbVertex
100
AcDb3dPolylineVertex
 10
689.9609374999999
 20
-9.543128013610839
 30
114.54248046875
 70
    32
  0
VERTEX
  5
2C0
330
27F
100
AcDbEntity
  8
assembly hole
100
AcDbVertex
100
AcDb3dPolylineVertex
 10
690.0
 20
-9.543128013610839
 30
113.0
 70
    32
  0
VERTEX
  5
2C1
330
27F
100
AcDbEntity
  8
assembly hole
100
AcDbVertex
100
AcDb3dPolylineVertex
 10
689.9609374999999
 20
-9.543128013610839
 30
111.45751953125
 70
    32
  0
VERTEX
  5
2C2
330
27F
100
AcDbEntity
  8
assembly hole
100
AcDbVertex
100
AcDb3dPolylineVertex
 10
689.8449707031249
 20
-9.543128013610839
 30
109.9351348876953
 70
    32
  0
VERTEX
  5
2C3
330
27F
100
AcDbEntity
  8
assembly hole
100
AcDbVertex
100
AcDb3dPolylineVertex
 10
689.6539306640625
 20
-9.543128013610839
 30
108.4347534179687
 70
    32
  0
VERTEX
  5
2C4
330
27F
100
AcDbEntity
  8
assembly hole
100
AcDbVertex
100
AcDb3dPolylineVertex
 10
689.3898925781249
 20
-9.543128013610839
 30
106.9582443237304
 70
    32
  0
VERTEX
  5
2C5
330
27F
100
AcDbEntity
  8
assembly hole
100
AcDbVertex
100
AcDb3dPolylineVertex
 10
689.0546264648437
 20
-9.543128013610839
 30
105.5075225830078
 70
    32
  0
VERTEX
  5
2C6
330
27F
100
AcDbEntity
  8
assembly hole
100
AcDbVertex
100
AcDb3dPolylineVertex
 10
688.6499633789062
 20
-9.543128013610839
 30
104.08447265625
 70
    32
  0
VERTEX
  5
2C7
330
27F
100
AcDbEntity
  8
assembly hole
100
AcDbVertex
100
AcDb3dPolylineVertex
 10
688.1779174804687
 20
-9.543128013610839
 30
102.6909866333008
 70
    32
  0
VERTEX
  5
2C8
330
27F
100
AcDbEntity
  8
assembly hole
100
AcDbVertex
100
AcDb3dPolylineVertex
 10
687.640380859375
 20
-9.543128013610839
 30
101.3289566040039
 70
    32
  0
VERTEX
  5
2C9
330
27F
100
AcDbEntity
  8
assembly hole
100
AcDbVertex
100
AcDb3dPolylineVertex
 10
687.0391235351562
 20
-9.543128013610839
 30
100.0002746582031
 70
    32
  0
VERTEX
  5
2CA
330
27F
100
AcDbEntity
  8
assembly hole
100
AcDbVertex
100
AcDb3dPolylineVertex
 10
686.3761596679687
 20
-9.543128013610839
 30
98.70684814453126
 70
    32
  0
VERTEX
  5
2CB
330
27F
100
AcDbEntity
  8
assembly hole
100
AcDbVertex
100
AcDb3dPolylineVertex
 10
685.6533203125
 20
-9.543128013610839
 30
97.45054626464844
 70
    32
  0
VERTEX
  5
2CC
330
27F
100
AcDbEntity
  8
assembly hole
100
AcDbVertex
100
AcDb3dPolylineVertex
 10
684.87255859375
 20
-9.543128013610839
 30
96.23328399658204
 70
    32
  0
VERTEX
  5
2CD
330
27F
100
AcDbEntity
  8
assembly hole
100
AcDbVertex
100
AcDb3dPolylineVertex
 10
684.03564453125
 20
-9.543128013610839
 30
95.05694580078126
 70
    32
  0
VERTEX
  5
2CE
330
27F
100
AcDbEntity
  8
assembly hole
100
AcDbVertex
100
AcDb3dPolylineVertex
 10
683.1446533203124
 20
-9.543128013610839
 30
93.92342376708985
 70
    32
  0
VERTEX
  5
2CF
330
27F
100
AcDbEntity
  8
assembly hole
100
AcDbVertex
100
AcDb3dPolylineVertex
 10
682.2012939453125
 20
-9.543128013610839
 30
92.83460998535156
 70
    32
  0
VERTEX
  5
2D0
330
27F
100
AcDbEntity
  8
assembly hole
100
AcDbVertex
100
AcDb3dPolylineVertex
 10
681.2075805664062
 20
-9.543128013610839
 30
91.79240417480469
 70
    32
  0
VERTEX
  5
2D1
330
27F
100
AcDbEntity
  8
assembly hole
100
AcDbVertex
100
AcDb3dPolylineVertex
 10
680.1654052734375
 20
-9.543128013610839
 30
90.79869079589844
 70
    32
  0
VERTEX
  5
2D2
330
27F
100
AcDbEntity
  8
assembly hole
100
AcDbVertex
100
AcDb3dPolylineVertex
 10
679.0765991210937
 20
-9.543128013610839
 30
89.85536956787109
 70
    32
  0
VERTEX
  5
2D3
330
27F
100
AcDbEntity
  8
assembly hole
100
AcDbVertex
100
AcDb3dPolylineVertex
 10
677.9430541992187
 20
-9.543128013610839
 30
88.9643325805664
 70
    32
  0
VERTEX
  5
2D4
330
27F
100
AcDbEntity
  8
assembly hole
100
AcDbVertex
100
AcDb3dPolylineVertex
 10
676.7667236328125
 20
-9.543128013610839
 30
88.12747192382813
 70
    32
  0
VERTEX
  5
2D5
330
27F
100
AcDbEntity
  8
assembly hole
100
AcDbVertex
100
AcDb3dPolylineVertex
 10
675.5494384765625
 20
-9.543128013610839
 30
87.34667968750001
 70
    32
  0
VERTEX
  5
2D6
330
27F
100
AcDbEntity
  8
assembly hole
100
AcDbVertex
100
AcDb3dPolylineVertex
 10
674.2931518554687
 20
-9.543128013610839
 30
86.62384796142578
 70
    32
  0
VERTEX
  5
2D7
330
27F
100
AcDbEntity
  8
assembly hole
100
AcDbVertex
100
AcDb3dPolylineVertex
 10
672.9997558593749
 20
-9.543128013610839
 30
85.96087646484376
 70
    32
  0
VERTEX
  5
2D8
330
27F
100
AcDbEntity
  8
assembly hole
100
AcDbVertex
100
AcDb3dPolylineVertex
 10
671.6710205078125
 20
-9.543128013610839
 30
85.35964965820312
 70
    32
  0
VERTEX
  5
2D9
330
27F
100
AcDbEntity
  8
assembly hole
100
AcDbVertex
100
AcDb3dPolylineVertex
 10
670.3090209960937
 20
-9.543128013610839
 30
84.82206726074219
 70
    32
  0
VERTEX
  5
2DA
330
27F
100
AcDbEntity
  8
assembly hole
100
AcDbVertex
100
AcDb3dPolylineVertex
 10
668.9155273437499
 20
-9.543128013610839
 30
84.35002136230469
 70
    32
  0
VERTEX
  5
2DB
330
27F
100
AcDbEntity
  8
assembly hole
100
AcDbVertex
100
AcDb3dPolylineVertex
 10
667.4924926757812
 20
-9.543128013610839
 30
83.94540405273437
 70
    32
  0
VERTEX
  5
2DC
330
27F
100
AcDbEntity
  8
assembly hole
100
AcDbVertex
100
AcDb3dPolylineVertex
 10
666.0417480468749
 20
-9.543128013610839
 30
83.61010742187501
 70
    32
  0
VERTEX
  5
2DD
330
27F
100
AcDbEntity
  8
assembly hole
100
AcDbVertex
100
AcDb3dPolylineVertex
 10
664.5652465820312
 20
-9.543128013610839
 30
83.34602355957031
 70
    32
  0
VERTEX
  5
2DE
330
27F
100
AcDbEntity
  8
assembly hole
100
AcDbVertex
100
AcDb3dPolylineVertex
 10
663.0648803710937
 20
-9.543128013610839
 30
83.1550521850586
 70
    32
  0
VERTEX
  5
2DF
330
27F
100
AcDbEntity
  8
assembly hole
100
AcDbVertex
100
AcDb3dPolylineVertex
 10
661.5424804687499
 20
-9.543128013610839
 30
83.03907775878906
 70
    32
  0
VERTEX
  5
2E0
330
27F
100
AcDbEntity
  8
assembly hole
100
AcDbVertex
100
AcDb3dPolylineVertex
 10
660.0
 20
-9.543128013610839
 30
83.0
 70
    32
  0
VERTEX
  5
2E1
330
27F
100
AcDbEntity
  8
assembly hole
100
AcDbVertex
100
AcDb3dPolylineVertex
 10
658.45751953125
 20
-9.543128013610839
 30
83.03907775878906
 70
    32
  0
VERTEX
  5
2E2
330
27F
100
AcDbEntity
  8
assembly hole
100
AcDbVertex
100
AcDb3dPolylineVertex
 10
656.9351806640625
 20
-9.543128013610839
 30
83.1550521850586
 70
    32
  0
VERTEX
  5
2E3
330
27F
100
AcDbEntity
  8
assembly hole
100
AcDbVertex
100
AcDb3dPolylineVertex
 10
655.4347534179687
 20
-9.543128013610839
 30
83.34602355957031
 70
    32
  0
VERTEX
  5
2E4
330
27F
100
AcDbEntity
  8
assembly hole
100
AcDbVertex
100
AcDb3dPolylineVertex
 10
653.958251953125
 20
-9.543128013610839
 30
83.61010742187501
 70
    32
  0
VERTEX
  5
2E5
330
27F
100
AcDbEntity
  8
assembly hole
100
AcDbVertex
100
AcDb3dPolylineVertex
 10
652.5075073242187
 20
-9.543128013610839
 30
83.94540405273437
 70
    32
  0
VERTEX
  5
2E6
330
27F
100
AcDbEntity
  8
assembly hole
100
AcDbVertex
100
AcDb3dPolylineVertex
 10
651.08447265625
 20
-9.543128013610839
 30
84.35002136230469
 70
    32
  0
VERTEX
  5
2E7
330
27F
100
AcDbEntity
  8
assembly hole
100
AcDbVertex
100
AcDb3dPolylineVertex
 10
649.6909790039062
 20
-9.543128013610839
 30
84.82206726074219
 70
    32
  0
VERTEX
  5
2E8
330
27F
100
AcDbEntity
  8
assembly hole
100
AcDbVertex
100
AcDb3dPolylineVertex
 10
648.3289794921875
 20
-9.543128013610839
 30
85.35964965820312
 70
    32
  0
VERTEX
  5
2E9
330
27F
100
AcDbEntity
  8
assembly hole
100
AcDbVertex
100
AcDb3dPolylineVertex
 10
647.000244140625
 20
-9.543128013610839
 30
85.96087646484376
 70
    32
  0
VERTEX
  5
2EA
330
27F
100
AcDbEntity
  8
assembly hole
100
AcDbVertex
100
AcDb3dPolylineVertex
 10
645.7068481445312
 20
-9.543128013610839
 30
86.62384796142578
 70
    32
  0
VERTEX
  5
2EB
330
27F
100
AcDbEntity
  8
assembly hole
100
AcDbVertex
100
AcDb3dPolylineVertex
 10
644.4505615234374
 20
-9.543128013610839
 30
87.34667968750001
 70
    32
  0
VERTEX
  5
2EC
330
27F
100
AcDbEntity
  8
assembly hole
100
AcDbVertex
100
AcDb3dPolylineVertex
 10
643.2332763671874
 20
-9.543128013610839
 30
88.12747192382813
 70
    32
  0
VERTEX
  5
2ED
330
27F
100
AcDbEntity
  8
assembly hole
100
AcDbVertex
100
AcDb3dPolylineVertex
 10
642.0569458007812
 20
-9.543128013610839
 30
88.9643325805664
 70
    32
  0
VERTEX
  5
2EE
330
27F
100
AcDbEntity
  8
assembly hole
100
AcDbVertex
100
AcDb3dPolylineVertex
 10
640.9234619140625
 20
-9.543128013610839
 30
89.85537719726563
 70
    32
  0
VERTEX
  5
2EF
330
27F
100
AcDbEntity
  8
assembly hole
100
AcDbVertex
100
AcDb3dPolylineVertex
 10
639.8345947265625
 20
-9.543128013610839
 30
90.79869079589844
 70
    32
  0
VERTEX
  5
2F0
330
27F
100
AcDbEntity
  8
assembly hole
100
AcDbVertex
100
AcDb3dPolylineVertex
 10
638.7924194335937
 20
-9.543128013610839
 30
91.79240417480469
 70
    32
  0
VERTEX
  5
2F1
330
27F
100
AcDbEntity
  8
assembly hole
100
AcDbVertex
100
AcDb3dPolylineVertex
 10
637.7987060546875
 20
-9.543128013610839
 30
92.83460998535156
 70
    32
  0
VERTEX
  5
2F2
330
27F
100
AcDbEntity
  8
assembly hole
100
AcDbVertex
100
AcDb3dPolylineVertex
 10
636.8553466796875
 20
-9.543128013610839
 30
93.92342376708985
 70
    32
  0
VERTEX
  5
2F3
330
27F
100
AcDbEntity
  8
assembly hole
100
AcDbVertex
100
AcDb3dPolylineVertex
 10
635.96435546875
 20
-9.543128013610839
 30
95.05694580078126
 70
    32
  0
VERTEX
  5
2F4
330
27F
100
AcDbEntity
  8
assembly hole
100
AcDbVertex
100
AcDb3dPolylineVertex
 10
635.1274414062499
 20
-9.543128013610839
 30
96.23329162597656
 70
    32
  0
VERTEX
  5
2F5
330
27F
100
AcDbEntity
  8
assembly hole
100
AcDbVertex
100
AcDb3dPolylineVertex
 10
634.3466796875
 20
-9.543128013610839
 30
97.45054626464844
 70
    32
  0
VERTEX
  5
2F6
330
27F
100
AcDbEntity
  8
assembly hole
100
AcDbVertex
100
AcDb3dPolylineVertex
 10
633.6238403320312
 20
-9.543128013610839
 30
98.70684814453126
 70
    32
  0
VERTEX
  5
2F7
330
27F
100
AcDbEntity
  8
assembly hole
100
AcDbVertex
100
AcDb3dPolylineVertex
 10
632.9608764648437
 20
-9.543128013610839
 30
100.0002746582031
 70
    32
  0
VERTEX
  5
2F8
330
27F
100
AcDbEntity
  8
assembly hole
100
AcDbVertex
100
AcDb3dPolylineVertex
 10
632.359619140625
 20
-9.543128013610839
 30
101.3289566040039
 70
    32
  0
VERTEX
  5
2F9
330
27F
100
AcDbEntity
  8
assembly hole
100
AcDbVertex
100
AcDb3dPolylineVertex
 10
631.8220825195312
 20
-9.543128013610839
 30
102.6909866333008
 70
    32
  0
VERTEX
  5
2FA
330
27F
100
AcDbEntity
  8
assembly hole
100
AcDbVertex
100
AcDb3dPolylineVertex
 10
631.3500366210937
 20
-9.543128013610839
 30
104.08447265625
 70
    32
  0
VERTEX
  5
2FB
330
27F
100
AcDbEntity
  8
assembly hole
100
AcDbVertex
100
AcDb3dPolylineVertex
 10
630.9454345703125
 20
-9.543128013610839
 30
105.5075225830078
 70
    32
  0
VERTEX
  5
2FC
330
27F
100
AcDbEntity
  8
assembly hole
100
AcDbVertex
100
AcDb3dPolylineVertex
 10
630.610107421875
 20
-9.543128013610839
 30
106.9582443237304
 70
    32
  0
VERTEX
  5
2FD
330
27F
100
AcDbEntity
  8
assembly hole
100
AcDbVertex
100
AcDb3dPolylineVertex
 10
630.3460083007812
 20
-9.543128013610839
 30
108.4347534179687
 70
    32
  0
VERTEX
  5
2FE
330
27F
100
AcDbEntity
  8
assembly hole
100
AcDbVertex
100
AcDb3dPolylineVertex
 10
630.155029296875
 20
-9.543128013610839
 30
109.9351348876953
 70
    32
  0
VERTEX
  5
2FF
330
27F
100
AcDbEntity
  8
assembly hole
100
AcDbVertex
100
AcDb3dPolylineVertex
 10
630.0390625
 20
-9.543128013610839
 30
111.45751953125
 70
    32
  0
SEQEND
  5
303
330
27F
100
AcDbEntity
  8
assembly hole
  0
MESH
  5
304
330
1F
100
AcDbEntity
  8
WandProfileHorizontal_00
 62
     7
420
 16777215
160
             17720
310
38450000EC0100000C00000013000000020000003C0000000600000002000000000000000000000000000000000038C00000000000806A400000000000708C4000000000000038C00000000000806A400C000000130000000A0000003C00000006000000020000000000000000708C4000000000000038C00000000000806A
310
400000000000708C400000000000003EC00000000000806A400C00000013000000120000003C0000000600000002000000000000000000000000000000000038C00000000000806A400000000000708C400000000000003EC00000000000806A400C000000130000001A0000003C0000000600000002000000000000000070
310
8C400000000000003EC00000000000806A4000000000000000000000000000003EC00000000000806A400C00000013000000220000003C0000000600000002000000000000000000000000000000000038C00000000000806A4000000000000000000000000000003EC00000000000806A400C000000130000002A0000003C
310
00000006000000020000000000000000708C400000000000003EC00000000000806A400000002000708C400000002000003EC00000002000C06C400C00000013000000320000003C000000060000000200000000000000000000000000000000003EC00000000000806A400000002000708C400000002000003EC000000020
310
00C06C400C000000130000003A0000003C00000006000000020000000000002000708C400000002000003EC00000002000C06C4000000000000000000000000000003EC00000000000C06C400C00000013000000420000003C000000060000000200000000000000000000000000000000003EC00000000000806A40000000
310
00000000000000000000003EC00000000000C06C400C000000130000004A0000003C00000006000000020000000000002000708C400000002000003EC00000002000C06C400000000000708C4000000040333301C00000000000C06C400C00000013000000520000003C000000060000000200000000000000000000000000
310
000000003EC00000000000C06C400000000000708C4000000040333301C00000000000C06C400C000000130000005A0000003C00000006000000020000000000000000708C4000000040333301C00000000000C06C40000000000000000000000040333301C00000002000C06C400C00000013000000620000003C00000006
310
0000000200000000000000000000000000000000003EC00000000000C06C40000000000000000000000040333301C00000002000C06C400C000000130000006A0000003C00000006000000020000000000000000708C4000000040333301C00000000000C06C400000000000708C4000000040333301C0000000E0CC7C6C40
310
0C00000013000000720000003C0000000600000002000000000000000000000000000040333301C00000002000C06C400000000000708C4000000040333301C0000000E0CC7C6C400C000000130000007A0000003C00000006000000020000000000000000708C4000000040333301C0000000E0CC7C6C4000000000000000
310
0000000040333301C0000000E0CC7C6C400C00000013000000820000003C0000000600000002000000000000000000000000000040333301C00000002000C06C40000000000000000000000040333301C0000000E0CC7C6C400C000000130000008A0000003C00000006000000020000000000000000708C40000000403333
310
01C0000000E0CC7C6C400000000000708C40000000E0CCCC14C0000000E0CC7C6C400C00000013000000920000003C0000000600000002000000000000000000000000000040333301C0000000E0CC7C6C400000000000708C40000000E0CCCC14C0000000E0CC7C6C400C000000130000009A0000003C0000000600000002
310
0000000000000000708C40000000E0CCCC14C0000000E0CC7C6C400000000000000000000000E0CCCC14C0000000E0CC7C6C400C00000013000000A20000003C0000000600000002000000000000000000000000000040333301C0000000E0CC7C6C400000000000000000000000E0CCCC14C0000000E0CC7C6C400C000000
310
13000000AA0000003C00000006000000020000000000000000708C40000000E0CCCC14C0000000E0CC7C6C400000000000708C40000000E04B060EC00000000000D06B400C00000013000000B20000003C00000006000000020000000000000000000000000000E0CCCC14C0000000E0CC7C6C400000000000708C40000000
310
E04B060EC00000000000D06B400C00000013000000BA0000003C00000006000000020000000000000000708C40000000E04B060EC00000000000D06B400000000000000000000000C04B060EC00000000000D06B400C00000013000000C20000003C00000006000000020000000000000000000000000000E0CCCC14C00000
310
00E0CC7C6C400000000000000000000000C04B060EC00000000000D06B400C00000013000000CA0000003C00000006000000020000000000000000708C40000000E04B060EC00000000000D06B400000002000708C40000000004C060E400000002000D06B400C00000013000000D20000003C000000060000000200000000
310
00000000000000000000C04B060EC00000000000D06B400000002000708C40000000004C060E400000002000D06B400C00000013000000DA0000003C00000006000000020000000000002000708C40000000004C060E400000002000D06B400000000000000000000000C04B060E400000000000D06B400C00000013000000
310
E20000003C00000006000000020000000000000000000000000000C04B060EC00000000000D06B400000000000000000000000C04B060E400000000000D06B400C00000013000000EA0000003C00000006000000020000000000002000708C40000000004C060E400000002000D06B400000000000708C40000000E0CCCC14
310
40000000E0CC7C6C400C00000013000000F20000003C00000006000000020000000000000000000000000000C04B060E400000000000D06B400000000000708C40000000E0CCCC1440000000E0CC7C6C400C00000013000000FA0000003C00000006000000020000000000000000708C40000000E0CCCC1440000000E0CC7C
310
6C400000000000000000000000E0CCCC1440000000E0CC7C6C400C00000013000000020100003C00000006000000020000000000000000000000000000C04B060E400000000000D06B400000000000000000000000E0CCCC1440000000E0CC7C6C400C000000130000000A0100003C00000006000000020000000000000000
310
708C40000000E0CCCC1440000000E0CC7C6C400000000000708C400000004033330140000000E0CC7C6C400C00000013000000120100003C00000006000000020000000000000000000000000000E0CCCC1440000000E0CC7C6C400000000000708C400000004033330140000000E0CC7C6C400C000000130000001A010000
310
3C00000006000000020000000000000000708C400000004033330140000000E0CC7C6C4000000000000000000000004033330140000000E0CC7C6C400C00000013000000220100003C00000006000000020000000000000000000000000000E0CCCC1440000000E0CC7C6C4000000000000000000000004033330140000000
310
E0CC7C6C400C000000130000002A0100003C00000006000000020000000000000000708C400000004033330140000000E0CC7C6C400000002000708C4000000040333301400000002000C06C400C00000013000000320100003C000000060000000200000000000000000000000000004033330140000000E0CC7C6C400000
310
002000708C4000000040333301400000002000C06C400C000000130000003A0100003C00000006000000020000000000002000708C4000000040333301400000002000C06C40000000000000000000000040333301400000000000C06C400C00000013000000420100003C0000000600000002000000000000000000000000
310
00004033330140000000E0CC7C6C40000000000000000000000040333301400000000000C06C400C000000130000004A0100003C00000006000000020000000000002000708C4000000040333301400000002000C06C400000000000708C400000000000003E400000000000C06C400C00000013000000520100003C000000
310
0600000002000000000000000000000000000040333301400000000000C06C400000000000708C400000000000003E400000000000C06C400C000000130000005A0100003C00000006000000020000000000000000708C400000000000003E400000000000C06C4000000000000000000000000000003E400000000000C06C
310
400C00000013000000620100003C0000000600000002000000000000000000000000000040333301400000000000C06C4000000000000000000000000000003E400000000000C06C400C000000130000006A0100003C00000006000000020000000000000000708C400000000000003E400000000000C06C40000000000070
310
8C400000000000003E400000000000806A400C00000013000000720100003C000000060000000200000000000000000000000000000000003E400000000000C06C400000000000708C400000000000003E400000000000806A400C000000130000007A0100003C00000006000000020000000000000000708C400000000000
310
003E400000000000806A4000000000000000000000000000003E400000000000806A400C00000013000000820100003C000000060000000200000000000000000000000000000000003E400000000000C06C4000000000000000000000000000003E400000000000806A400C000000130000008A0100003C00000006000000
310
020000000000000000708C400000000000003E400000000000806A400000000000708C4000000000000038400000000000806A400C00000013000000920100003C000000060000000200000000000000000000000000000000003E400000000000806A400000000000708C4000000000000038400000000000806A400C0000
310
00130000009A0100003C00000006000000020000000000000000708C4000000000000038400000000000806A40000000000000000000000000000038400000000000806A400C00000013000000A20100003C000000060000000200000000000000000000000000000000003E400000000000806A4000000000000000000000
310
0000000038400000000000806A400C00000013000000AA0100003C00000006000000020000000000000000708C4000000000000038400000000000806A400000000000708C4000000000000038400000000000E06B400C00000013000000B20100003C00000006000000020000000000000000000000000000000000384000
310
00000000806A400000000000708C4000000000000038400000000000E06B400C00000013000000BA0100003C00000006000000020000000000000000708C4000000000000038400000000000E06B40000000000000000000000000000038400000000000E06B400C00000013000000C20100003C0000000600000002000000
310
000000000000000000000000000038400000000000806A40000000000000000000000000000038400000000000E06B400C00000013000000CA0100003C00000006000000020000000000000000708C4000000000000038400000000000E06B400000002000708C40000000A0893224400000002000E06B400C000000130000
310
00D20100003C0000000600000002000000000000000000000000000000000038400000000000E06B400000002000708C40000000A0893224400000002000E06B400C00000013000000DA0100003C00000006000000020000000000002000708C40000000A0893224400000002000E06B400000000000000000000000A08932
310
24400000000000E06B400C00000013000000E20100003C0000000600000002000000000000000000000000000000000038400000000000E06B400000000000000000000000A0893224400000000000E06B400C00000013000000EA0100003C00000006000000020000000000002000708C40000000A0893224400000002000
310
E06B400000000000708C400000000000002140000000E012216B400C00000013000000F20100003C00000006000000020000000000000000000000000000A0893224400000000000E06B400000000000708C400000000000002140000000E012216B400C00000013000000FA0100003C000000060000000200000000000000
310
00708C400000000000002140000000E012216B4000000000000000000000000000002140000000E012216B400C00000013000000020200003C00000006000000020000000000000000000000000000A0893224400000000000E06B4000000000000000000000000000002140000000E012216B400C000000130000000A0200
310
003C00000006000000020000000000000000708C400000000000002140000000E012216B400000000000708C40000000000000214000000000000022400C00000013000000120200003C000000060000000200000000000000000000000000000000002140000000E012216B400000000000708C4000000000000021400000
310
0000000022400C000000130000001A0200003C00000006000000020000000000000000708C40000000000000214000000000000022400000000000000000000000000000214000000000000022400C00000013000000220200003C000000060000000200000000000000000000000000000000002140000000E012216B4000
310
00000000000000000000000000214000000000000022400C000000130000002A0200003C00000006000000020000000000000000708C40000000000000214000000000000022400000000000708C40000000000000304000000000000022400C00000013000000320200003C00000006000000020000000000000000000000
310
000000000000214000000000000022400000000000708C40000000000000304000000000000022400C000000130000003A0200003C00000006000000020000000000000000708C40000000000000304000000000000022400000000000000000000000000000304000000000000022400C00000013000000420200003C0000
310
0006000000020000000000000000000000000000000000214000000000000022400000000000000000000000000000304000000000000022400C000000130000004A0200003C00000006000000020000000000000000708C40000000000000304000000000000022400000000000708C400000000000003040000000000000
310
1C400C00000013000000520200003C00000006000000020000000000000000000000000000000000304000000000000022400000000000708C4000000000000030400000000000001C400C000000130000005A0200003C00000006000000020000000000000000708C4000000000000030400000000000001C400000000000
310
00000000000000000030400000000000001C400C00000013000000620200003C0000000600000002000000000000000000000000000000000030400000000000002240000000000000000000000000000030400000000000001C400C000000130000006A0200003C00000006000000020000000000000000708C4000000000
310
000030400000000000001C400000002000708C4000000000000041400000000000001C400C00000013000000720200003C0000000600000002000000000000000000000000000000000030400000000000001C400000002000708C4000000000000041400000000000001C400C000000130000007A0200003C000000060000
310
00020000000000002000708C4000000000000041400000000000001C40000000000000000000000000000041400000000000001C400C00000013000000820200003C0000000600000002000000000000000000000000000000000030400000000000001C40000000000000000000000000000041400000000000001C400C00
310
0000130000008A0200003C00000006000000020000000000002000708C4000000000000041400000000000001C400000000000708C4000000000000041400000000000002C400C00000013000000920200003C0000000600000002000000000000000000000000000000000041400000000000001C400000000000708C4000
310
000000000041400000000000002C400C000000130000009A0200003C00000006000000020000000000000000708C4000000000000041400000000000002C40000000000000000000000000000041400000000000002C400C00000013000000A20200003C000000060000000200000000000000000000000000000000004140
310
0000000000001C40000000000000000000000000000041400000000000002C400C00000013000000AA0200003C00000006000000020000000000000000708C4000000000000041400000000000002C400000000000708C4000000000000044400000000000002C400C00000013000000B20200003C00000006000000020000
310
00000000000000000000000000000041400000000000002C400000000000708C4000000000000044400000000000002C400C00000013000000BA0200003C00000006000000020000000000000000708C4000000000000044400000000000002C40000000000000000000000000000044400000000000002C400C0000001300
310
0000C20200003C0000000600000002000000000000000000000000000000000041400000000000002C40000000000000000000000000000044400000000000002C400C00000013000000CA0200003C00000006000000020000000000000000708C4000000000000044400000000000002C400000000000708C400000000000
310
00444000000000000000000C00000013000000D20200003C0000000600000002000000000000000000000000000000000044400000000000002C400000000000708C40000000000000444000000000000000000C00000013000000DA0200003C00000006000000020000000000000000708C40000000000000444000000000
310
000000000000000000000000000000000000444000000000000000000C00000013000000E20200003C0000000600000002000000000000000000000000000000000044400000000000002C400000000000000000000000000000444000000000000000000C00000013000000EA0200003C0000000600000002000000000000
310
0000708C40000000000000444000000000000000000000000000708C40000000403333014000000000000000000C00000013000000F20200003C00000006000000020000000000000000000000000000000000444000000000000000000000000000708C40000000403333014000000000000000000C00000013000000FA02
310
00003C00000006000000020000000000000000708C40000000403333014000000000000000000000000000000000000000203333014000000000000000000C00000013000000020300003C00000006000000020000000000000000000000000000000000444000000000000000000000000000000000000000203333014000
310
000000000000000C000000130000000A0300003C00000006000000020000000000000000708C40000000403333014000000000000000000000000000708C40000000403333014000000000CCCC00400C00000013000000120300003C0000000600000002000000000000000000000000000020333301400000000000000000
310
0000000000708C40000000403333014000000000CCCC00400C000000130000001A0300003C00000006000000020000000000000000708C40000000403333014000000000CCCC00400000000000000000000000403333014000000000CCCC00400C00000013000000220300003C000000060000000200000000000000000000
310
00000000203333014000000000000000000000000000000000000000403333014000000000CCCC00400C000000130000002A0300003C00000006000000020000000000000000708C40000000403333014000000000CCCC00400000002000708C40000000E0CCCC144000000000CCCC00400C00000013000000320300003C00
310
000006000000020000000000000000000000000000403333014000000000CCCC00400000002000708C40000000E0CCCC144000000000CCCC00400C000000130000003A0300003C00000006000000020000000000002000708C40000000E0CCCC144000000000CCCC00400000000000000000000000E0CCCC144000000000CC
310
CC00400C00000013000000420300003C00000006000000020000000000000000000000000000403333014000000000CCCC00400000000000000000000000E0CCCC144000000000CCCC00400C000000130000004A0300003C00000006000000020000000000002000708C40000000E0CCCC144000000000CCCC004000000000
310
00708C4000000040AD030E400000000000001E400C00000013000000520300003C00000006000000020000000000000000000000000000E0CCCC144000000000CCCC00400000000000708C4000000040AD030E400000000000001E400C000000130000005A0300003C00000006000000020000000000000000708C40000000
310
40AD030E400000000000001E40000000000000000000000040AD030E400000000000001E400C00000013000000620300003C00000006000000020000000000000000000000000000E0CCCC144000000000CCCC0040000000000000000000000040AD030E400000000000001E400C000000130000006A0300003C0000000600
310
0000020000000000000000708C4000000040AD030E400000000000001E400000000000708C40000000E04B060EC00000000000001E400C00000013000000720300003C0000000600000002000000000000000000000000000040AD030E400000000000001E400000000000708C40000000E04B060EC00000000000001E400C
310
000000130000007A0300003C00000006000000020000000000000000708C40000000E04B060EC00000000000001E400000000000000000000000C04B060EC00000000000001E400C00000013000000820300003C0000000600000002000000000000000000000000000040AD030E400000000000001E400000000000000000
310
000000C04B060EC00000000000001E400C000000130000008A0300003C00000006000000020000000000000000708C40000000E04B060EC00000000000001E400000002000708C40000000E0CCCC14C000000000CCCC00400C00000013000000920300003C00000006000000020000000000000000000000000000C04B060E
310
C00000000000001E400000002000708C40000000E0CCCC14C000000000CCCC00400C000000130000009A0300003C00000006000000020000000000002000708C40000000E0CCCC14C000000000CCCC00400000000000000000000000E0CCCC14C000000000CCCC00400C00000013000000A20300003C000000060000000200
310
00000000000000000000000000C04B060EC00000000000001E400000000000000000000000E0CCCC14C000000000CCCC00400C00000013000000AA0300003C00000006000000020000000000002000708C40000000E0CCCC14C000000000CCCC00400000000000708C4000000040333301C000000000CCCC00400C00000013
310
000000B20300003C00000006000000020000000000000000000000000000E0CCCC14C000000000CCCC00400000000000708C4000000040333301C000000000CCCC00400C00000013000000BA0300003C00000006000000020000000000000000708C4000000040333301C000000000CCCC0040000000000000000000000040
310
333301C000000000CCCC00400C00000013000000C20300003C00000006000000020000000000000000000000000000E0CCCC14C000000000CCCC0040000000000000000000000040333301C000000000CCCC00400C00000013000000CA0300003C00000006000000020000000000000000708C4000000040333301C0000000
310
00CCCC00400000000000708C4000000020333301C000000000000000000C00000013000000D20300003C0000000600000002000000000000000000000000000040333301C000000000CCCC00400000000000708C4000000020333301C000000000000000000C00000013000000DA0300003C00000006000000020000000000
310
000000708C4000000020333301C00000000000000000000000000000000000000040333301C000000000000000000C00000013000000E20300003C0000000600000002000000000000000000000000000040333301C000000000CCCC0040000000000000000000000040333301C000000000000000000C00000013000000EA
310
0300003C00000006000000020000000000000000708C4000000020333301C000000000000000000000000000708C4000000000000044C000000000000000000C00000013000000F20300003C0000000600000002000000000000000000000000000040333301C000000000000000000000000000708C4000000000000044C0
310
00000000000000000C00000013000000FA0300003C00000006000000020000000000000000708C4000000000000044C00000000000000000000000000000000000000000000044C000000000000000000C00000013000000020400003C0000000600000002000000000000000000000000000040333301C000000000000000
310
00000000000000000000000000000044C000000000000000000C000000130000000A0400003C00000006000000020000000000000000708C4000000000000044C000000000000000000000000000708C4000000000000044C00000000000002C400C00000013000000120400003C0000000600000002000000000000000000
310
000000000000000044C000000000000000000000000000708C4000000000000044C00000000000002C400C000000130000001A0400003C00000006000000020000000000000000708C4000000000000044C00000000000002C40000000000000000000000000000044C00000000000002C400C00000013000000220400003C
310
0000000600000002000000000000000000000000000000000044C00000000000000000000000000000000000000000000044C00000000000002C400C000000130000002A0400003C00000006000000020000000000000000708C4000000000000044C00000000000002C400000000000708C4000000000000041C000000000
310
00002C400C00000013000000320400003C0000000600000002000000000000000000000000000000000044C00000000000002C400000000000708C4000000000000041C00000000000002C400C000000130000003A0400003C00000006000000020000000000000000708C4000000000000041C00000000000002C40000000
310
000000000000000000000041C00000000000002C400C00000013000000420400003C0000000600000002000000000000000000000000000000000044C00000000000002C40000000000000000000000000000041C00000000000002C400C000000130000004A0400003C00000006000000020000000000000000708C400000
310
0000000041C00000000000002C400000000000708C4000000000000041C00000000000001C400C00000013000000520400003C0000000600000002000000000000000000000000000000000041C00000000000002C400000000000708C4000000000000041C00000000000001C400C000000130000005A0400003C00000006
310
000000020000000000000000708C4000000000000041C00000000000001C40000000000000000000000000000041C00000000000001C400C00000013000000620400003C0000000600000002000000000000000000000000000000000041C00000000000002C40000000000000000000000000000041C00000000000001C40
310
0C000000130000006A0400003C00000006000000020000000000000000708C4000000000000041C00000000000001C400000000000708C4000000000000030C00000000000001C400C00000013000000720400003C0000000600000002000000000000000000000000000000000041C00000000000001C400000000000708C
310
4000000000000030C00000000000001C400C000000130000007A0400003C00000006000000020000000000000000708C4000000000000030C00000000000001C40000000000000000000000000000030C00000000000001C400C00000013000000820400003C00000006000000020000000000000000000000000000000000
310
41C00000000000001C40000000000000000000000000000030C00000000000001C400C000000130000008A0400003C00000006000000020000000000000000708C4000000000000030C00000000000001C400000000000708C4000000000000030C000000000000022400C00000013000000920400003C0000000600000002
310
000000000000000000000000000000000030C00000000000001C400000000000708C4000000000000030C000000000000022400C000000130000009A0400003C00000006000000020000000000000000708C4000000000000030C00000000000002240000000000000000000000000000030C000000000000022400C000000
310
13000000A20400003C0000000600000002000000000000000000000000000000000030C00000000000001C40000000000000000000000000000030C000000000000022400C00000013000000AA0400003C00000006000000020000000000000000708C4000000000000030C000000000000022400000000000708C40000000
310
00000021C000000000000022400C00000013000000B20400003C0000000600000002000000000000000000000000000000000030C000000000000022400000000000708C4000000000000021C000000000000022400C00000013000000BA0400003C00000006000000020000000000000000708C4000000000000021C00000
310
000000002240000000000000000000000000000021C000000000000022400C00000013000000C20400003C0000000600000002000000000000000000000000000000000030C00000000000002240000000000000000000000000000021C000000000000022400C00000013000000CA0400003C000000060000000200000000
310
00000000708C4000000000000021C000000000000022400000002000708C4000000000000021C0000000E012216B400C00000013000000D20400003C0000000600000002000000000000000000000000000000000021C000000000000022400000002000708C4000000000000021C0000000E012216B400C00000013000000
310
DA0400003C00000006000000020000000000002000708C4000000000000021C0000000E012216B40000000000000000000000000000021C0000000E012216B400C00000013000000E20400003C0000000600000002000000000000000000000000000000000021C00000000000002240000000000000000000000000000021
310
C0000000E012216B400C00000013000000EA0400003C00000006000000020000000000002000708C4000000000000021C0000000E012216B400000002000708C40000000A0893224C00000002000E06B400C00000013000000F20400003C0000000600000002000000000000000000000000000000000021C0000000E01221
310
6B400000002000708C40000000A0893224C00000002000E06B400C00000013000000FA0400003C00000006000000020000000000002000708C40000000A0893224C00000002000E06B400000000000000000000000A0893224C00000002000E06B400C00000013000000020500003C00000006000000020000000000000000
310
00000000000000000021C0000000E012216B400000000000000000000000A0893224C00000002000E06B400C000000130000000A0500003C00000006000000020000000000002000708C40000000A0893224C00000002000E06B400000000000708C4000000000000038C00000000000E06B400C0000001300000012050000
310
3C00000006000000020000000000000000000000000000A0893224C00000002000E06B400000000000708C4000000000000038C00000000000E06B400C000000130000001A0500003C00000006000000020000000000000000708C4000000000000038C00000000000E06B40000000000000000000000000000038C0000000
310
0000E06B400C00000013000000220500003C00000006000000020000000000000000000000000000A0893224C00000002000E06B40000000000000000000000000000038C00000000000E06B400C000000130000002A0500003C00000006000000020000000000000000708C4000000000000038C00000000000806A400000
310
000000708C4000000000000038C00000000000E06B400C00000013000000320500003C00000006000000020000000000000000708C4000000000000038C00000000000806A40000000000000000000000000000038C00000000000E06B400C000000130000003A0500003C0000000600000002000000000000000000000000
310
000000000038C00000000000806A40000000000000000000000000000038C00000000000E06B400C00000013000000420500003C00000006000000020000000000000000708C400000000000003EC00000000000806A400000000000708C4000000000000038C00000000000E06B400C000000130000004A0500003C000000
310
06000000020000000000002000708C400000002000003EC00000002000C06C400000000000708C4000000000000038C00000000000E06B400C00000013000000520500003C00000006000000020000000000000000708C40000000E0CCCC14C0000000E0CC7C6C400000000000708C4000000000000038C00000000000E06B
310
400C000000130000005A0500003C00000006000000020000000000002000708C400000002000003EC00000002000C06C400000000000708C40000000E0CCCC14C0000000E0CC7C6C400C00000013000000620500003C00000006000000020000000000000000708C4000000040333301C00000000000C06C40000000000070
310
8C40000000E0CCCC14C0000000E0CC7C6C400C000000130000006A0500003C00000006000000020000000000000000708C40000000E0CCCC14C0000000E0CC7C6C400000002000708C40000000A0893224C00000002000E06B400C00000013000000720500003C00000006000000020000000000000000708C40000000E0CC
310
CC1440000000E0CC7C6C400000002000708C40000000A0893224400000002000E06B400C000000130000007A0500003C00000006000000020000000000002000708C40000000004C060E400000002000D06B400000002000708C40000000A0893224400000002000E06B400C00000013000000820500003C00000006000000
310
020000000000002000708C40000000004C060E400000002000D06B400000000000708C400000000000002140000000E012216B400C000000130000008A0500003C00000006000000020000000000000000708C40000000E04B060EC00000000000D06B400000000000708C400000000000002140000000E012216B400C0000
310
0013000000920500003C00000006000000020000000000000000708C400000000000002140000000E012216B400000002000708C4000000000000021C0000000E012216B400C000000130000009A0500003C00000006000000020000000000000000708C40000000E04B060EC00000000000D06B400000002000708C400000
310
0000000021C0000000E012216B400C00000013000000A20500003C00000006000000020000000000000000708C40000000E04B060EC00000000000D06B400000002000708C40000000A0893224C00000002000E06B400C00000013000000AA0500003C00000006000000020000000000000000708C40000000E0CCCC144000
310
0000E0CC7C6C400000002000708C4000000040333301400000002000C06C400C00000013000000B20500003C00000006000000020000000000000000708C40000000E0CCCC1440000000E0CC7C6C400000000000708C4000000000000038400000000000E06B400C00000013000000BA0500003C0000000600000002000000
310
0000002000708C4000000040333301400000002000C06C400000000000708C4000000000000038400000000000E06B400C00000013000000C20500003C00000006000000020000000000000000708C400000000000003E400000000000C06C400000000000708C4000000000000038400000000000E06B400C000000130000
310
00CA0500003C00000006000000020000000000000000708C400000000000003E400000000000806A400000000000708C4000000000000038400000000000E06B400C00000013000000D20500003C00000006000000020000000000000000708C40000000000000214000000000000022400000000000708C40000000000000
310
21C000000000000022400C00000013000000DA0500003C00000006000000020000000000000000708C400000000000002140000000E012216B400000000000708C4000000000000021C000000000000022400C00000013000000E20500003C00000006000000020000000000000000708C40000000E04B060EC00000000000
310
001E400000000000708C4000000000000030C00000000000001C400C00000013000000EA0500003C00000006000000020000000000000000708C40000000E04B060EC00000000000001E400000000000708C4000000000000030C000000000000022400C00000013000000F20500003C000000060000000200000000000000
310
00708C40000000000000214000000000000022400000000000708C4000000040AD030E400000000000001E400C00000013000000FA0500003C00000006000000020000000000000000708C4000000040AD030E400000000000001E400000000000708C4000000000000021C000000000000022400C00000013000000020600
310
003C00000006000000020000000000000000708C40000000E04B060EC00000000000001E400000000000708C4000000000000021C000000000000022400C000000130000000A0600003C00000006000000020000000000002000708C4000000000000041400000000000001C400000000000708C4000000000000044400000
310
000000002C400C00000013000000120600003C00000006000000020000000000002000708C4000000000000041400000000000001C400000000000708C40000000000000444000000000000000000C000000130000001A0600003C00000006000000020000000000000000708C4000000000000030400000000000001C4000
310
00000000708C40000000000000444000000000000000000C00000013000000220600003C00000006000000020000000000000000708C40000000000000444000000000000000000000002000708C40000000E0CCCC144000000000CCCC00400C000000130000002A0600003C00000006000000020000000000000000708C40
310
00000000000030400000000000001C400000002000708C40000000E0CCCC144000000000CCCC00400C00000013000000320600003C00000006000000020000000000000000708C40000000000000214000000000000022400000000000708C4000000000000030400000000000001C400C000000130000003A0600003C0000
310
0006000000020000000000000000708C4000000000000030400000000000001C400000000000708C4000000040AD030E400000000000001E400C00000013000000420600003C00000006000000020000000000000000708C40000000000000444000000000000000000000000000708C40000000403333014000000000CCCC
310
00400C000000130000004A0600003C00000006000000020000000000002000708C40000000E0CCCC14C000000000CCCC00400000000000708C4000000020333301C000000000000000000C00000013000000520600003C00000006000000020000000000000000708C4000000020333301C000000000000000000000000000
310
708C4000000000000030C00000000000001C400C000000130000005A0600003C00000006000000020000000000002000708C40000000E0CCCC14C000000000CCCC00400000000000708C4000000000000030C00000000000001C400C00000013000000620600003C00000006000000020000000000000000708C4000000020
310
333301C000000000000000000000000000708C4000000000000041C00000000000001C400C000000130000006A0600003C00000006000000020000000000000000708C4000000000000044C000000000000000000000000000708C4000000000000041C00000000000001C400C00000013000000720600003C000000060000
310
00020000000000000000708C4000000000000044C00000000000002C400000000000708C4000000000000041C00000000000001C400C000000130000007A0600003C0000000600000002000000000000000000000000000000000044C00000000000000000000000000000000000000000000041C00000000000001C400C00
310
000013000000820600003C0000000600000002000000000000000000000000000000000044C00000000000002C40000000000000000000000000000041C00000000000001C400C000000130000008A0600003C0000000600000002000000000000000000000000000000000044C00000000000000000000000000000000000
310
000000000030C00000000000001C400C00000013000000920600003C00000006000000020000000000000000000000000000C04B060EC00000000000001E40000000000000000000000000000030C00000000000001C400C000000130000009A0600003C00000006000000020000000000000000000000000000E0CCCC14C0
310
00000000CCCC0040000000000000000000000000000030C00000000000001C400C00000013000000A20600003C00000006000000020000000000000000000000000000E0CCCC14C000000000CCCC0040000000000000000000000000000044C000000000000000000C00000013000000AA0600003C00000006000000020000
310
00000000000000000000000000000030C00000000000001C40000000000000000000000000000021C000000000000022400C00000013000000B20600003C00000006000000020000000000000000000000000000C04B060EC00000000000001E40000000000000000000000000000021C000000000000022400C0000001300
310
0000BA0600003C00000006000000020000000000000000000000000000C04B060EC00000000000D06B40000000000000000000000000000021C0000000E012216B400C00000013000000C20600003C00000006000000020000000000000000000000000000C04B060EC00000000000D06B4000000000000000000000000000
310
0021C000000000000022400C00000013000000CA0600003C00000006000000020000000000000000000000000000C04B060EC00000000000D06B400000000000000000000000C04B060EC00000000000001E400C00000013000000D20600003C00000006000000020000000000000000000000000000E0CCCC14C0000000E0
310
CC7C6C400000000000000000000000A0893224C00000002000E06B400C00000013000000DA0600003C00000006000000020000000000000000000000000000C04B060EC00000000000D06B400000000000000000000000A0893224C00000002000E06B400C00000013000000E20600003C0000000600000002000000000000
310
000000000000000040333301C00000002000C06C400000000000000000000000E0CCCC14C0000000E0CC7C6C400C00000013000000EA0600003C00000006000000020000000000000000000000000000E0CCCC14C0000000E0CC7C6C40000000000000000000000000000038C00000000000E06B400C00000013000000F206
310
00003C0000000600000002000000000000000000000000000040333301C00000002000C06C40000000000000000000000000000038C00000000000E06B400C00000013000000FA0600003C000000060000000200000000000000000000000000000000003EC00000000000C06C40000000000000000000000000000038C000
310
00000000E06B400C00000013000000020700003C000000060000000200000000000000000000000000000000003EC00000000000806A40000000000000000000000000000038C00000000000E06B400C000000130000000A0700003C0000000600000002000000000000000000000000000040333301C000000000CCCC0040
310
000000000000000000000000000044C000000000000000000C00000013000000120700003C00000006000000020000000000000000000000000000C04B060E400000000000D06B40000000000000000000000040AD030E400000000000001E400C000000130000001A0700003C000000060000000200000000000000000000
310
00000000C04B060E400000000000D06B400000000000000000000000C04B060EC00000000000001E400C00000013000000220700003C000000060000000200000000000000000000000000000000003E400000000000806A40000000000000000000000000000038400000000000E06B400C000000130000002A0700003C00
310
0000060000000200000000000000000000000000000000003E400000000000C06C40000000000000000000000000000038400000000000E06B400C00000013000000320700003C00000006000000020000000000000000000000000000E0CCCC1440000000E0CC7C6C400000000000000000000000A0893224400000000000
310
E06B400C000000130000003A0700003C00000006000000020000000000000000000000000000E0CCCC1440000000E0CC7C6C40000000000000000000000000000038400000000000E06B400C00000013000000420700003C00000006000000020000000000000000000000000000E0CCCC1440000000E0CC7C6C4000000000
310
000000000000000000003E400000000000C06C400C000000130000004A0700003C00000006000000020000000000000000000000000000C04B060E400000000000D06B4000000000000000000000000000002140000000E012216B400C00000013000000520700003C00000006000000020000000000000000000000000000
310
E0CCCC1440000000E0CC7C6C4000000000000000000000000000002140000000E012216B400C000000130000005A0700003C0000000600000002000000000000000000000000000000000021400000000000002240000000000000000000000040AD030E400000000000001E400C00000013000000620700003C0000000600
310
0000020000000000000000000000000000C04B060E400000000000D06B400000000000000000000000000000214000000000000022400C000000130000006A0700003C0000000600000002000000000000000000000000000000000030400000000000001C40000000000000000000000040AD030E400000000000001E400C
310
00000013000000720700003C0000000600000002000000000000000000000000000000000021400000000000002240000000000000000000000000000030400000000000001C400C000000130000007A0700003C00000006000000020000000000000000000000000000203333014000000000000000000000000000000000
310
000000E0CCCC144000000000CCCC00400C00000013000000820700003C0000000600000002000000000000000000000000000000000030400000000000001C400000000000000000000000203333014000000000000000000C000000130000008A0700003C0000000600000002000000000000000000000000000000000030
310
400000000000001C400000000000000000000000E0CCCC144000000000CCCC00400C00000013000000920700003C0000000600000002000000000000000000000000000000000041400000000000001C400000000000000000000000203333014000000000000000000C000000130000009A0700003C000000060000000200
310
0000000000000000000000000000000041400000000000001C400000000000000000000000000000444000000000000000000C00000013000000A20700003C0000000600000002000000000000000000000000000000000041400000000000001C40000000000000000000000000000044400000000000002C400C00000013
310
000000AA0700003C000000060000000200000000000000000000000000004033330140000000E0CC7C6C4000000000000000000000000000003E400000000000C06C40
100
AcDbSubDMesh
 71
     2
 72
     0
 91
        0
 92
       84
 10
0.0
 20
-24.0
 30
212.0
 10
910.0
 20
-24.0
 30
212.0
 10
910.0
 20
-30.0
 30
212.0
 10
0.0
 20
-30.0
 30
212.0
 10
910.0000610351562
 20
-30.00000190734863
 30
230.0000152587891
 10
0.0
 20
-30.0
 30
230.0
 10
910.0
 20
-2.150000095367431
 30
230.0
 10
0.0
 20
-2.150000095367431
 30
230.0000152587891
 10
910.0
 20
-2.150000095367431
 30
227.9000091552735
 10
0.0
 20
-2.150000095367431
 30
227.9000091552735
 10
910.0
 20
-5.200000286102294
 30
227.9000091552735
 10
0.0
 20
-5.200000286102294
 30
227.9000091552735
 10
910.0
 20
-3.753074407577514
 30
222.5
 10
0.0
 20
-3.753074169158935
 30
222.5
 10
910.0000610351562
 20
3.753074645996093
 30
222.5000152587891
 10
0.0
 20
3.753074169158935
 30
222.5
 10
910.0
 20
5.200000286102294
 30
227.9000091552735
 10
0.0
 20
5.200000286102294
 30
227.9000091552735
 10
910.0
 20
2.150000095367431
 30
227.9000091552735
 10
0.0
 20
2.150000095367431
 30
227.9000091552735
 10
910.0000610351562
 20
2.150000095367431
 30
230.0000152587891
 10
0.0
 20
2.150000095367431
 30
230.0
 10
910.0
 20
30.0
 30
230.0
 10
0.0
 20
30.0
 30
230.0
 10
910.0
 20
30.0
 30
212.0
 10
0.0
 20
30.0
 30
212.0
 10
910.0
 20
24.0
 30
212.0
 10
0.0
 20
24.0
 30
212.0
 10
910.0
 20
24.0
 30
223.0
 10
0.0
 20
24.0
 30
223.0
 10
910.0000610351562
 20
10.09870624542236
 30
223.0000152587891
 10
0.0
 20
10.09870624542236
 30
223.0
 10
910.0
 20
8.5
 30
217.0335540771485
 10
0.0
 20
8.5
 30
217.0335540771485
 10
910.0
 20
8.5
 30
9.0
 10
0.0
 20
8.5
 30
9.0
 10
910.0
 20
16.0
 30
9.0
 10
0.0
 20
16.0
 30
9.0
 10
910.0
 20
16.0
 30
7.0
 10
0.0
 20
16.0
 30
7.0
 10
910.0000610351562
 20
34.0
 30
7.0
 10
0.0
 20
34.0
 30
7.0
 10
910.0
 20
34.0
 30
14.0
 10
0.0
 20
34.0
 30
14.0
 10
910.0
 20
40.0
 30
14.0
 10
0.0
 20
40.0
 30
14.0
 10
910.0
 20
40.0
 30
0.0
 10
0.0
 20
40.0
 30
0.0
 10
910.0
 20
2.150000095367431
 30
0.0
 10
0.0
 20
2.149999856948852
 30
0.0
 10
910.0
 20
2.150000095367431
 30
2.099998474121093
 10
0.0
 20
2.150000095367431
 30
2.099998474121093
 10
910.0000610351562
 20
5.200000286102294
 30
2.099998474121093
 10
0.0
 20
5.200000286102294
 30
2.099998474121093
 10
910.0
 20
3.751795291900634
 30
7.5
 10
0.0
 20
3.751795291900634
 30
7.5
 10
910.0
 20
-3.753074407577514
 30
7.5
 10
0.0
 20
-3.753074169158935
 30
7.5
 10
910.0000610351562
 20
-5.200000286102294
 30
2.099998474121093
 10
0.0
 20
-5.200000286102294
 30
2.099998474121093
 10
910.0
 20
-2.150000095367431
 30
2.099998474121093
 10
0.0
 20
-2.150000095367431
 30
2.099998474121093
 10
910.0
 20
-2.149999856948852
 30
0.0
 10
0.0
 20
-2.150000095367431
 30
0.0
 10
910.0
 20
-40.0
 30
0.0
 10
0.0
 20
-40.0
 30
0.0
 10
910.0
 20
-40.0
 30
14.0
 10
0.0
 20
-40.0
 30
14.0
 10
910.0
 20
-34.0
 30
14.0
 10
0.0
 20
-34.0
 30
14.0
 10
910.0
 20
-34.0
 30
7.0
 10
0.0
 20
-34.0
 30
7.0
 10
910.0
 20
-16.0
 30
7.0
 10
0.0
 20
-16.0
 30
7.0
 10
910.0
 20
-16.0
 30
9.0
 10
0.0
 20
-16.0
 30
9.0
 10
910.0
 20
-8.5
 30
9.0
 10
0.0
 20
-8.5
 30
9.0
 10
910.0000610351562
 20
-8.5
 30
217.0335540771485
 10
0.0
 20
-8.5
 30
217.0335540771485
 10
910.0000610351562
 20
-10.09870624542236
 30
223.0000152587891
 10
0.0
 20
-10.09870624542236
 30
223.0000152587891
 10
910.0
 20
-24.0
 30
223.0
 10
0.0
 20
-24.0
 30
223.0
 93
      656
 90
        3
 90
        0
 90
        1
 90
        2
 90
        3
 90
        2
 90
        3
 90
        0
 90
        3
 90
        3
 90
        2
 90
        4
 90
        3
 90
        4
 90
        5
 90
        3
 90
        3
 90
        5
 90
        4
 90
        6
 90
        3
 90
        6
 90
        7
 90
        5
 90
        3
 90
        7
 90
        6
 90
        8
 90
        3
 90
        8
 90
        9
 90
        7
 90
        3
 90
        9
 90
        8
 90
       10
 90
        3
 90
       10
 90
       11
 90
        9
 90
        3
 90
       11
 90
       10
 90
       12
 90
        3
 90
       12
 90
       13
 90
       11
 90
        3
 90
       13
 90
       12
 90
       14
 90
        3
 90
       14
 90
       15
 90
       13
 90
        3
 90
       15
 90
       14
 90
       16
 90
        3
 90
       16
 90
       17
 90
       15
 90
        3
 90
       17
 90
       16
 90
       18
 90
        3
 90
       18
 90
       19
 90
       17
 90
        3
 90
       19
 90
       18
 90
       20
 90
        3
 90
       20
 90
       21
 90
       19
 90
        3
 90
       21
 90
       20
 90
       22
 90
        3
 90
       22
 90
       23
 90
       21
 90
        3
 90
       23
 90
       22
 90
       24
 90
        3
 90
       24
 90
       25
 90
       23
 90
        3
 90
       25
 90
       24
 90
       26
 90
        3
 90
       26
 90
       27
 90
       25
 90
        3
 90
       27
 90
       26
 90
       28
 90
        3
 90
       28
 90
       29
 90
       27
 90
        3
 90
       29
 90
       28
 90
       30
 90
        3
 90
       30
 90
       31
 90
       29
 90
        3
 90
       31
 90
       30
 90
       32
 90
        3
 90
       32
 90
       33
 90
       31
 90
        3
 90
       33
 90
       32
 90
       34
 90
        3
 90
       34
 90
       35
 90
       33
 90
        3
 90
       35
 90
       34
 90
       36
 90
        3
 90
       36
 90
       37
 90
       35
 90
        3
 90
       37
 90
       36
 90
       38
 90
        3
 90
       38
 90
       39
 90
       37
 90
        3
 90
       39
 90
       38
 90
       40
 90
        3
 90
       40
 90
       41
 90
       39
 90
        3
 90
       41
 90
       40
 90
       42
 90
        3
 90
       42
 90
       43
 90
       41
 90
        3
 90
       43
 90
       42
 90
       44
 90
        3
 90
       44
 90
       45
 90
       43
 90
        3
 90
       45
 90
       44
 90
       46
 90
        3
 90
       46
 90
       47
 90
       45
 90
        3
 90
       47
 90
       46
 90
       48
 90
        3
 90
       48
 90
       49
 90
       47
 90
        3
 90
       49
 90
       48
 90
       50
 90
        3
 90
       50
 90
       51
 90
       49
 90
        3
 90
       51
 90
       50
 90
       52
 90
        3
 90
       52
 90
       53
 90
       51
 90
        3
 90
       53
 90
       52
 90
       54
 90
        3
 90
       54
 90
       55
 90
       53
 90
        3
 90
       55
 90
       54
 90
       56
 90
        3
 90
       56
 90
       57
 90
       55
 90
        3
 90
       57
 90
       56
 90
       58
 90
        3
 90
       58
 90
       59
 90
       57
 90
        3
 90
       59
 90
       58
 90
       60
 90
        3
 90
       60
 90
       61
 90
       59
 90
        3
 90
       61
 90
       60
 90
       62
 90
        3
 90
       62
 90
       63
 90
       61
 90
        3
 90
       63
 90
       62
 90
       64
 90
        3
 90
       64
 90
       65
 90
       63
 90
        3
 90
       65
 90
       64
 90
       66
 90
        3
 90
       66
 90
       67
 90
       65
 90
        3
 90
       67
 90
       66
 90
       68
 90
        3
 90
       68
 90
       69
 90
       67
 90
        3
 90
       69
 90
       68
 90
       70
 90
        3
 90
       70
 90
       71
 90
       69
 90
        3
 90
       71
 90
       70
 90
       72
 90
        3
 90
       72
 90
       73
 90
       71
 90
        3
 90
       73
 90
       72
 90
       74
 90
        3
 90
       74
 90
       75
 90
       73
 90
        3
 90
       75
 90
       74
 90
       76
 90
        3
 90
       76
 90
       77
 90
       75
 90
        3
 90
       77
 90
       76
 90
       78
 90
        3
 90
       78
 90
       79
 90
       77
 90
        3
 90
       79
 90
       78
 90
       80
 90
        3
 90
       80
 90
       81
 90
       79
 90
        3
 90
       81
 90
       80
 90
       82
 90
        3
 90
       82
 90
       83
 90
       81
 90
        3
 90
       83
 90
       82
 90
        1
 90
        3
 90
        1
 90
        0
 90
       83
 90
        3
 90
        2
 90
        1
 90
       82
 90
        3
 90
        4
 90
        2
 90
       82
 90
        3
 90
        4
 90
       82
 90
       10
 90
        3
 90
       10
 90
        8
 90
        6
 90
        3
 90
       10
 90
        6
 90
        4
 90
        3
 90
       10
 90
       82
 90
       80
 90
        3
 90
       30
 90
       16
 90
       14
 90
        3
 90
       32
 90
       30
 90
       14
 90
        3
 90
       32
 90
       14
 90
       12
 90
        3
 90
       78
 90
       32
 90
       12
 90
        3
 90
       12
 90
       10
 90
       80
 90
        3
 90
       12
 90
       80
 90
       78
 90
        3
 90
       20
 90
       18
 90
       16
 90
        3
 90
       20
 90
       16
 90
       28
 90
        3
 90
       22
 90
       20
 90
       28
 90
        3
 90
       28
 90
       26
 90
       24
 90
        3
 90
       28
 90
       24
 90
       22
 90
        3
 90
       28
 90
       16
 90
       30
 90
        3
 90
       76
 90
       34
 90
       32
 90
        3
 90
       76
 90
       32
 90
       78
 90
        3
 90
       74
 90
       72
 90
       56
 90
        3
 90
       54
 90
       34
 90
       76
 90
        3
 90
       56
 90
       54
 90
       76
 90
        3
 90
       56
 90
       76
 90
       74
 90
        3
 90
       44
 90
       42
 90
       40
 90
        3
 90
       46
 90
       44
 90
       40
 90
        3
 90
       46
 90
       40
 90
       38
 90
        3
 90
       52
 90
       46
 90
       38
 90
        3
 90
       38
 90
       36
 90
       34
 90
        3
 90
       38
 90
       34
 90
       54
 90
        3
 90
       52
 90
       38
 90
       54
 90
        3
 90
       46
 90
       52
 90
       50
 90
        3
 90
       46
 90
       50
 90
       48
 90
        3
 90
       62
 90
       60
 90
       58
 90
        3
 90
       72
 90
       62
 90
       58
 90
        3
 90
       58
 90
       56
 90
       72
 90
        3
 90
       62
 90
       72
 90
       70
 90
        3
 90
       64
 90
       62
 90
       70
 90
        3
 90
       70
 90
       68
 90
       66
 90
        3
 90
       70
 90
       66
 90
       64
 90
        3
 90
       71
 90
       65
 90
       67
 90
        3
 90
       71
 90
       67
 90
       69
 90
        3
 90
       65
 90
       71
 90
       73
 90
        3
 90
       73
 90
       57
 90
       59
 90
        3
 90
       73
 90
       59
 90
       65
 90
        3
 90
       73
 90
       75
 90
       77
 90
        3
 90
       57
 90
       73
 90
       77
 90
        3
 90
       77
 90
       79
 90
       13
 90
        3
 90
       77
 90
       13
 90
       57
 90
        3
 90
       81
 90
       11
 90
       13
 90
        3
 90
       81
 90
       13
 90
       79
 90
        3
 90
        7
 90
        9
 90
       11
 90
        3
 90
        7
 90
       11
 90
       83
 90
        3
 90
        5
 90
        7
 90
       83
 90
        3
 90
       83
 90
        0
 90
        3
 90
        3
 90
       83
 90
        3
 90
        5
 90
        3
 90
       83
 90
       11
 90
       81
 90
        3
 90
       65
 90
       59
 90
       61
 90
        3
 90
       65
 90
       61
 90
       63
 90
        3
 90
       15
 90
       55
 90
       57
 90
        3
 90
       15
 90
       57
 90
       13
 90
        3
 90
       25
 90
       27
 90
       29
 90
        3
 90
       23
 90
       25
 90
       29
 90
        3
 90
       29
 90
       31
 90
       17
 90
        3
 90
       29
 90
       17
 90
       23
 90
        3
 90
       33
 90
       15
 90
       17
 90
        3
 90
       33
 90
       17
 90
       31
 90
        3
 90
       35
 90
       55
 90
       15
 90
        3
 90
       35
 90
       15
 90
       33
 90
        3
 90
       39
 90
       55
 90
       35
 90
        3
 90
       39
 90
       35
 90
       37
 90
        3
 90
       49
 90
       51
 90
       53
 90
        3
 90
       39
 90
       49
 90
       53
 90
        3
 90
       53
 90
       55
 90
       39
 90
        3
 90
       49
 90
       39
 90
       41
 90
        3
 90
       47
 90
       49
 90
       41
 90
        3
 90
       41
 90
       43
 90
       45
 90
        3
 90
       41
 90
       45
 90
       47
 90
        3
 90
       23
 90
       17
 90
       19
 90
        3
 90
       23
 90
       19
 90
       21
 94
      246
 90
        0
 90
        1
 90
        1
 90
        2
 90
        0
 90
        2
 90
        2
 90
        3
 90
        0
 90
        3
 90
        2
 90
        4
 90
        3
 90
        4
 90
        4
 90
        5
 90
        3
 90
        5
 90
        4
 90
        6
 90
        5
 90
        6
 90
        6
 90
        7
 90
        5
 90
        7
 90
        6
 90
        8
 90
        7
 90
        8
 90
        8
 90
        9
 90
        7
 90
        9
 90
        8
 90
       10
 90
        9
 90
       10
 90
       10
 90
       11
 90
        9
 90
       11
 90
       10
 90
       12
 90
       11
 90
       12
 90
       12
 90
       13
 90
       11
 90
       13
 90
       12
 90
       14
 90
       13
 90
       14
 90
       14
 90
       15
 90
       13
 90
       15
 90
       14
 90
       16
 90
       15
 90
       16
 90
       16
 90
       17
 90
       15
 90
       17
 90
       16
 90
       18
 90
       17
 90
       18
 90
       18
 90
       19
 90
       17
 90
       19
 90
       18
 90
       20
 90
       19
 90
       20
 90
       20
 90
       21
 90
       19
 90
       21
 90
       20
 90
       22
 90
       21
 90
       22
 90
       22
 90
       23
 90
       21
 90
       23
 90
       22
 90
       24
 90
       23
 90
       24
 90
       24
 90
       25
 90
       23
 90
       25
 90
       24
 90
       26
 90
       25
 90
       26
 90
       26
 90
       27
 90
       25
 90
       27
 90
       26
 90
       28
 90
       27
 90
       28
 90
       28
 90
       29
 90
       27
 90
       29
 90
       28
 90
       30
 90
       29
 90
       30
 90
       30
 90
       31
 90
       29
 90
       31
 90
       30
 90
       32
 90
       31
 90
       32
 90
       32
 90
       33
 90
       31
 90
       33
 90
       32
 90
       34
 90
       33
 90
       34
 90
       34
 90
       35
 90
       33
 90
       35
 90
       34
 90
       36
 90
       35
 90
       36
 90
       36
 90
       37
 90
       35
 90
       37
 90
       36
 90
       38
 90
       37
 90
       38
 90
       38
 90
       39
 90
       37
 90
       39
 90
       38
 90
       40
 90
       39
 90
       40
 90
       40
 90
       41
 90
       39
 90
       41
 90
       40
 90
       42
 90
       41
 90
       42
 90
       42
 90
       43
 90
       41
 90
       43
 90
       42
 90
       44
 90
       43
 90
       44
 90
       44
 90
       45
 90
       43
 90
       45
 90
       44
 90
       46
 90
       45
 90
       46
 90
       46
 90
       47
 90
       45
 90
       47
 90
       46
 90
       48
 90
       47
 90
       48
 90
       48
 90
       49
 90
       47
 90
       49
 90
       48
 90
       50
 90
       49
 90
       50
 90
       50
 90
       51
 90
       49
 90
       51
 90
       50
 90
       52
 90
       51
 90
       52
 90
       52
 90
       53
 90
       51
 90
       53
 90
       52
 90
       54
 90
       53
 90
       54
 90
       54
 90
       55
 90
       53
 90
       55
 90
       54
 90
       56
 90
       55
 90
       56
 90
       56
 90
       57
 90
       55
 90
       57
 90
       56
 90
       58
 90
       57
 90
       58
 90
       58
 90
       59
 90
       57
 90
       59
 90
       58
 90
       60
 90
       59
 90
       60
 90
       60
 90
       61
 90
       59
 90
       61
 90
       60
 90
       62
 90
       61
 90
       62
 90
       62
 90
       63
 90
       61
 90
       63
 90
       62
 90
       64
 90
       63
 90
       64
 90
       64
 90
       65
 90
       63
 90
       65
 90
       64
 90
       66
 90
       65
 90
       66
 90
       66
 90
       67
 90
       65
 90
       67
 90
       66
 90
       68
 90
       67
 90
       68
 90
       68
 90
       69
 90
       67
 90
       69
 90
       68
 90
       70
 90
       69
 90
       70
 90
       70
 90
       71
 90
       69
 90
       71
 90
       70
 90
       72
 90
       71
 90
       72
 90
       72
 90
       73
 90
       71
 90
       73
 90
       72
 90
       74
 90
       73
 90
       74
 90
       74
 90
       75
 90
       73
 90
       75
 90
       74
 90
       76
 90
       75
 90
       76
 90
       76
 90
       77
 90
       75
 90
       77
 90
       76
 90
       78
 90
       77
 90
       78
 90
       78
 90
       79
 90
       77
 90
       79
 90
       78
 90
       80
 90
       79
 90
       80
 90
       80
 90
       81
 90
       79
 90
       81
 90
       80
 90
       82
 90
       81
 90
       82
 90
       82
 90
       83
 90
       81
 90
       83
 90
        1
 90
       82
 90
        1
 90
       83
 90
        0
 90
       83
 90
        2
 90
       82
 90
        4
 90
       82
 90
       10
 90
       82
 90
        4
 90
       10
 90
        6
 90
       10
 90
       10
 90
       80
 90
       16
 90
       30
 90
       14
 90
       30
 90
       14
 90
       32
 90
       12
 90
       32
 90
       32
 90
       78
 90
       12
 90
       78
 90
       12
 90
       80
 90
       16
 90
       20
 90
       16
 90
       28
 90
       20
 90
       28
 90
       22
 90
       28
 90
       24
 90
       28
 90
       34
 90
       76
 90
       32
 90
       76
 90
       56
 90
       72
 90
       56
 90
       74
 90
       34
 90
       54
 90
       54
 90
       76
 90
       56
 90
       76
 90
       40
 90
       44
 90
       40
 90
       46
 90
       38
 90
       46
 90
       46
 90
       52
 90
       38
 90
       52
 90
       34
 90
       38
 90
       38
 90
       54
 90
       46
 90
       50
 90
       58
 90
       62
 90
       62
 90
       72
 90
       58
 90
       72
 90
       62
 90
       70
 90
       64
 90
       70
 90
       66
 90
       70
 90
       65
 90
       71
 90
       67
 90
       71
 90
       65
 90
       73
 90
       57
 90
       73
 90
       59
 90
       73
 90
       59
 90
       65
 90
       73
 90
       77
 90
       57
 90
       77
 90
       13
 90
       79
 90
       13
 90
       77
 90
       13
 90
       57
 90
       11
 90
       81
 90
       13
 90
       81
 90
        7
 90
       11
 90
       11
 90
       83
 90
        7
 90
       83
 90
        5
 90
       83
 90
        3
 90
       83
 90
       61
 90
       65
 90
       15
 90
       55
 90
       15
 90
       57
 90
       25
 90
       29
 90
       23
 90
       29
 90
       17
 90
       31
 90
       17
 90
       29
 90
       17
 90
       23
 90
       15
 90
       33
 90
       17
 90
       33
 90
       35
 90
       55
 90
       15
 90
       35
 90
       39
 90
       55
 90
       35
 90
       39
 90
       49
 90
       53
 90
       39
 90
       49
 90
       39
 90
       53
 90
       41
 90
       49
 90
       41
 90
       47
 90
       41
 90
       45
 90
       19
 90
       23
 95
      246
140
0.0
140
0.0
140
0.0
140
0.0
140
0.0
140
0.0
140
0.0
140
0.0
140
0.0
140
0.0
140
0.0
140
0.0
140
0.0
140
0.0
140
0.0
140
0.0
140
0.0
140
0.0
140
0.0
140
0.0
140
0.0
140
0.0
140
0.0
140
0.0
140
0.0
140
0.0
140
0.0
140
0.0
140
0.0
140
0.0
140
0.0
140
0.0
140
0.0
140
0.0
140
0.0
140
0.0
140
0.0
140
0.0
140
0.0
140
0.0
140
0.0
140
0.0
140
0.0
140
0.0
140
0.0
140
0.0
140
0.0
140
0.0
140
0.0
140
0.0
140
0.0
140
0.0
140
0.0
140
0.0
140
0.0
140
0.0
140
0.0
140
0.0
140
0.0
140
0.0
140
0.0
140
0.0
140
0.0
140
0.0
140
0.0
140
0.0
140
0.0
140
0.0
140
0.0
140
0.0
140
0.0
140
0.0
140
0.0
140
0.0
140
0.0
140
0.0
140
0.0
140
0.0
140
0.0
140
0.0
140
0.0
140
0.0
140
0.0
140
0.0
140
0.0
140
0.0
140
0.0
140
0.0
140
0.0
140
0.0
140
0.0
140
0.0
140
0.0
140
0.0
140
0.0
140
0.0
140
0.0
140
0.0
140
0.0
140
0.0
140
0.0
140
0.0
140
0.0
140
0.0
140
0.0
140
0.0
140
0.0
140
0.0
140
0.0
140
0.0
140
0.0
140
0.0
140
0.0
140
0.0
140
0.0
140
0.0
140
0.0
140
0.0
140
0.0
140
0.0
140
0.0
140
0.0
140
0.0
140
0.0
140
0.0
140
0.0
140
0.0
140
0.0
140
0.0
140
0.0
140
0.0
140
0.0
140
0.0
140
0.0
140
0.0
140
0.0
140
0.0
140
0.0
140
0.0
140
0.0
140
0.0
140
0.0
140
0.0
140
0.0
140
0.0
140
0.0
140
0.0
140
0.0
140
0.0
140
0.0
140
0.0
140
0.0
140
0.0
140
0.0
140
0.0
140
0.0
140
0.0
140
0.0
140
0.0
140
0.0
140
0.0
140
0.0
140
0.0
140
0.0
140
0.0
140
0.0
140
0.0
140
0.0
140
0.0
140
0.0
140
0.0
140
0.0
140
0.0
140
0.0
140
0.0
140
0.0
140
0.0
140
0.0
140
0.0
140
0.0
140
0.0
140
0.0
140
0.0
140
0.0
140
0.0
140
0.0
140
0.0
140
0.0
140
0.0
140
0.0
140
0.0
140
0.0
140
0.0
140
0.0
140
0.0
140
0.0
140
0.0
140
0.0
140
0.0
140
0.0
140
0.0
140
0.0
140
0.0
140
0.0
140
0.0
140
0.0
140
0.0
140
0.0
140
0.0
140
0.0
140
0.0
140
0.0
140
0.0
140
0.0
140
0.0
140
0.0
140
0.0
140
0.0
140
0.0
140
0.0
140
0.0
140
0.0
140
0.0
140
0.0
140
0.0
140
0.0
140
0.0
140
0.0
140
0.0
140
0.0
140
0.0
140
0.0
140
0.0
140
0.0
140
0.0
140
0.0
140
0.0
140
0.0
140
0.0
140
0.0
140
0.0
140
0.0
140
0.0
140
0.0
140
0.0
140
0.0
 90
        0
  0
POLYLINE
  5
305
330
1F
100
AcDbEntity
  8
Insert Point
100
AcDb2dPolyline
 66
     1
 10
0.0
 20
0.0
 30
-230.0
 70
     1
210
0.0000000000000076
220
0.0000000874227766
230
-0.9999999999999962
  0
VERTEX
  5
306
330
305
100
AcDbEntity
  8
Insert Point
100
AcDbVertex
100
AcDb2dVertex
 10
60.0
 20
-29.99997329711914
 30
-230.0
  0
VERTEX
  5
307
330
305
100
AcDbEntity
  8
Insert Point
100
AcDbVertex
100
AcDb2dVertex
 10
59.92184066772461
 20
-26.91501426696778
 30
-230.0
  0
VERTEX
  5
308
330
305
100
AcDbEntity
  8
Insert Point
100
AcDbVertex
100
AcDb2dVertex
 10
59.68989562988281
 20
-23.87025260925293
 30
-230.0
  0
VERTEX
  5
309
330
305
100
AcDbEntity
  8
Insert Point
100
AcDbVertex
100
AcDb2dVertex
 10
59.30794906616211
 20
-20.86947631835938
 30
-230.0
  0
VERTEX
  5
30A
330
305
100
AcDbEntity
  8
Insert Point
100
AcDbVertex
100
AcDb2dVertex
 10
58.77978515625
 20
-17.91646957397461
 30
-230.0
  0
VERTEX
  5
30B
330
305
100
AcDbEntity
  8
Insert Point
100
AcDbVertex
100
AcDb2dVertex
 10
58.10919189453125
 20
-15.01502323150635
 30
-230.0
  0
VERTEX
  5
30C
330
305
100
AcDbEntity
  8
Insert Point
100
AcDbVertex
100
AcDb2dVertex
 10
57.29995346069336
 20
-12.16891670227051
 30
-230.0
  0
VERTEX
  5
30D
330
305
100
AcDbEntity
  8
Insert Point
100
AcDbVertex
100
AcDb2dVertex
 10
56.35585784912109
 20
-9.38194465637207
 30
-230.0
  0
VERTEX
  5
30E
330
305
100
AcDbEntity
  8
Insert Point
100
AcDbVertex
100
AcDb2dVertex
 10
55.28069305419922
 20
-6.657886505126953
 30
-230.0
  0
VERTEX
  5
30F
330
305
100
AcDbEntity
  8
Insert Point
100
AcDbVertex
100
AcDb2dVertex
 10
54.07823944091797
 20
-4.000532150268554
 30
-230.0
  0
VERTEX
  5
310
330
305
100
AcDbEntity
  8
Insert Point
100
AcDbVertex
100
AcDb2dVertex
 10
52.75229263305664
 20
-1.413667678833007
 30
-230.0
  0
VERTEX
  5
311
330
305
100
AcDbEntity
  8
Insert Point
100
AcDbVertex
100
AcDb2dVertex
 10
51.30663299560547
 20
1.098922729492187
 30
-230.0
  0
VERTEX
  5
312
330
305
100
AcDbEntity
  8
Insert Point
100
AcDbVertex
100
AcDb2dVertex
 10
49.74505233764649
 20
3.533449172973632
 30
-230.0
  0
VERTEX
  5
313
330
305
100
AcDbEntity
  8
Insert Point
100
AcDbVertex
100
AcDb2dVertex
 10
48.07132720947265
 20
5.88612937927246
 30
-230.0
  0
VERTEX
  5
314
330
305
100
AcDbEntity
  8
Insert Point
100
AcDbVertex
100
AcDb2dVertex
 10
46.28924942016602
 20
8.153173446655273
 30
-230.0
  0
VERTEX
  5
315
330
305
100
AcDbEntity
  8
Insert Point
100
AcDbVertex
100
AcDb2dVertex
 10
44.40260696411132
 20
10.33079719543457
 30
-230.0
  0
VERTEX
  5
316
330
305
100
AcDbEntity
  8
Insert Point
100
AcDbVertex
100
AcDb2dVertex
 10
42.41518402099609
 20
12.41521263122558
 30
-230.0
  0
VERTEX
  5
317
330
305
100
AcDbEntity
  8
Insert Point
100
AcDbVertex
100
AcDb2dVertex
 10
40.33076858520508
 20
14.40263557434082
 30
-230.0
  0
VERTEX
  5
318
330
305
100
AcDbEntity
  8
Insert Point
100
AcDbVertex
100
AcDb2dVertex
 10
38.15314102172852
 20
16.28928184509277
 30
-230.0
  0
VERTEX
  5
319
330
305
100
AcDbEntity
  8
Insert Point
100
AcDbVertex
100
AcDb2dVertex
 10
35.8860969543457
 20
18.07135581970215
 30
-230.0
  0
VERTEX
  5
31A
330
305
100
AcDbEntity
  8
Insert Point
100
AcDbVertex
100
AcDb2dVertex
 10
33.53341674804688
 20
19.74508094787598
 30
-230.0
  0
VERTEX
  5
31B
330
305
100
AcDbEntity
  8
Insert Point
100
AcDbVertex
100
AcDb2dVertex
 10
31.09889221191406
 20
21.30666160583496
 30
-230.0
  0
VERTEX
  5
31C
330
305
100
AcDbEntity
  8
Insert Point
100
AcDbVertex
100
AcDb2dVertex
 10
28.5863037109375
 20
22.7523250579834
 30
-230.0
  0
VERTEX
  5
31D
330
305
100
AcDbEntity
  8
Insert Point
100
AcDbVertex
100
AcDb2dVertex
 10
25.99943542480469
 20
24.07827186584473
 30
-230.0
  0
VERTEX
  5
31E
330
305
100
AcDbEntity
  8
Insert Point
100
AcDbVertex
100
AcDb2dVertex
 10
23.34207916259765
 20
25.28072166442871
 30
-230.0
  0
VERTEX
  5
31F
330
305
100
AcDbEntity
  8
Insert Point
100
AcDbVertex
100
AcDb2dVertex
 10
20.61802101135254
 20
26.35588264465332
 30
-230.0
  0
VERTEX
  5
320
330
305
100
AcDbEntity
  8
Insert Point
100
AcDbVertex
100
AcDb2dVertex
 10
17.83104705810547
 20
27.29997825622559
 30
-230.0
  0
VERTEX
  5
321
330
305
100
AcDbEntity
  8
Insert Point
100
AcDbVertex
100
AcDb2dVertex
 10
14.98494434356689
 20
28.10921287536621
 30
-230.0
  0
VERTEX
  5
322
330
305
100
AcDbEntity
  8
Insert Point
100
AcDbVertex
100
AcDb2dVertex
 10
12.08349609375
 20
28.77980613708496
 30
-230.0
  0
VERTEX
  5
323
330
305
100
AcDbEntity
  8
Insert Point
100
AcDbVertex
100
AcDb2dVertex
 10
9.130491256713867
 20
29.30797004699707
 30
-230.0
  0
VERTEX
  5
324
330
305
100
AcDbEntity
  8
Insert Point
100
AcDbVertex
100
AcDb2dVertex
 10
6.129713535308837
 20
29.68992042541504
 30
-230.0
  0
VERTEX
  5
325
330
305
100
AcDbEntity
  8
Insert Point
100
AcDbVertex
100
AcDb2dVertex
 10
3.084952116012573
 20
29.92186546325683
 30
-230.0
  0
VERTEX
  5
326
330
305
100
AcDbEntity
  8
Insert Point
100
AcDbVertex
100
AcDb2dVertex
 10
-0.000007868051398
 20
30.00002098083496
 30
-230.0
  0
VERTEX
  5
327
330
305
100
AcDbEntity
  8
Insert Point
100
AcDbVertex
100
AcDb2dVertex
 10
-3.084968090057373
 20
29.92186164855957
 30
-230.0
  0
VERTEX
  5
328
330
305
100
AcDbEntity
  8
Insert Point
100
AcDbVertex
100
AcDb2dVertex
 10
-6.129729270935058
 20
29.68991661071778
 30
-230.0
  0
VERTEX
  5
329
330
305
100
AcDbEntity
  8
Insert Point
100
AcDbVertex
100
AcDb2dVertex
 10
-9.130505561828613
 20
29.30797004699707
 30
-230.0
  0
VERTEX
  5
32A
330
305
100
AcDbEntity
  8
Insert Point
100
AcDbVertex
100
AcDb2dVertex
 10
-12.08351039886474
 20
28.77980613708496
 30
-230.0
  0
VERTEX
  5
32B
330
305
100
AcDbEntity
  8
Insert Point
100
AcDbVertex
100
AcDb2dVertex
 10
-14.98496055603027
 20
28.10921287536621
 30
-230.0
  0
VERTEX
  5
32C
330
305
100
AcDbEntity
  8
Insert Point
100
AcDbVertex
100
AcDb2dVertex
 10
-17.83106613159179
 20
27.29997444152832
 30
-230.0
  0
VERTEX
  5
32D
330
305
100
AcDbEntity
  8
Insert Point
100
AcDbVertex
100
AcDb2dVertex
 10
-20.61804008483887
 20
26.35587882995606
 30
-230.0
  0
VERTEX
  5
32E
330
305
100
AcDbEntity
  8
Insert Point
100
AcDbVertex
100
AcDb2dVertex
 10
-23.34209632873535
 20
25.28071403503418
 30
-230.0
  0
VERTEX
  5
32F
330
305
100
AcDbEntity
  8
Insert Point
100
AcDbVertex
100
AcDb2dVertex
 10
-25.99945068359375
 20
24.07826042175293
 30
-230.0
  0
VERTEX
  5
330
330
305
100
AcDbEntity
  8
Insert Point
100
AcDbVertex
100
AcDb2dVertex
 10
-28.5863151550293
 20
22.7523136138916
 30
-230.0
  0
VERTEX
  5
331
330
305
100
AcDbEntity
  8
Insert Point
100
AcDbVertex
100
AcDb2dVertex
 10
-31.09890365600586
 20
21.30665397644043
 30
-230.0
  0
VERTEX
  5
332
330
305
100
AcDbEntity
  8
Insert Point
100
AcDbVertex
100
AcDb2dVertex
 10
-33.53343200683594
 20
19.74507331848144
 30
-230.0
  0
VERTEX
  5
333
330
305
100
AcDbEntity
  8
Insert Point
100
AcDbVertex
100
AcDb2dVertex
 10
-35.88611221313477
 20
18.07134819030762
 30
-230.0
  0
VERTEX
  5
334
330
305
100
AcDbEntity
  8
Insert Point
100
AcDbVertex
100
AcDb2dVertex
 10
-38.15315628051758
 20
16.28927040100097
 30
-230.0
  0
VERTEX
  5
335
330
305
100
AcDbEntity
  8
Insert Point
100
AcDbVertex
100
AcDb2dVertex
 10
-40.33078002929687
 20
14.40262794494629
 30
-230.0
  0
VERTEX
  5
336
330
305
100
AcDbEntity
  8
Insert Point
100
AcDbVertex
100
AcDb2dVertex
 10
-42.41519546508789
 20
12.41520500183105
 30
-230.0
  0
VERTEX
  5
337
330
305
100
AcDbEntity
  8
Insert Point
100
AcDbVertex
100
AcDb2dVertex
 10
-44.40261840820312
 20
10.33078956604004
 30
-230.0
  0
VERTEX
  5
338
330
305
100
AcDbEntity
  8
Insert Point
100
AcDbVertex
100
AcDb2dVertex
 10
-46.28926467895507
 20
8.153162002563476
 30
-230.0
  0
VERTEX
  5
339
330
305
100
AcDbEntity
  8
Insert Point
100
AcDbVertex
100
AcDb2dVertex
 10
-48.07133865356445
 20
5.886117935180664
 30
-230.0
  0
VERTEX
  5
33A
330
305
100
AcDbEntity
  8
Insert Point
100
AcDbVertex
100
AcDb2dVertex
 10
-49.74505996704102
 20
3.533437728881835
 30
-230.0
  0
VERTEX
  5
33B
330
305
100
AcDbEntity
  8
Insert Point
100
AcDbVertex
100
AcDb2dVertex
 10
-51.30664825439453
 20
1.09891128540039
 30
-230.0
  0
VERTEX
  5
33C
330
305
100
AcDbEntity
  8
Insert Point
100
AcDbVertex
100
AcDb2dVertex
 10
-52.75230407714843
 20
-1.413677215576171
 30
-230.0
  0
VERTEX
  5
33D
330
305
100
AcDbEntity
  8
Insert Point
100
AcDbVertex
100
AcDb2dVertex
 10
-54.07825088500977
 20
-4.000543594360351
 30
-230.0
  0
VERTEX
  5
33E
330
305
100
AcDbEntity
  8
Insert Point
100
AcDbVertex
100
AcDb2dVertex
 10
-55.28070449829101
 20
-6.657899856567382
 30
-230.0
  0
VERTEX
  5
33F
330
305
100
AcDbEntity
  8
Insert Point
100
AcDbVertex
100
AcDb2dVertex
 10
-56.35586547851563
 20
-9.3819580078125
 30
-230.0
  0
VERTEX
  5
340
330
305
100
AcDbEntity
  8
Insert Point
100
AcDbVertex
100
AcDb2dVertex
 10
-57.29995727539062
 20
-12.1689338684082
 30
-230.0
  0
VERTEX
  5
341
330
305
100
AcDbEntity
  8
Insert Point
100
AcDbVertex
100
AcDb2dVertex
 10
-58.10919570922852
 20
-15.01503658294678
 30
-230.0
  0
VERTEX
  5
342
330
305
100
AcDbEntity
  8
Insert Point
100
AcDbVertex
100
AcDb2dVertex
 10
-58.77978897094727
 20
-17.91648483276367
 30
-230.0
  0
VERTEX
  5
343
330
305
100
AcDbEntity
  8
Insert Point
100
AcDbVertex
100
AcDb2dVertex
 10
-59.30795288085938
 20
-20.86948966979981
 30
-230.0
  0
VERTEX
  5
344
330
305
100
AcDbEntity
  8
Insert Point
100
AcDbVertex
100
AcDb2dVertex
 10
-59.68989944458008
 20
-23.87026786804199
 30
-230.0
  0
VERTEX
  5
345
330
305
100
AcDbEntity
  8
Insert Point
100
AcDbVertex
100
AcDb2dVertex
 10
-59.92184448242188
 20
-26.91502952575684
 30
-230.0
  0
VERTEX
  5
346
330
305
100
AcDbEntity
  8
Insert Point
100
AcDbVertex
100
AcDb2dVertex
 10
-60.0
 20
-29.99999046325683
 30
-230.0
  0
VERTEX
  5
347
330
305
100
AcDbEntity
  8
Insert Point
100
AcDbVertex
100
AcDb2dVertex
 10
-59.92184066772461
 20
-33.08494949340821
 30
-230.0
  0
VERTEX
  5
348
330
305
100
AcDbEntity
  8
Insert Point
100
AcDbVertex
100
AcDb2dVertex
 10
-59.68989562988281
 20
-36.12971115112305
 30
-230.0
  0
VERTEX
  5
349
330
305
100
AcDbEntity
  8
Insert Point
100
AcDbVertex
100
AcDb2dVertex
 10
-59.30794906616211
 20
-39.13048553466797
 30
-230.0
  0
VERTEX
  5
34A
330
305
100
AcDbEntity
  8
Insert Point
100
AcDbVertex
100
AcDb2dVertex
 10
-58.77978515625
 20
-42.08349227905273
 30
-230.0
  0
VERTEX
  5
34B
330
305
100
AcDbEntity
  8
Insert Point
100
AcDbVertex
100
AcDb2dVertex
 10
-58.10919189453125
 20
-44.98493957519531
 30
-230.0
  0
VERTEX
  5
34C
330
305
100
AcDbEntity
  8
Insert Point
100
AcDbVertex
100
AcDb2dVertex
 10
-57.29995727539062
 20
-47.83104705810546
 30
-230.0
  0
VERTEX
  5
34D
330
305
100
AcDbEntity
  8
Insert Point
100
AcDbVertex
100
AcDb2dVertex
 10
-56.35585784912109
 20
-50.6180191040039
 30
-230.0
  0
VERTEX
  5
34E
330
305
100
AcDbEntity
  8
Insert Point
100
AcDbVertex
100
AcDb2dVertex
 10
-55.28069305419922
 20
-53.34207534790039
 30
-230.0
  0
VERTEX
  5
34F
330
305
100
AcDbEntity
  8
Insert Point
100
AcDbVertex
100
AcDb2dVertex
 10
-54.07823944091797
 20
-55.99942779541016
 30
-230.0
  0
VERTEX
  5
350
330
305
100
AcDbEntity
  8
Insert Point
100
AcDbVertex
100
AcDb2dVertex
 10
-52.75229263305664
 20
-58.58629608154297
 30
-230.0
  0
VERTEX
  5
351
330
305
100
AcDbEntity
  8
Insert Point
100
AcDbVertex
100
AcDb2dVertex
 10
-51.30663681030274
 20
-61.09888458251953
 30
-230.0
  0
VERTEX
  5
352
330
305
100
AcDbEntity
  8
Insert Point
100
AcDbVertex
100
AcDb2dVertex
 10
-49.74504470825195
 20
-63.53340911865235
 30
-230.0
  0
VERTEX
  5
353
330
305
100
AcDbEntity
  8
Insert Point
100
AcDbVertex
100
AcDb2dVertex
 10
-48.07132339477539
 20
-65.88609313964844
 30
-230.0
  0
VERTEX
  5
354
330
305
100
AcDbEntity
  8
Insert Point
100
AcDbVertex
100
AcDb2dVertex
 10
-46.28924942016602
 20
-68.15313720703125
 30
-230.0
  0
VERTEX
  5
355
330
305
100
AcDbEntity
  8
Insert Point
100
AcDbVertex
100
AcDb2dVertex
 10
-44.40260696411132
 20
-70.33075714111328
 30
-230.0
  0
VERTEX
  5
356
330
305
100
AcDbEntity
  8
Insert Point
100
AcDbVertex
100
AcDb2dVertex
 10
-42.41518402099609
 20
-72.41517639160156
 30
-230.0
  0
VERTEX
  5
357
330
305
100
AcDbEntity
  8
Insert Point
100
AcDbVertex
100
AcDb2dVertex
 10
-40.33076858520508
 20
-74.40259552001953
 30
-230.0
  0
VERTEX
  5
358
330
305
100
AcDbEntity
  8
Insert Point
100
AcDbVertex
100
AcDb2dVertex
 10
-38.15314102172852
 20
-76.28923797607422
 30
-230.0
  0
VERTEX
  5
359
330
305
100
AcDbEntity
  8
Insert Point
100
AcDbVertex
100
AcDb2dVertex
 10
-35.8860969543457
 20
-78.07131958007812
 30
-230.0
  0
VERTEX
  5
35A
330
305
100
AcDbEntity
  8
Insert Point
100
AcDbVertex
100
AcDb2dVertex
 10
-33.53342056274414
 20
-79.74504089355469
 30
-230.0
  0
VERTEX
  5
35B
330
305
100
AcDbEntity
  8
Insert Point
100
AcDbVertex
100
AcDb2dVertex
 10
-31.09889221191406
 20
-81.30662536621093
 30
-230.0
  0
VERTEX
  5
35C
330
305
100
AcDbEntity
  8
Insert Point
100
AcDbVertex
100
AcDb2dVertex
 10
-28.5863037109375
 20
-82.75228118896484
 30
-230.0
  0
VERTEX
  5
35D
330
305
100
AcDbEntity
  8
Insert Point
100
AcDbVertex
100
AcDb2dVertex
 10
-25.99943733215332
 20
-84.07823181152343
 30
-230.0
  0
VERTEX
  5
35E
330
305
100
AcDbEntity
  8
Insert Point
100
AcDbVertex
100
AcDb2dVertex
 10
-23.34208106994629
 20
-85.28067779541016
 30
-230.0
  0
VERTEX
  5
35F
330
305
100
AcDbEntity
  8
Insert Point
100
AcDbVertex
100
AcDb2dVertex
 10
-20.61802291870117
 20
-86.35584259033203
 30
-230.0
  0
VERTEX
  5
360
330
305
100
AcDbEntity
  8
Insert Point
100
AcDbVertex
100
AcDb2dVertex
 10
-17.83105087280273
 20
-87.29993438720702
 30
-230.0
  0
VERTEX
  5
361
330
305
100
AcDbEntity
  8
Insert Point
100
AcDbVertex
100
AcDb2dVertex
 10
-14.98494720458984
 20
-88.10916900634765
 30
-230.0
  0
VERTEX
  5
362
330
305
100
AcDbEntity
  8
Insert Point
100
AcDbVertex
100
AcDb2dVertex
 10
-12.08349800109863
 20
-88.77976226806641
 30
-230.0
  0
VERTEX
  5
363
330
305
100
AcDbEntity
  8
Insert Point
100
AcDbVertex
100
AcDb2dVertex
 10
-9.1304931640625
 20
-89.30792999267579
 30
-230.0
  0
VERTEX
  5
364
330
305
100
AcDbEntity
  8
Insert Point
100
AcDbVertex
100
AcDb2dVertex
 10
-6.129715919494628
 20
-89.68988037109374
 30
-230.0
  0
VERTEX
  5
365
330
305
100
AcDbEntity
  8
Insert Point
100
AcDbVertex
100
AcDb2dVertex
 10
-3.084954023361206
 20
-89.92182159423828
 30
-230.0
  0
VERTEX
  5
366
330
305
100
AcDbEntity
  8
Insert Point
100
AcDbVertex
100
AcDb2dVertex
 10
0.0000059608573793
 20
-89.9999771118164
 30
-230.0
  0
VERTEX
  5
367
330
305
100
AcDbEntity
  8
Insert Point
100
AcDbVertex
100
AcDb2dVertex
 10
3.084965944290161
 20
-89.92182159423828
 30
-230.0
  0
VERTEX
  5
368
330
305
100
AcDbEntity
  8
Insert Point
100
AcDbVertex
100
AcDb2dVertex
 10
6.129727363586425
 20
-89.68987274169922
 30
-230.0
  0
VERTEX
  5
369
330
305
100
AcDbEntity
  8
Insert Point
100
AcDbVertex
100
AcDb2dVertex
 10
9.130504608154296
 20
-89.30792999267579
 30
-230.0
  0
VERTEX
  5
36A
330
305
100
AcDbEntity
  8
Insert Point
100
AcDbVertex
100
AcDb2dVertex
 10
12.08350944519043
 20
-88.77976226806641
 30
-230.0
  0
VERTEX
  5
36B
330
305
100
AcDbEntity
  8
Insert Point
100
AcDbVertex
100
AcDb2dVertex
 10
14.98495674133301
 20
-88.10916900634765
 30
-230.0
  0
VERTEX
  5
36C
330
305
100
AcDbEntity
  8
Insert Point
100
AcDbVertex
100
AcDb2dVertex
 10
17.83106231689453
 20
-87.29993438720702
 30
-230.0
  0
VERTEX
  5
36D
330
305
100
AcDbEntity
  8
Insert Point
100
AcDbVertex
100
AcDb2dVertex
 10
20.61803436279297
 20
-86.35583496093749
 30
-230.0
  0
VERTEX
  5
36E
330
305
100
AcDbEntity
  8
Insert Point
100
AcDbVertex
100
AcDb2dVertex
 10
23.34209251403809
 20
-85.28067016601562
 30
-230.0
  0
VERTEX
  5
36F
330
305
100
AcDbEntity
  8
Insert Point
100
AcDbVertex
100
AcDb2dVertex
 10
25.99944686889648
 20
-84.07821655273437
 30
-230.0
  0
VERTEX
  5
370
330
305
100
AcDbEntity
  8
Insert Point
100
AcDbVertex
100
AcDb2dVertex
 10
28.58631134033203
 20
-82.75227355957031
 30
-230.0
  0
VERTEX
  5
371
330
305
100
AcDbEntity
  8
Insert Point
100
AcDbVertex
100
AcDb2dVertex
 10
31.09890174865723
 20
-81.30661773681641
 30
-230.0
  0
VERTEX
  5
372
330
305
100
AcDbEntity
  8
Insert Point
100
AcDbVertex
100
AcDb2dVertex
 10
33.53342819213867
 20
-79.74503326416016
 30
-230.0
  0
VERTEX
  5
373
330
305
100
AcDbEntity
  8
Insert Point
100
AcDbVertex
100
AcDb2dVertex
 10
35.8861083984375
 20
-78.07130432128906
 30
-230.0
  0
VERTEX
  5
374
330
305
100
AcDbEntity
  8
Insert Point
100
AcDbVertex
100
AcDb2dVertex
 10
38.15315246582031
 20
-76.28923034667969
 30
-230.0
  0
VERTEX
  5
375
330
305
100
AcDbEntity
  8
Insert Point
100
AcDbVertex
100
AcDb2dVertex
 10
40.33077621459961
 20
-74.402587890625
 30
-230.0
  0
VERTEX
  5
376
330
305
100
AcDbEntity
  8
Insert Point
100
AcDbVertex
100
AcDb2dVertex
 10
42.41519165039062
 20
-72.4151611328125
 30
-230.0
  0
VERTEX
  5
377
330
305
100
AcDbEntity
  8
Insert Point
100
AcDbVertex
100
AcDb2dVertex
 10
44.40261459350586
 20
-70.33074951171875
 30
-230.0
  0
VERTEX
  5
378
330
305
100
AcDbEntity
  8
Insert Point
100
AcDbVertex
100
AcDb2dVertex
 10
46.28926086425781
 20
-68.15312194824219
 30
-230.0
  0
VERTEX
  5
379
330
305
100
AcDbEntity
  8
Insert Point
100
AcDbVertex
100
AcDb2dVertex
 10
48.07133483886719
 20
-65.88607788085937
 30
-230.0
  0
VERTEX
  5
37A
330
305
100
AcDbEntity
  8
Insert Point
100
AcDbVertex
100
AcDb2dVertex
 10
49.74505996704102
 20
-63.53340148925781
 30
-230.0
  0
VERTEX
  5
37B
330
305
100
AcDbEntity
  8
Insert Point
100
AcDbVertex
100
AcDb2dVertex
 10
51.306640625
 20
-61.09886932373047
 30
-230.0
  0
VERTEX
  5
37C
330
305
100
AcDbEntity
  8
Insert Point
100
AcDbVertex
100
AcDb2dVertex
 10
52.75230407714843
 20
-58.58628082275391
 30
-230.0
  0
VERTEX
  5
37D
330
305
100
AcDbEntity
  8
Insert Point
100
AcDbVertex
100
AcDb2dVertex
 10
54.07825088500977
 20
-55.99941635131836
 30
-230.0
  0
VERTEX
  5
37E
330
305
100
AcDbEntity
  8
Insert Point
100
AcDbVertex
100
AcDb2dVertex
 10
55.28070068359375
 20
-53.34206008911133
 30
-230.0
  0
VERTEX
  5
37F
330
305
100
AcDbEntity
  8
Insert Point
100
AcDbVertex
100
AcDb2dVertex
 10
56.35586166381836
 20
-50.61800384521484
 30
-230.0
  0
VERTEX
  5
380
330
305
100
AcDbEntity
  8
Insert Point
100
AcDbVertex
100
AcDb2dVertex
 10
57.29995727539062
 20
-47.8310317993164
 30
-230.0
  0
VERTEX
  5
381
330
305
100
AcDbEntity
  8
Insert Point
100
AcDbVertex
100
AcDb2dVertex
 10
58.10919189453125
 20
-44.98492431640625
 30
-230.0
  0
VERTEX
  5
382
330
305
100
AcDbEntity
  8
Insert Point
100
AcDbVertex
100
AcDb2dVertex
 10
58.77978515625
 20
-42.08347702026367
 30
-230.0
  0
VERTEX
  5
383
330
305
100
AcDbEntity
  8
Insert Point
100
AcDbVertex
100
AcDb2dVertex
 10
59.30794906616211
 20
-39.13047409057617
 30
-230.0
  0
VERTEX
  5
384
330
305
100
AcDbEntity
  8
Insert Point
100
AcDbVertex
100
AcDb2dVertex
 10
59.68989944458008
 20
-36.12969589233399
 30
-230.0
  0
VERTEX
  5
385
330
305
100
AcDbEntity
  8
Insert Point
100
AcDbVertex
100
AcDb2dVertex
 10
59.92184448242188
 20
-33.08493423461914
 30
-230.0
  0
SEQEND
  5
386
330
305
100
AcDbEntity
  8
Insert Point
  0
ENDSEC
  0
SECTION
  2
OBJECTS
  0
DICTIONARY
  5
C
330
0
100
AcDbDictionary
281
     1
  3
ACAD_COLOR
350
DC
  3
ACAD_DETAILVIEWSTYLE
350
F5
  3
ACAD_GROUP
350
D
  3
ACAD_LAYOUT
350
1A
  3
ACAD_MATERIAL
350
AA
  3
ACAD_MLEADERSTYLE
350
F1
  3
ACAD_MLINESTYLE
350
17
  3
ACAD_PLOTSETTINGS
350
19
  3
ACAD_PLOTSTYLENAME
350
E
  3
ACAD_SCALELIST
350
DF
  3
ACAD_SECTIONVIEWSTYLE
350
F3
  3
ACAD_TABLESTYLE
350
DD
  3
ACAD_VISUALSTYLE
350
C3
  3
ACDB_RECOMPOSE_DATA
350
393
  3
AcDbVariableDictionary
350
387
  0
DICTIONARY
  5
DC
102
{ACAD_REACTORS
330
C
102
}
330
C
100
AcDbDictionary
281
     1
  0
DICTIONARY
  5
F5
102
{ACAD_REACTORS
330
C
102
}
330
C
100
AcDbDictionary
281
     1
  3
Imperial24
350
F6
  0
DICTIONARY
  5
D
102
{ACAD_REACTORS
330
C
102
}
330
C
100
AcDbDictionary
281
     1
  0
DICTIONARY
  5
1A
102
{ACAD_REACTORS
330
C
102
}
330
C
100
AcDbDictionary
281
     1
  3
Layout1
350
1E
  3
Layout2
350
26
  3
Model
350
22
  0
DICTIONARY
  5
AA
102
{ACAD_REACTORS
330
C
102
}
330
C
100
AcDbDictionary
281
     1
  3
ByBlock
350
B3
  3
ByLayer
350
AB
  3
Global
350
BB
  0
DICTIONARY
  5
F1
102
{ACAD_REACTORS
330
C
102
}
330
C
100
AcDbDictionary
281
     1
  3
Standard
350
F2
  0
DICTIONARY
  5
17
102
{ACAD_REACTORS
330
C
102
}
330
C
100
AcDbDictionary
281
     1
  3
Standard
350
18
  0
DICTIONARY
  5
19
102
{ACAD_REACTORS
330
C
102
}
330
C
100
AcDbDictionary
281
     1
  0
ACDBDICTIONARYWDFLT
  5
E
102
{ACAD_REACTORS
330
C
102
}
330
C
100
AcDbDictionary
281
     1
  3
ByLayer
350
2D
  3
Normal
350
F
100
AcDbDictionaryWithDefault
340
F
  0
DICTIONARY
  5
DF
102
{ACAD_REACTORS
330
C
102
}
330
C
100
AcDbDictionary
281
     1
  3
A0
350
E0
  3
A1
350
E1
  3
A2
350
E2
  3
A3
350
E3
  3
A4
350
E4
  3
A5
350
E5
  3
A6
350
E6
  3
A7
350
E7
  3
A8
350
E8
  3
A9
350
E9
  3
B0
350
EA
  3
B1
350
EB
  3
B2
350
EC
  3
B3
350
ED
  3
B4
350
EE
  3
B5
350
EF
  3
B6
350
F0
  0
DICTIONARY
  5
F3
102
{ACAD_REACTORS
330
C
102
}
330
C
100
AcDbDictionary
281
     1
  3
Imperial24
350
F4
  0
DICTIONARY
  5
DD
102
{ACAD_REACTORS
330
C
102
}
330
C
100
AcDbDictionary
281
     1
  3
Standard
350
DE
  0
DICTIONARY
  5
C3
102
{ACAD_REACTORS
330
C
102
}
330
C
100
AcDbDictionary
281
     1
  3
2dWireframe
350
C9
  3
Basic
350
C8
  3
Brighten
350
CF
  3
ColorChange
350
D3
  3
Conceptual
350
CC
  3
Dim
350
CE
  3
EdgeColorOff
350
DB
  3
Facepattern
350
D2
  3
Flat
350
C4
  3
FlatWithEdges
350
C5
  3
Gouraud
350
C6
  3
GouraudWithEdges
350
C7
  3
Hidden
350
CB
  3
JitterOff
350
D9
  3
Linepattern
350
D1
  3
OverhangOff
350
DA
  3
Realistic
350
CD
  3
Shaded
350
D8
  3
Shaded with edges
350
D7
  3
Shades of Gray
350
D4
  3
Sketchy
350
D5
  3
Thicken
350
D0
  3
Wireframe
350
CA
  3
X-Ray
350
D6
  0
XRECORD
  5
393
102
{ACAD_REACTORS
330
C
102
}
330
C
100
AcDbXrecord
280
     1
 90
        1
330
DE
  0
DICTIONARY
  5
387
102
{ACAD_REACTORS
330
C
102
}
330
C
100
AcDbDictionary
281
     1
  3
CANNOSCALE
350
38D
  3
CMLEADERSTYLE
350
389
  3
CTABLESTYLE
350
388
  3
CVIEWDETAILSTYLE
350
38A
  3
CVIEWSECTIONSTYLE
350
38B
  3
LAYEREVAL
350
38F
  3
LAYERNOTIFY
350
390
  3
LIGHTINGUNITS
350
38E
  3
MSLTSCALE
350
38C
  0
ACDBDETAILVIEWSTYLE
  5
F6
102
{ACAD_XDICTIONARY
360
3C8
102
}
102
{ACAD_REACTORS
330
F5
102
}
330
F5
100
AcDbModelDocViewStyle
 70
     0
  3
Imperial24
290
     0
100
AcDbDetailViewStyle
 70
     0
 71
     0
 90
        3
 71
     1
340
11
 62
   256
 40
0.24
340
0
 62
   256
 40
0.24
300

 40
0.36
280
     3
 71
     2
340
16
 90
       25
 62
   256
 71
     3
340
11
 62
   256
 40
0.24
 90
        1
 40
0.75
 90
        1
300
%<\AcVar ViewType \f "%tc1">% %<\AcVar ViewDetailId>%\PSCALE %<\AcVar ViewScale \f "%sn">%
 71
     4
340
16
 90
       25
 62
   256
340
16
 90
       25
 62
   256
280
     0
  0
LAYOUT
  5
1E
102
{ACAD_REACTORS
330
1A
102
}
330
1A
100
AcDbPlotSettings
  1

  2
\\KTXNTBDC\CASF2PN1
  4

  6

 40
0.0
 41
0.0
 42
0.0
 43
0.0
 44
0.0
 45
0.0
 46
0.0
 47
0.0
 48
0.0
 49
0.0
140
0.0
141
0.0
142
1.0
143
1.0
 70
   688
 72
     0
 73
     0
 74
     5
  7

 75
    16
147
1.0
 76
     0
 77
     2
 78
   300
148
0.0
149
0.0
100
AcDbLayout
  1
Layout1
 70
     1
 71
     1
 10
0.0
 20
0.0
 11
12.0
 21
9.0
 12
0.0
 22
0.0
 32
0.0
 14
1.000000000000000E+20
 24
1.000000000000000E+20
 34
1.000000000000000E+20
 15
-1.000000000000000E+20
 25
-1.000000000000000E+20
 35
-1.000000000000000E+20
146
0.0
 13
0.0
 23
0.0
 33
0.0
 16
1.0
 26
0.0
 36
0.0
 17
0.0
 27
1.0
 37
0.0
 76
     0
330
1B
  0
LAYOUT
  5
26
102
{ACAD_REACTORS
330
1A
102
}
330
1A
100
AcDbPlotSettings
  1

  2
\\KTXNTBDC\CASF2PN1
  4

  6

 40
0.0
 41
0.0
 42
0.0
 43
0.0
 44
0.0
 45
0.0
 46
0.0
 47
0.0
 48
0.0
 49
0.0
140
0.0
141
0.0
142
1.0
143
1.0
 70
   688
 72
     0
 73
     0
 74
     5
  7

 75
    16
147
1.0
 76
     0
 77
     2
 78
   300
148
0.0
149
0.0
100
AcDbLayout
  1
Layout2
 70
     1
 71
     2
 10
0.0
 20
0.0
 11
12.0
 21
9.0
 12
0.0
 22
0.0
 32
0.0
 14
0.0
 24
0.0
 34
0.0
 15
0.0
 25
0.0
 35
0.0
146
0.0
 13
0.0
 23
0.0
 33
0.0
 16
1.0
 26
0.0
 36
0.0
 17
0.0
 27
1.0
 37
0.0
 76
     0
330
23
  0
LAYOUT
  5
22
102
{ACAD_REACTORS
330
1A
102
}
330
1A
100
AcDbPlotSettings
  1

  2
\\KTXNTBDC\CASF2PN1
  4

  6

 40
0.0
 41
0.0
 42
0.0
 43
0.0
 44
0.0
 45
0.0
 46
0.0
 47
0.0
 48
0.0
 49
0.0
140
0.0
141
0.0
142
1.0
143
1.0
 70
  1712
 72
     0
 73
     0
 74
     0
  7

 75
     0
147
1.0
 76
     0
 77
     2
 78
   300
148
0.0
149
0.0
100
AcDbLayout
  1
Model
 70
     1
 71
     0
 10
0.0
 20
0.0
 11
12.0
 21
9.0
 12
0.0
 22
0.0
 32
0.0
 14
0.0
 24
0.0
 34
0.0
 15
0.0
 25
0.0
 35
0.0
146
0.0
 13
0.0
 23
0.0
 33
0.0
 16
1.0
 26
0.0
 36
0.0
 17
0.0
 27
1.0
 37
0.0
 76
     0
330
1F
  0
MATERIAL
  5
B3
102
{ACAD_XDICTIONARY
360
B4
102
}
102
{ACAD_REACTORS
330
AA
102
}
330
AA
100
AcDbMaterial
  1
ByBlock
 72
     0
 43
0.0208333333333333
 43
0.0
 43
0.0
 43
0.0
 43
0.0
 43
0.0208333333333333
 43
0.0
 43
0.0
 43
0.0
 43
0.0
 43
1.0
 43
0.0
 43
0.0
 43
0.0
 43
0.0
 43
1.0
 77
     0
 47
0.0208333333333333
 47
0.0
 47
0.0
 47
0.0
 47
0.0
 47
0.0208333333333333
 47
0.0
 47
0.0
 47
0.0
 47
0.0
 47
1.0
 47
0.0
 47
0.0
 47
0.0
 47
0.0
 47
1.0
171
     0
 49
0.0208333333333333
 49
0.0
 49
0.0
 49
0.0
 49
0.0
 49
0.0208333333333333
 49
0.0
 49
0.0
 49
0.0
 49
0.0
 49
1.0
 49
0.0
 49
0.0
 49
0.0
 49
0.0
 49
1.0
175
     0
142
0.0208333333333333
142
0.0
142
0.0
142
0.0
142
0.0
142
0.0208333333333333
142
0.0
142
0.0
142
0.0
142
0.0
142
1.0
142
0.0
142
0.0
142
0.0
142
0.0
142
1.0
179
     0
144
0.0208333333333333
144
0.0
144
0.0
144
0.0
144
0.0
144
0.0208333333333333
144
0.0
144
0.0
144
0.0
144
0.0
144
1.0
144
0.0
144
0.0
144
0.0
144
0.0
144
1.0
147
0.0208333333333333
147
0.0
147
0.0
147
0.0
147
0.0
147
0.0208333333333333
147
0.0
147
0.0
147
0.0
147
0.0
147
1.0
147
0.0
147
0.0
147
0.0
147
0.0
147
1.0
  0
MATERIAL
  5
AB
102
{ACAD_XDICTIONARY
360
AC
102
}
102
{ACAD_REACTORS
330
AA
102
}
330
AA
100
AcDbMaterial
  1
ByLayer
 72
     0
 43
0.0208333333333333
 43
0.0
 43
0.0
 43
0.0
 43
0.0
 43
0.0208333333333333
 43
0.0
 43
0.0
 43
0.0
 43
0.0
 43
1.0
 43
0.0
 43
0.0
 43
0.0
 43
0.0
 43
1.0
 77
     0
 47
0.0208333333333333
 47
0.0
 47
0.0
 47
0.0
 47
0.0
 47
0.0208333333333333
 47
0.0
 47
0.0
 47
0.0
 47
0.0
 47
1.0
 47
0.0
 47
0.0
 47
0.0
 47
0.0
 47
1.0
171
     0
 49
0.0208333333333333
 49
0.0
 49
0.0
 49
0.0
 49
0.0
 49
0.0208333333333333
 49
0.0
 49
0.0
 49
0.0
 49
0.0
 49
1.0
 49
0.0
 49
0.0
 49
0.0
 49
0.0
 49
1.0
175
     0
142
0.0208333333333333
142
0.0
142
0.0
142
0.0
142
0.0
142
0.0208333333333333
142
0.0
142
0.0
142
0.0
142
0.0
142
1.0
142
0.0
142
0.0
142
0.0
142
0.0
142
1.0
179
     0
144
0.0208333333333333
144
0.0
144
0.0
144
0.0
144
0.0
144
0.0208333333333333
144
0.0
144
0.0
144
0.0
144
0.0
144
1.0
144
0.0
144
0.0
144
0.0
144
0.0
144
1.0
147
0.0208333333333333
147
0.0
147
0.0
147
0.0
147
0.0
147
0.0208333333333333
147
0.0
147
0.0
147
0.0
147
0.0
147
1.0
147
0.0
147
0.0
147
0.0
147
0.0
147
1.0
  0
MATERIAL
  5
BB
102
{ACAD_XDICTIONARY
360
BC
102
}
102
{ACAD_REACTORS
330
AA
102
}
330
AA
100
AcDbMaterial
  1
Global
 72
     0
 43
0.0208333333333333
 43
0.0
 43
0.0
 43
0.0
 43
0.0
 43
0.0208333333333333
 43
0.0
 43
0.0
 43
0.0
 43
0.0
 43
1.0
 43
0.0
 43
0.0
 43
0.0
 43
0.0
 43
1.0
 77
     0
 47
0.0208333333333333
 47
0.0
 47
0.0
 47
0.0
 47
0.0
 47
0.0208333333333333
 47
0.0
 47
0.0
 47
0.0
 47
0.0
 47
1.0
 47
0.0
 47
0.0
 47
0.0
 47
0.0
 47
1.0
171
     0
 49
0.0208333333333333
 49
0.0
 49
0.0
 49
0.0
 49
0.0
 49
0.0208333333333333
 49
0.0
 49
0.0
 49
0.0
 49
0.0
 49
1.0
 49
0.0
 49
0.0
 49
0.0
 49
0.0
 49
1.0
175
     0
142
0.0208333333333333
142
0.0
142
0.0
142
0.0
142
0.0
142
0.0208333333333333
142
0.0
142
0.0
142
0.0
142
0.0
142
1.0
142
0.0
142
0.0
142
0.0
142
0.0
142
1.0
179
     0
144
0.0208333333333333
144
0.0
144
0.0
144
0.0
144
0.0
144
0.0208333333333333
144
0.0
144
0.0
144
0.0
144
0.0
144
1.0
144
0.0
144
0.0
144
0.0
144
0.0
144
1.0
147
0.0208333333333333
147
0.0
147
0.0
147
0.0
147
0.0
147
0.0208333333333333
147
0.0
147
0.0
147
0.0
147
0.0
147
1.0
147
0.0
147
0.0
147
0.0
147
0.0
147
1.0
  0
MLEADERSTYLE
  5
F2
102
{ACAD_XDICTIONARY
360
3C4
102
}
102
{ACAD_REACTORS
330
F1
102
}
330
F1
100
AcDbMLeaderStyle
179
     2
170
     2
171
     1
172
     0
 90
        2
 40
0.0
 41
0.0
173
     1
 91
-1056964608
340
14
 92
       -2
290
     1
 42
0.09
291
     1
 43
0.36
  3
Standard
 44
0.18
300

342
11
174
     1
178
     6
175
     1
176
     0
 93
-1056964608
 45
0.18
292
     0
297
     0
 46
0.18
 94
-1056964608
 47
1.0
 49
1.0
140
1.0
293
     1
141
0.0
294
     1
177
     0
142
1.0
295
     0
296
     0
143
0.125
271
     0
272
     9
273
     9
  0
MLINESTYLE
  5
18
102
{ACAD_REACTORS
330
17
102
}
330
17
100
AcDbMlineStyle
  2
STANDARD
 70
     0
  3

 62
   256
 51
90.0
 52
90.0
 71
     2
 49
0.5
 62
   256
  6
BYLAYER
 49
-0.5
 62
   256
  6
BYLAYER
  0
ACDBPLACEHOLDER
  5
2D
102
{ACAD_REACTORS
330
E
102
}
330
E
  0
ACDBPLACEHOLDER
  5
F
102
{ACAD_REACTORS
330
E
102
}
330
E
  0
SCALE
  5
E0
102
{ACAD_REACTORS
330
DF
102
}
330
DF
100
AcDbScale
 70
     0
300
1:1
140
1.0
141
1.0
290
     1
  0
SCALE
  5
E1
102
{ACAD_REACTORS
330
DF
102
}
330
DF
100
AcDbScale
 70
     0
300
1/128" = 1'-0"
140
0.0078125
141
12.0
290
     0
  0
SCALE
  5
E2
102
{ACAD_REACTORS
330
DF
102
}
330
DF
100
AcDbScale
 70
     0
300
1/64" = 1'-0"
140
0.015625
141
12.0
290
     0
  0
SCALE
  5
E3
102
{ACAD_REACTORS
330
DF
102
}
330
DF
100
AcDbScale
 70
     0
300
1/32" = 1'-0"
140
0.03125
141
12.0
290
     0
  0
SCALE
  5
E4
102
{ACAD_REACTORS
330
DF
102
}
330
DF
100
AcDbScale
 70
     0
300
1/16" = 1'-0"
140
0.0625
141
12.0
290
     0
  0
SCALE
  5
E5
102
{ACAD_REACTORS
330
DF
102
}
330
DF
100
AcDbScale
 70
     0
300
3/32" = 1'-0"
140
0.09375
141
12.0
290
     0
  0
SCALE
  5
E6
102
{ACAD_REACTORS
330
DF
102
}
330
DF
100
AcDbScale
 70
     0
300
1/8" = 1'-0"
140
0.125
141
12.0
290
     0
  0
SCALE
  5
E7
102
{ACAD_REACTORS
330
DF
102
}
330
DF
100
AcDbScale
 70
     0
300
3/16" = 1'-0"
140
0.1875
141
12.0
290
     0
  0
SCALE
  5
E8
102
{ACAD_REACTORS
330
DF
102
}
330
DF
100
AcDbScale
 70
     0
300
1/4" = 1'-0"
140
0.25
141
12.0
290
     0
  0
SCALE
  5
E9
102
{ACAD_REACTORS
330
DF
102
}
330
DF
100
AcDbScale
 70
     0
300
3/8" = 1'-0"
140
0.375
141
12.0
290
     0
  0
SCALE
  5
EA
102
{ACAD_REACTORS
330
DF
102
}
330
DF
100
AcDbScale
 70
     0
300
1/2" = 1'-0"
140
0.5
141
12.0
290
     0
  0
SCALE
  5
EB
102
{ACAD_REACTORS
330
DF
102
}
330
DF
100
AcDbScale
 70
     0
300
3/4" = 1'-0"
140
0.75
141
12.0
290
     0
  0
SCALE
  5
EC
102
{ACAD_REACTORS
330
DF
102
}
330
DF
100
AcDbScale
 70
     0
300
1" = 1'-0"
140
1.0
141
12.0
290
     0
  0
SCALE
  5
ED
102
{ACAD_REACTORS
330
DF
102
}
330
DF
100
AcDbScale
 70
     0
300
1-1/2" = 1'-0"
140
1.5
141
12.0
290
     0
  0
SCALE
  5
EE
102
{ACAD_REACTORS
330
DF
102
}
330
DF
100
AcDbScale
 70
     0
300
3" = 1'-0"
140
3.0
141
12.0
290
     0
  0
SCALE
  5
EF
102
{ACAD_REACTORS
330
DF
102
}
330
DF
100
AcDbScale
 70
     0
300
6" = 1'-0"
140
6.0
141
12.0
290
     0
  0
SCALE
  5
F0
102
{ACAD_REACTORS
330
DF
102
}
330
DF
100
AcDbScale
 70
     0
300
1'-0" = 1'-0"
140
12.0
141
12.0
290
     0
  0
ACDBSECTIONVIEWSTYLE
  5
F4
102
{ACAD_XDICTIONARY
360
3C6
102
}
102
{ACAD_REACTORS
330
F3
102
}
330
F3
100
AcDbModelDocViewStyle
 70
     0
  3
Imperial24
290
     0
100
AcDbSectionViewStyle
 70
     0
 71
     0
 90
       78
 71
     1
340
11
 62
   256
 40
0.24
340
0
340
0
 62
   256
 40
0.24
300
I, O, Q, S, X, Z
 40
0.48
 90
        3
 40
0.18
 90
        1
 71
     2
340
16
 90
       25
 62
   256
340
16
 90
       50
 62
   256
 40
0.24
 40
0.0
 40
0.24
 71
     3
340
11
 62
   256
 40
0.24
 90
        1
 40
0.75
 90
        1
300
%<\AcVar ViewType \f "%tc1">% %<\AcVar ViewSectionStartId>%-%<\AcVar ViewSectionEndId>%\PSCALE %<\AcVar ViewScale \f "%sn">%
 71
     4
 62
   256
 62
   257
300
ANSI31
 40
1.0
 90
        0
290
     0
290
     0
 90
        6
 40
0.0
 40
1.570796326794896
 40
0.2617993877991494
 40
1.308996938995747
 40
-0.2617993877991494
 40
1.832595714594046
  0
TABLESTYLE
  5
DE
102
{ACAD_XDICTIONARY
360
391
102
}
102
{ACAD_REACTORS
330
DD
102
}
330
DD
100
AcDbTableStyle
280
     0
  3
Standard
 70
     0
 71
     0
 40
0.06
 41
0.06
280
     0
281
     0
  7
Standard
140
0.18
170
     2
 62
     0
 63
     7
283
     0
 90
      512
 91
        0
  1

274
    -2
284
     1
 64
     0
275
    -2
285
     1
 65
     0
276
    -2
286
     1
 66
     0
277
    -2
287
     1
 67
     0
278
    -2
288
     1
 68
     0
279
    -2
289
     1
 69
     0
  7
Standard
140
0.25
170
     5
 62
     0
 63
     7
283
     0
 90
      512
 91
        0
  1

274
    -2
284
     1
 64
     0
275
    -2
285
     1
 65
     0
276
    -2
286
     1
 66
     0
277
    -2
287
     1
 67
     0
278
    -2
288
     1
 68
     0
279
    -2
289
     1
 69
     0
  7
Standard
140
0.18
170
     5
 62
     0
 63
     7
283
     0
 90
      512
 91
        0
  1

274
    -2
284
     1
 64
     0
275
    -2
285
     1
 65
     0
276
    -2
286
     1
 66
     0
277
    -2
287
     1
 67
     0
278
    -2
288
     1
 68
     0
279
    -2
289
     1
 69
     0
  0
VISUALSTYLE
  5
C9
102
{ACAD_XDICTIONARY
360
39E
102
}
102
{ACAD_REACTORS
330
C3
102
}
330
C3
100
AcDbVisualStyle
  2
2dWireframe
 70
     4
177
     2
291
     0
 71
     0
176
     1
 72
     2
176
     1
 73
     0
176
     1
 90
        0
176
     1
 40
0.6
176
     1
 41
30.0
176
     1
 63
     7
421
 16777215
176
     1
 74
     1
176
     1
 91
        4
176
     1
 64
     7
176
     1
 65
   257
176
     1
 75
     1
176
     1
175
     1
176
     1
 42
1.0
176
     1
 92
        0
176
     1
 66
   257
176
     1
 43
1.0
176
     1
 76
     1
176
     1
 77
     6
176
     1
 78
     2
176
     1
 67
     7
176
     1
 79
     5
176
     1
170
     0
176
     1
171
     0
176
     1
290
     0
176
     1
 93
        1
176
     1
 44
0.0
176
     1
173
     0
176
     1
1001
ACAD
1000
AcDbSavedByObjectVersion
1070
     0
  0
VISUALSTYLE
  5
C8
102
{ACAD_XDICTIONARY
360
39C
102
}
102
{ACAD_REACTORS
330
C3
102
}
330
C3
100
AcDbVisualStyle
  2
Basic
 70
     7
177
     2
291
     1
 71
     1
176
     1
 72
     0
176
     1
 73
     1
176
     1
 90
        0
176
     1
 40
0.6
176
     1
 41
30.0
176
     1
 63
     7
421
 16777215
176
     1
 74
     0
176
     1
 91
        4
176
     1
 64
     7
176
     1
 65
   257
176
     1
 75
     1
176
     1
175
     1
176
     1
 42
1.0
176
     1
 92
        8
176
     1
 66
     7
176
     1
 43
1.0
176
     1
 76
     1
176
     1
 77
     6
176
     1
 78
     2
176
     1
 67
     7
176
     1
 79
     5
176
     1
170
     0
176
     1
171
     0
176
     1
290
     0
176
     1
 93
        1
176
     1
 44
0.0
176
     1
173
     0
176
     1
1001
ACAD
1000
AcDbSavedByObjectVersion
1070
     0
  0
VISUALSTYLE
  5
CF
102
{ACAD_XDICTIONARY
360
3AA
102
}
102
{ACAD_REACTORS
330
C3
102
}
330
C3
100
AcDbVisualStyle
  2
Brighten
 70
    12
177
     2
291
     1
 71
     2
176
     1
 72
     2
176
     1
 73
     0
176
     1
 90
        0
176
     1
 40
0.6
176
     1
 41
30.0
176
     1
 63
     7
421
 16777215
176
     1
 74
     1
176
     1
 91
        4
176
     1
 64
     7
176
     1
 65
   257
176
     1
 75
     1
176
     1
175
     1
176
     1
 42
1.0
176
     1
 92
        8
176
     1
 66
     7
176
     1
 43
1.0
176
     1
 76
     1
176
     1
 77
     6
176
     1
 78
     2
176
     1
 67
     7
176
     1
 79
     5
176
     1
170
     0
176
     1
171
     0
176
     1
290
     0
176
     1
 93
        1
176
     1
 44
50.0
176
     1
173
     0
176
     1
1001
ACAD
1000
AcDbSavedByObjectVersion
1070
     0
  0
VISUALSTYLE
  5
D3
102
{ACAD_XDICTIONARY
360
3B2
102
}
102
{ACAD_REACTORS
330
C3
102
}
330
C3
100
AcDbVisualStyle
  2
ColorChange
 70
    16
177
     2
291
     1
 71
     2
176
     1
 72
     2
176
     1
 73
     3
176
     1
 90
        0
176
     1
 40
0.6
176
     1
 41
30.0
176
     1
 63
     8
421
  8421504
176
     1
 74
     1
176
     1
 91
        4
176
     1
 64
     7
176
     1
 65
   257
176
     1
 75
     1
176
     1
175
     1
176
     1
 42
1.0
176
     1
 92
        8
176
     1
 66
     8
424
  8421504
176
     1
 43
1.0
176
     1
 76
     1
176
     1
 77
     6
176
     1
 78
     2
176
     1
 67
     7
176
     1
 79
     5
176
     1
170
     0
176
     1
171
     0
176
     1
290
     0
176
     1
 93
        1
176
     1
 44
0.0
176
     1
173
     0
176
     1
1001
ACAD
1000
AcDbSavedByObjectVersion
1070
     0
  0
VISUALSTYLE
  5
CC
102
{ACAD_XDICTIONARY
360
3A4
102
}
102
{ACAD_REACTORS
330
C3
102
}
330
C3
100
AcDbVisualStyle
  2
Conceptual
 70
     9
177
     2
291
     0
 71
     3
176
     1
 72
     2
176
     1
 73
     0
176
     1
 90
        0
176
     1
 40
0.6
176
     1
 41
30.0
176
     1
 63
     7
421
 16777215
176
     1
 74
     2
176
     1
 91
        2
176
     1
 64
     7
176
     1
 65
   257
176
     1
 75
     1
176
     1
175
     1
176
     1
 42
179.0
176
     1
 92
        8
176
     1
 66
     7
176
     1
 43
1.0
176
     1
 76
     1
176
     1
 77
     6
176
     1
 78
     2
176
     1
 67
     7
176
     1
 79
     3
176
     1
170
     0
176
     1
171
     0
176
     1
290
     0
176
     1
 93
        1
176
     1
 44
0.0
176
     1
173
     0
176
     1
1001
ACAD
1000
AcDbSavedByObjectVersion
1070
     0
  0
VISUALSTYLE
  5
CE
102
{ACAD_XDICTIONARY
360
3A8
102
}
102
{ACAD_REACTORS
330
C3
102
}
330
C3
100
AcDbVisualStyle
  2
Dim
 70
    11
177
     2
291
     1
 71
     2
176
     1
 72
     2
176
     1
 73
     0
176
     1
 90
        0
176
     1
 40
0.6
176
     1
 41
30.0
176
     1
 63
     7
421
 16777215
176
     1
 74
     1
176
     1
 91
        4
176
     1
 64
     7
176
     1
 65
   257
176
     1
 75
     1
176
     1
175
     1
176
     1
 42
1.0
176
     1
 92
        8
176
     1
 66
     7
176
     1
 43
1.0
176
     1
 76
     1
176
     1
 77
     6
176
     1
 78
     2
176
     1
 67
     7
176
     1
 79
     5
176
     1
170
     0
176
     1
171
     0
176
     1
290
     0
176
     1
 93
        1
176
     1
 44
-50.0
176
     1
173
     0
176
     1
1001
ACAD
1000
AcDbSavedByObjectVersion
1070
     0
  0
VISUALSTYLE
  5
DB
102
{ACAD_XDICTIONARY
360
3C2
102
}
102
{ACAD_REACTORS
330
C3
102
}
330
C3
100
AcDbVisualStyle
  2
EdgeColorOff
 70
    22
177
     2
291
     1
 71
     2
176
     0
 72
     2
176
     0
 73
     0
176
     0
 90
        0
176
     0
 40
0.6
176
     0
 41
30.0
176
     0
 63
     7
421
 16777215
176
     0
 74
     1
176
     0
 91
        4
176
     0
 64
     7
176
     0
 65
   257
176
     0
 75
     1
176
     0
175
     1
176
     0
 42
1.0
176
     0
 92
        8
176
     2
 66
     7
176
     0
 43
1.0
176
     0
 76
     1
176
     0
 77
     6
176
     0
 78
     2
176
     0
 67
     7
176
     0
 79
     5
176
     0
170
     0
176
     0
171
     0
176
     0
290
     0
176
     0
 93
        1
176
     0
 44
0.0
176
     0
173
     0
176
     0
1001
ACAD
1000
AcDbSavedByObjectVersion
1070
     0
  0
VISUALSTYLE
  5
D2
102
{ACAD_XDICTIONARY
360
3B0
102
}
102
{ACAD_REACTORS
330
C3
102
}
330
C3
100
AcDbVisualStyle
  2
Facepattern
 70
    15
177
     2
291
     1
 71
     2
176
     1
 72
     2
176
     1
 73
     0
176
     1
 90
        0
176
     1
 40
0.6
176
     1
 41
30.0
176
     1
 63
     7
421
 16777215
176
     1
 74
     1
176
     1
 91
        4
176
     1
 64
     7
176
     1
 65
   257
176
     1
 75
     1
176
     1
175
     1
176
     1
 42
1.0
176
     1
 92
        8
176
     1
 66
     7
176
     1
 43
1.0
176
     1
 76
     1
176
     1
 77
     6
176
     1
 78
     2
176
     1
 67
     7
176
     1
 79
     5
176
     1
170
     0
176
     1
171
     0
176
     1
290
     0
176
     1
 93
        1
176
     1
 44
0.0
176
     1
173
     0
176
     1
1001
ACAD
1000
AcDbSavedByObjectVersion
1070
     0
  0
VISUALSTYLE
  5
C4
102
{ACAD_XDICTIONARY
360
394
102
}
102
{ACAD_REACTORS
330
C3
102
}
330
C3
100
AcDbVisualStyle
  2
Flat
 70
     0
177
     2
291
     1
 71
     2
176
     1
 72
     1
176
     1
 73
     1
176
     1
 90
        2
176
     1
 40
0.6
176
     1
 41
30.0
176
     1
 63
     7
421
 16777215
176
     1
 74
     0
176
     1
 91
        0
176
     1
 64
     7
176
     1
 65
   257
176
     1
 75
     1
176
     1
175
     1
176
     1
 42
1.0
176
     1
 92
        8
176
     1
 66
     7
176
     1
 43
1.0
176
     1
 76
     1
176
     1
 77
     6
176
     1
 78
     2
176
     1
 67
     7
176
     1
 79
     5
176
     1
170
     0
176
     1
171
     0
176
     1
290
     0
176
     1
 93
       13
176
     1
 44
0.0
176
     1
173
     0
176
     1
1001
ACAD
1000
AcDbSavedByObjectVersion
1070
     0
  0
VISUALSTYLE
  5
C5
102
{ACAD_XDICTIONARY
360
396
102
}
102
{ACAD_REACTORS
330
C3
102
}
330
C3
100
AcDbVisualStyle
  2
FlatWithEdges
 70
     1
177
     2
291
     1
 71
     2
176
     1
 72
     1
176
     1
 73
     1
176
     1
 90
        2
176
     1
 40
0.6
176
     1
 41
30.0
176
     1
 63
     7
421
 16777215
176
     1
 74
     1
176
     1
 91
        0
176
     1
 64
     7
176
     1
 65
   257
176
     1
 75
     1
176
     1
175
     1
176
     1
 42
1.0
176
     1
 92
        0
176
     1
 66
   257
176
     1
 43
1.0
176
     1
 76
     1
176
     1
 77
     6
176
     1
 78
     2
176
     1
 67
     7
176
     1
 79
     5
176
     1
170
     0
176
     1
171
     0
176
     1
290
     0
176
     1
 93
       13
176
     1
 44
0.0
176
     1
173
     0
176
     1
1001
ACAD
1000
AcDbSavedByObjectVersion
1070
     0
  0
VISUALSTYLE
  5
C6
102
{ACAD_XDICTIONARY
360
398
102
}
102
{ACAD_REACTORS
330
C3
102
}
330
C3
100
AcDbVisualStyle
  2
Gouraud
 70
     2
177
     2
291
     1
 71
     2
176
     1
 72
     2
176
     1
 73
     1
176
     1
 90
        2
176
     1
 40
0.6
176
     1
 41
30.0
176
     1
 63
     7
421
 16777215
176
     1
 74
     0
176
     1
 91
        0
176
     1
 64
     7
176
     1
 65
   257
176
     1
 75
     1
176
     1
175
     1
176
     1
 42
1.0
176
     1
 92
        0
176
     1
 66
     7
176
     1
 43
1.0
176
     1
 76
     1
176
     1
 77
     6
176
     1
 78
     2
176
     1
 67
     7
176
     1
 79
     5
176
     1
170
     0
176
     1
171
     0
176
     1
290
     0
176
     1
 93
       13
176
     1
 44
0.0
176
     1
173
     0
176
     1
1001
ACAD
1000
AcDbSavedByObjectVersion
1070
     0
  0
VISUALSTYLE
  5
C7
102
{ACAD_XDICTIONARY
360
39A
102
}
102
{ACAD_REACTORS
330
C3
102
}
330
C3
100
AcDbVisualStyle
  2
GouraudWithEdges
 70
     3
177
     2
291
     1
 71
     2
176
     1
 72
     2
176
     1
 73
     1
176
     1
 90
        2
176
     1
 40
0.6
176
     1
 41
30.0
176
     1
 63
     7
421
 16777215
176
     1
 74
     1
176
     1
 91
        0
176
     1
 64
     7
176
     1
 65
   257
176
     1
 75
     1
176
     1
175
     1
176
     1
 42
1.0
176
     1
 92
        0
176
     1
 66
   257
176
     1
 43
1.0
176
     1
 76
     1
176
     1
 77
     6
176
     1
 78
     2
176
     1
 67
     7
176
     1
 79
     5
176
     1
170
     0
176
     1
171
     0
176
     1
290
     0
176
     1
 93
       13
176
     1
 44
0.0
176
     1
173
     0
176
     1
1001
ACAD
1000
AcDbSavedByObjectVersion
1070
     0
  0
VISUALSTYLE
  5
CB
102
{ACAD_XDICTIONARY
360
3A2
102
}
102
{ACAD_REACTORS
330
C3
102
}
330
C3
100
AcDbVisualStyle
  2
Hidden
 70
     6
177
     2
291
     0
 71
     1
176
     1
 72
     2
176
     1
 73
     2
176
     1
 90
        0
176
     1
 40
0.6
176
     1
 41
30.0
176
     1
 63
     7
421
 16777215
176
     1
 74
     2
176
     1
 91
        2
176
     1
 64
     7
176
     1
 65
   257
176
     1
 75
     2
176
     1
175
     1
176
     1
 42
40.0
176
     1
 92
        0
176
     1
 66
   257
176
     1
 43
1.0
176
     1
 76
     1
176
     1
 77
     6
176
     1
 78
     2
176
     1
 67
     7
176
     1
 79
     3
176
     1
170
     0
176
     1
171
     0
176
     1
290
     0
176
     1
 93
        1
176
     1
 44
0.0
176
     1
173
     0
176
     1
1001
ACAD
1000
AcDbSavedByObjectVersion
1070
     0
  0
VISUALSTYLE
  5
D9
102
{ACAD_XDICTIONARY
360
3BE
102
}
102
{ACAD_REACTORS
330
C3
102
}
330
C3
100
AcDbVisualStyle
  2
JitterOff
 70
    20
177
     2
291
     1
 71
     2
176
     0
 72
     2
176
     0
 73
     0
176
     0
 90
        0
176
     0
 40
0.6
176
     0
 41
30.0
176
     0
 63
     7
421
 16777215
176
     0
 74
     1
176
     0
 91
        4
176
     0
 64
     7
176
     0
 65
   257
176
     0
 75
     1
176
     0
175
     1
176
     0
 42
1.0
176
     0
 92
       10
176
     2
 66
     7
176
     0
 43
1.0
176
     0
 76
     1
176
     0
 77
     6
176
     0
 78
     2
176
     0
 67
     7
176
     0
 79
     5
176
     0
170
     0
176
     0
171
     0
176
     0
290
     0
176
     0
 93
        1
176
     0
 44
0.0
176
     0
173
     0
176
     0
1001
ACAD
1000
AcDbSavedByObjectVersion
1070
     0
  0
VISUALSTYLE
  5
D1
102
{ACAD_XDICTIONARY
360
3AE
102
}
102
{ACAD_REACTORS
330
C3
102
}
330
C3
100
AcDbVisualStyle
  2
Linepattern
 70
    14
177
     2
291
     1
 71
     2
176
     1
 72
     2
176
     1
 73
     0
176
     1
 90
        0
176
     1
 40
0.6
176
     1
 41
30.0
176
     1
 63
     7
421
 16777215
176
     1
 74
     1
176
     1
 91
        4
176
     1
 64
     7
176
     1
 65
   257
176
     1
 75
     7
176
     1
175
     7
176
     1
 42
1.0
176
     1
 92
        8
176
     1
 66
     7
176
     1
 43
1.0
176
     1
 76
     1
176
     1
 77
     6
176
     1
 78
     2
176
     1
 67
     7
176
     1
 79
     5
176
     1
170
     0
176
     1
171
     0
176
     1
290
     0
176
     1
 93
        1
176
     1
 44
0.0
176
     1
173
     0
176
     1
1001
ACAD
1000
AcDbSavedByObjectVersion
1070
     0
  0
VISUALSTYLE
  5
DA
102
{ACAD_XDICTIONARY
360
3C0
102
}
102
{ACAD_REACTORS
330
C3
102
}
330
C3
100
AcDbVisualStyle
  2
OverhangOff
 70
    21
177
     2
291
     1
 71
     2
176
     0
 72
     2
176
     0
 73
     0
176
     0
 90
        0
176
     0
 40
0.6
176
     0
 41
30.0
176
     0
 63
     7
421
 16777215
176
     0
 74
     1
176
     0
 91
        4
176
     0
 64
     7
176
     0
 65
   257
176
     0
 75
     1
176
     0
175
     1
176
     0
 42
1.0
176
     0
 92
        9
176
     2
 66
     7
176
     0
 43
1.0
176
     0
 76
     1
176
     0
 77
     6
176
     0
 78
     2
176
     0
 67
     7
176
     0
 79
     5
176
     0
170
     0
176
     0
171
     0
176
     0
290
     0
176
     0
 93
        1
176
     0
 44
0.0
176
     0
173
     0
176
     0
1001
ACAD
1000
AcDbSavedByObjectVersion
1070
     0
  0
VISUALSTYLE
  5
CD
102
{ACAD_XDICTIONARY
360
3A6
102
}
102
{ACAD_REACTORS
330
C3
102
}
330
C3
100
AcDbVisualStyle
  2
Realistic
 70
     8
177
     2
291
     0
 71
     2
176
     1
 72
     3
176
     1
 73
     0
176
     1
 90
        2
176
     1
 40
0.6
176
     1
 41
30.0
176
     1
 63
     7
421
 16777215
176
     1
 74
     0
176
     1
 91
        0
176
     1
 64
     7
176
     1
 65
   257
176
     1
 75
     1
176
     1
175
     1
176
     1
 42
1.0
176
     1
 92
        8
176
     1
 66
   257
176
     1
 43
1.0
176
     1
 76
     1
176
     1
 77
     6
176
     1
 78
     2
176
     1
 67
     7
176
     1
 79
     3
176
     1
170
     0
176
     1
171
     0
176
     1
290
     0
176
     1
 93
       13
176
     1
 44
0.0
176
     1
173
     0
176
     1
1001
ACAD
1000
AcDbSavedByObjectVersion
1070
     0
  0
VISUALSTYLE
  5
D8
102
{ACAD_XDICTIONARY
360
3BC
102
}
102
{ACAD_REACTORS
330
C3
102
}
330
C3
100
AcDbVisualStyle
  2
Shaded
 70
    27
177
     2
291
     0
 71
     2
176
     1
 72
     2
176
     1
 73
     1
176
     1
 90
        2
176
     1
 40
0.6
176
     1
 41
30.0
176
     1
 63
     7
421
 16777215
176
     1
 74
     0
176
     1
 91
        4
176
     1
 64
     7
176
     1
 65
   257
176
     1
 75
     1
176
     1
175
     1
176
     1
 42
1.0
176
     1
 92
        8
176
     1
 66
   257
176
     1
 43
1.0
176
     1
 76
     1
176
     1
 77
     6
176
     1
 78
     2
176
     1
 67
     8
425
  7895160
176
     1
 79
     3
176
     1
170
     0
176
     1
171
     0
176
     1
290
     0
176
     1
 93
        5
176
     1
 44
0.0
176
     1
173
     0
176
     1
1001
ACAD
1000
AcDbSavedByObjectVersion
1070
     0
  0
VISUALSTYLE
  5
D7
102
{ACAD_XDICTIONARY
360
3BA
102
}
102
{ACAD_REACTORS
330
C3
102
}
330
C3
100
AcDbVisualStyle
  2
Shaded with edges
 70
    26
177
     2
291
     0
 71
     2
176
     1
 72
     2
176
     1
 73
     1
176
     1
 90
        2
176
     1
 40
0.6
176
     1
 41
30.0
176
     1
 63
     7
421
 16777215
176
     1
 74
     1
176
     1
 91
        2
176
     1
 64
     7
176
     1
 65
   257
176
     1
 75
     2
176
     1
175
     1
176
     1
 42
1.0
176
     1
 92
        8
176
     1
 66
   257
176
     1
 43
1.0
176
     1
 76
     1
176
     1
 77
     6
176
     1
 78
     2
176
     1
 67
     7
176
     1
 79
     3
176
     1
170
     0
176
     1
171
     0
176
     1
290
     0
176
     1
 93
        5
176
     1
 44
0.0
176
     1
173
     0
176
     1
1001
ACAD
1000
AcDbSavedByObjectVersion
1070
     0
  0
VISUALSTYLE
  5
D4
102
{ACAD_XDICTIONARY
360
3B4
102
}
102
{ACAD_REACTORS
330
C3
102
}
330
C3
100
AcDbVisualStyle
  2
Shades of Gray
 70
    23
177
     2
291
     0
 71
     2
176
     1
 72
     2
176
     1
 73
     3
176
     1
 90
        0
176
     1
 40
0.6
176
     1
 41
30.0
176
     1
 63
     7
421
 16777215
176
     1
 74
     2
176
     1
 91
        2
176
     1
 64
     7
176
     1
 65
     7
176
     1
 75
     1
176
     1
175
     1
176
     1
 42
40.0
176
     1
 92
        8
176
     1
 66
     7
176
     1
 43
1.0
176
     1
 76
     1
176
     1
 77
     6
176
     1
 78
     2
176
     1
 67
     7
176
     1
 79
     3
176
     1
170
     0
176
     1
171
     0
176
     1
290
     0
176
     1
 93
        1
176
     1
 44
0.0
176
     1
173
     0
176
     1
1001
ACAD
1000
AcDbSavedByObjectVersion
1070
     0
  0
VISUALSTYLE
  5
D5
102
{ACAD_XDICTIONARY
360
3B6
102
}
102
{ACAD_REACTORS
330
C3
102
}
330
C3
100
AcDbVisualStyle
  2
Sketchy
 70
    24
177
     2
291
     0
 71
     1
176
     1
 72
     2
176
     1
 73
     2
176
     1
 90
        0
176
     1
 40
0.6
176
     1
 41
30.0
176
     1
 63
     7
421
 16777215
176
     1
 74
     2
176
     1
 91
        2
176
     1
 64
     7
176
     1
 65
     7
176
     1
 75
     1
176
     1
175
     1
176
     1
 42
40.0
176
     1
 92
       11
176
     1
 66
     7
176
     1
 43
1.0
176
     1
 76
     1
176
     1
 77
     6
176
     1
 78
     2
176
     1
 67
     7
176
     1
 79
     6
176
     1
170
     0
176
     1
171
     0
176
     1
290
     0
176
     1
 93
        1
176
     1
 44
0.0
176
     1
173
     0
176
     1
1001
ACAD
1000
AcDbSavedByObjectVersion
1070
     0
  0
VISUALSTYLE
  5
D0
102
{ACAD_XDICTIONARY
360
3AC
102
}
102
{ACAD_REACTORS
330
C3
102
}
330
C3
100
AcDbVisualStyle
  2
Thicken
 70
    13
177
     2
291
     1
 71
     2
176
     1
 72
     2
176
     1
 73
     0
176
     1
 90
        0
176
     1
 40
0.6
176
     1
 41
30.0
176
     1
 63
     7
421
 16777215
176
     1
 74
     1
176
     1
 91
        4
176
     1
 64
     7
176
     1
 65
   257
176
     1
 75
     1
176
     1
175
     1
176
     1
 42
1.0
176
     1
 92
       12
176
     1
 66
     7
176
     1
 43
1.0
176
     1
 76
     1
176
     1
 77
     6
176
     1
 78
     2
176
     1
 67
     7
176
     1
 79
     5
176
     1
170
     0
176
     1
171
     0
176
     1
290
     0
176
     1
 93
        1
176
     1
 44
0.0
176
     1
173
     0
176
     1
1001
ACAD
1000
AcDbSavedByObjectVersion
1070
     0
  0
VISUALSTYLE
  5
CA
102
{ACAD_XDICTIONARY
360
3A0
102
}
102
{ACAD_REACTORS
330
C3
102
}
330
C3
100
AcDbVisualStyle
  2
Wireframe
 70
     5
177
     2
291
     0
 71
     0
176
     1
 72
     2
176
     1
 73
     0
176
     1
 90
        0
176
     1
 40
0.6
176
     1
 41
30.0
176
     1
 63
     7
421
 16777215
176
     1
 74
     1
176
     1
 91
        4
176
     1
 64
     7
176
     1
 65
   257
176
     1
 75
     1
176
     1
175
     1
176
     1
 42
1.0
176
     1
 92
        0
176
     1
 66
   257
176
     1
 43
1.0
176
     1
 76
     1
176
     1
 77
     6
176
     1
 78
     2
176
     1
 67
     7
176
     1
 79
     3
176
     1
170
     0
176
     1
171
     0
176
     1
290
     0
176
     1
 93
        1
176
     1
 44
0.0
176
     1
173
     0
176
     1
1001
ACAD
1000
AcDbSavedByObjectVersion
1070
     0
  0
VISUALSTYLE
  5
D6
102
{ACAD_XDICTIONARY
360
3B8
102
}
102
{ACAD_REACTORS
330
C3
102
}
330
C3
100
AcDbVisualStyle
  2
X-Ray
 70
    25
177
     2
291
     0
 71
     2
176
     1
 72
     2
176
     1
 73
     1
176
     1
 90
        1
176
     1
 40
0.5
176
     1
 41
30.0
176
     1
 63
     7
421
 16777215
176
     1
 74
     1
176
     1
 91
        0
176
     1
 64
     7
176
     1
 65
   257
176
     1
 75
     1
176
     1
175
     1
176
     1
 42
1.0
176
     1
 92
        8
176
     1
 66
     7
176
     1
 43
1.0
176
     1
 76
     1
176
     1
 77
     6
176
     1
 78
     2
176
     1
 67
     7
176
     1
 79
     3
176
     1
170
     0
176
     1
171
     0
176
     1
290
     0
176
     1
 93
       13
176
     1
 44
0.0
176
     1
173
     0
176
     1
1001
ACAD
1000
AcDbSavedByObjectVersion
1070
     0
  0
DICTIONARYVAR
  5
38D
102
{ACAD_REACTORS
330
387
102
}
330
387
100
DictionaryVariables
280
     0
  1
1:1
  0
DICTIONARYVAR
  5
389
102
{ACAD_REACTORS
330
387
102
}
330
387
100
DictionaryVariables
280
     0
  1
STANDARD
  0
DICTIONARYVAR
  5
388
102
{ACAD_REACTORS
330
387
102
}
330
387
100
DictionaryVariables
280
     0
  1
STANDARD
  0
DICTIONARYVAR
  5
38A
102
{ACAD_REACTORS
330
387
102
}
330
387
100
DictionaryVariables
280
     0
  1
Imperial24
  0
DICTIONARYVAR
  5
38B
102
{ACAD_REACTORS
330
387
102
}
330
387
100
DictionaryVariables
280
     0
  1
Imperial24
  0
DICTIONARYVAR
  5
38F
102
{ACAD_REACTORS
330
387
102
}
330
387
100
DictionaryVariables
280
     0
  1
1
  0
DICTIONARYVAR
  5
390
102
{ACAD_REACTORS
330
387
102
}
330
387
100
DictionaryVariables
280
     0
  1
15
  0
DICTIONARYVAR
  5
38E
102
{ACAD_REACTORS
330
387
102
}
330
387
100
DictionaryVariables
280
     0
  1
0
  0
DICTIONARYVAR
  5
38C
102
{ACAD_REACTORS
330
387
102
}
330
387
100
DictionaryVariables
280
     0
  1
0
  0
DICTIONARY
  5
3C8
330
F6
100
AcDbDictionary
280
     1
281
     1
  3
ACAD_XREC_ROUNDTRIP
360
3C9
  0
DICTIONARY
  5
B4
330
B3
100
AcDbDictionary
280
     1
281
     1
  3
BUMPTILE
360
B6
  3
DIFFUSETILE
360
B5
  3
OPACITYTILE
360
B9
  3
REFLECTIONTILE
360
B8
  3
REFRACTIONTILE
360
BA
  3
SPECULARTILE
360
B7
  0
DICTIONARY
  5
AC
330
AB
100
AcDbDictionary
280
     1
281
     1
  3
BUMPTILE
360
AE
  3
DIFFUSETILE
360
AD
  3
OPACITYTILE
360
B1
  3
REFLECTIONTILE
360
B0
  3
REFRACTIONTILE
360
B2
  3
SPECULARTILE
360
AF
  0
DICTIONARY
  5
BC
330
BB
100
AcDbDictionary
280
     1
281
     1
  3
BUMPTILE
360
BE
  3
DIFFUSETILE
360
BD
  3
OPACITYTILE
360
C1
  3
REFLECTIONTILE
360
C0
  3
REFRACTIONTILE
360
C2
  3
SPECULARTILE
360
BF
  0
DICTIONARY
  5
3C4
330
F2
100
AcDbDictionary
280
     1
281
     1
  3
ACAD_XREC_ROUNDTRIP
360
3C5
  0
DICTIONARY
  5
3C6
330
F4
100
AcDbDictionary
280
     1
281
     1
  3
ACAD_XREC_ROUNDTRIP
360
3C7
  0
DICTIONARY
  5
391
330
DE
100
AcDbDictionary
280
     1
281
     1
  3
ACAD_ROUNDTRIP_2008_TABLESTYLE_CELLSTYLEMAP
360
392
  0
DICTIONARY
  5
39E
330
C9
100
AcDbDictionary
280
     1
281
     1
  3
ACAD_XREC_ROUNDTRIP
360
39F
  0
DICTIONARY
  5
39C
330
C8
100
AcDbDictionary
280
     1
281
     1
  3
ACAD_XREC_ROUNDTRIP
360
39D
  0
DICTIONARY
  5
3AA
330
CF
100
AcDbDictionary
280
     1
281
     1
  3
ACAD_XREC_ROUNDTRIP
360
3AB
  0
DICTIONARY
  5
3B2
330
D3
100
AcDbDictionary
280
     1
281
     1
  3
ACAD_XREC_ROUNDTRIP
360
3B3
  0
DICTIONARY
  5
3A4
330
CC
100
AcDbDictionary
280
     1
281
     1
  3
ACAD_XREC_ROUNDTRIP
360
3A5
  0
DICTIONARY
  5
3A8
330
CE
100
AcDbDictionary
280
     1
281
     1
  3
ACAD_XREC_ROUNDTRIP
360
3A9
  0
DICTIONARY
  5
3C2
330
DB
100
AcDbDictionary
280
     1
281
     1
  3
ACAD_XREC_ROUNDTRIP
360
3C3
  0
DICTIONARY
  5
3B0
330
D2
100
AcDbDictionary
280
     1
281
     1
  3
ACAD_XREC_ROUNDTRIP
360
3B1
  0
DICTIONARY
  5
394
330
C4
100
AcDbDictionary
280
     1
281
     1
  3
ACAD_XREC_ROUNDTRIP
360
395
  0
DICTIONARY
  5
396
330
C5
100
AcDbDictionary
280
     1
281
     1
  3
ACAD_XREC_ROUNDTRIP
360
397
  0
DICTIONARY
  5
398
330
C6
100
AcDbDictionary
280
     1
281
     1
  3
ACAD_XREC_ROUNDTRIP
360
399
  0
DICTIONARY
  5
39A
330
C7
100
AcDbDictionary
280
     1
281
     1
  3
ACAD_XREC_ROUNDTRIP
360
39B
  0
DICTIONARY
  5
3A2
330
CB
100
AcDbDictionary
280
     1
281
     1
  3
ACAD_XREC_ROUNDTRIP
360
3A3
  0
DICTIONARY
  5
3BE
330
D9
100
AcDbDictionary
280
     1
281
     1
  3
ACAD_XREC_ROUNDTRIP
360
3BF
  0
DICTIONARY
  5
3AE
330
D1
100
AcDbDictionary
280
     1
281
     1
  3
ACAD_XREC_ROUNDTRIP
360
3AF
  0
DICTIONARY
  5
3C0
330
DA
100
AcDbDictionary
280
     1
281
     1
  3
ACAD_XREC_ROUNDTRIP
360
3C1
  0
DICTIONARY
  5
3A6
330
CD
100
AcDbDictionary
280
     1
281
     1
  3
ACAD_XREC_ROUNDTRIP
360
3A7
  0
DICTIONARY
  5
3BC
330
D8
100
AcDbDictionary
280
     1
281
     1
  3
ACAD_XREC_ROUNDTRIP
360
3BD
  0
DICTIONARY
  5
3BA
330
D7
100
AcDbDictionary
280
     1
281
     1
  3
ACAD_XREC_ROUNDTRIP
360
3BB
  0
DICTIONARY
  5
3B4
330
D4
100
AcDbDictionary
280
     1
281
     1
  3
ACAD_XREC_ROUNDTRIP
360
3B5
  0
DICTIONARY
  5
3B6
330
D5
100
AcDbDictionary
280
     1
281
     1
  3
ACAD_XREC_ROUNDTRIP
360
3B7
  0
DICTIONARY
  5
3AC
330
D0
100
AcDbDictionary
280
     1
281
     1
  3
ACAD_XREC_ROUNDTRIP
360
3AD
  0
DICTIONARY
  5
3A0
330
CA
100
AcDbDictionary
280
     1
281
     1
  3
ACAD_XREC_ROUNDTRIP
360
3A1
  0
DICTIONARY
  5
3B8
330
D6
100
AcDbDictionary
280
     1
281
     1
  3
ACAD_XREC_ROUNDTRIP
360
3B9
  0
XRECORD
  5
3C9
102
{ACAD_REACTORS
330
3C8
102
}
330
3C8
100
AcDbXrecord
280
     1
102
DISPLAYNAME
  1
Imperial24
102
FLAGS
 90
        0
  0
XRECORD
  5
B6
102
{ACAD_REACTORS
330
B4
102
}
330
B4
100
AcDbXrecord
280
     1
270
     1
271
     1
  0
XRECORD
  5
B5
102
{ACAD_REACTORS
330
B4
102
}
330
B4
100
AcDbXrecord
280
     1
270
     1
271
     1
  0
XRECORD
  5
B9
102
{ACAD_REACTORS
330
B4
102
}
330
B4
100
AcDbXrecord
280
     1
270
     1
271
     1
  0
XRECORD
  5
B8
102
{ACAD_REACTORS
330
B4
102
}
330
B4
100
AcDbXrecord
280
     1
270
     1
271
     1
  0
XRECORD
  5
BA
102
{ACAD_REACTORS
330
B4
102
}
330
B4
100
AcDbXrecord
280
     1
270
     1
271
     1
  0
XRECORD
  5
B7
102
{ACAD_REACTORS
330
B4
102
}
330
B4
100
AcDbXrecord
280
     1
270
     1
271
     1
  0
XRECORD
  5
AE
102
{ACAD_REACTORS
330
AC
102
}
330
AC
100
AcDbXrecord
280
     1
270
     1
271
     1
  0
XRECORD
  5
AD
102
{ACAD_REACTORS
330
AC
102
}
330
AC
100
AcDbXrecord
280
     1
270
     1
271
     1
  0
XRECORD
  5
B1
102
{ACAD_REACTORS
330
AC
102
}
330
AC
100
AcDbXrecord
280
     1
270
     1
271
     1
  0
XRECORD
  5
B0
102
{ACAD_REACTORS
330
AC
102
}
330
AC
100
AcDbXrecord
280
     1
270
     1
271
     1
  0
XRECORD
  5
B2
102
{ACAD_REACTORS
330
AC
102
}
330
AC
100
AcDbXrecord
280
     1
270
     1
271
     1
  0
XRECORD
  5
AF
102
{ACAD_REACTORS
330
AC
102
}
330
AC
100
AcDbXrecord
280
     1
270
     1
271
     1
  0
XRECORD
  5
BE
102
{ACAD_REACTORS
330
BC
102
}
330
BC
100
AcDbXrecord
280
     1
270
     1
271
     1
  0
XRECORD
  5
BD
102
{ACAD_REACTORS
330
BC
102
}
330
BC
100
AcDbXrecord
280
     1
270
     1
271
     1
  0
XRECORD
  5
C1
102
{ACAD_REACTORS
330
BC
102
}
330
BC
100
AcDbXrecord
280
     1
270
     1
271
     1
  0
XRECORD
  5
C0
102
{ACAD_REACTORS
330
BC
102
}
330
BC
100
AcDbXrecord
280
     1
270
     1
271
     1
  0
XRECORD
  5
C2
102
{ACAD_REACTORS
330
BC
102
}
330
BC
100
AcDbXrecord
280
     1
270
     1
271
     1
  0
XRECORD
  5
BF
102
{ACAD_REACTORS
330
BC
102
}
330
BC
100
AcDbXrecord
280
     1
270
     1
271
     1
  0
XRECORD
  5
3C5
102
{ACAD_REACTORS
330
3C4
102
}
330
3C4
100
AcDbXrecord
280
     1
102
ACAD_ROUNDTRIP_2012_MLEADER_STYLE
298
     1
  0
XRECORD
  5
3C7
102
{ACAD_REACTORS
330
3C6
102
}
330
3C6
100
AcDbXrecord
280
     1
102
DISPLAYNAME
  1
Imperial24
102
FLAGS
 90
        0
  0
CELLSTYLEMAP
  5
392
102
{ACAD_REACTORS
330
391
102
}
330
391
100
AcDbCellStyleMap
 90
        3
300
CELLSTYLE
  1
TABLEFORMAT_BEGIN
 90
        5
170
     1
 91
        0
 92
    32768
 62
   257
 93
        1
300
CONTENTFORMAT
  1
CONTENTFORMAT_BEGIN
 90
        0
 91
        0
 92
      512
 93
        0
300

 40
0.0
140
1.0
 94
        5
 62
     0
340
11
144
0.25
309
CONTENTFORMAT_END
171
     0
 94
        0
309
TABLEFORMAT_END
  1
CELLSTYLE_BEGIN
 90
        1
 91
        1
300
_TITLE
309
CELLSTYLE_END
300
CELLSTYLE
  1
TABLEFORMAT_BEGIN
 90
        5
170
     1
 91
        0
 92
        0
 62
   257
 93
        1
300
CONTENTFORMAT
  1
CONTENTFORMAT_BEGIN
 90
        0
 91
        0
 92
      512
 93
        0
300

 40
0.0
140
1.0
 94
        5
 62
     0
340
11
144
0.18
309
CONTENTFORMAT_END
171
     0
 94
        0
309
TABLEFORMAT_END
  1
CELLSTYLE_BEGIN
 90
        2
 91
        1
300
_HEADER
309
CELLSTYLE_END
300
CELLSTYLE
  1
TABLEFORMAT_BEGIN
 90
        5
170
     1
 91
        0
 92
        0
 62
   257
 93
        1
300
CONTENTFORMAT
  1
CONTENTFORMAT_BEGIN
 90
        0
 91
        0
 92
      512
 93
        0
300

 40
0.0
140
1.0
 94
        2
 62
     0
340
11
144
0.18
309
CONTENTFORMAT_END
171
     0
 94
        0
309
TABLEFORMAT_END
  1
CELLSTYLE_BEGIN
 90
        3
 91
        2
300
_DATA
309
CELLSTYLE_END
  0
XRECORD
  5
39F
102
{ACAD_REACTORS
330
39E
102
}
330
39E
100
AcDbXrecord
280
     1
102
RTVSPost2010Prop28
280
     1
102
RTVSPost2010PropOp28
 70
     1
102
RTVSPost2010Prop29
280
     1
102
RTVSPost2010PropOp29
 70
     1
102
RTVSPost2010Prop30
280
     0
102
RTVSPost2010PropOp30
 70
     1
102
RTVSPost2010Prop31
280
     0
102
RTVSPost2010PropOp31
 70
     1
102
RTVSPost2010Prop32
280
     0
102
RTVSPost2010PropOp32
 70
     1
102
RTVSPost2010Prop33
280
     0
102
RTVSPost2010PropOp33
 70
     1
102
RTVSPost2010Prop34
280
     0
102
RTVSPost2010PropOp34
 70
     1
102
RTVSPost2010Prop35
280
     0
102
RTVSPost2010PropOp35
 70
     1
102
RTVSPost2010Prop36
280
     0
102
RTVSPost2010PropOp36
 70
     1
102
RTVSPost2010Prop37
 90
       50
102
RTVSPost2010PropOp37
 70
     1
102
RTVSPost2010Prop38
140
0.0
102
RTVSPost2010PropOp38
 70
     1
102
RTVSPost2010Prop39
140
1.0
102
RTVSPost2010PropOp39
 70
     1
102
RTVSPost2010Prop40
 90
        0
102
RTVSPost2010PropOp40
 70
     1
102
RTVSPost2010Prop41ColorIndex
 90
       18
102
RTVSPost2010Prop41ColorRGB
 90
        0
102
RTVSPost2010PropOp41
 70
     1
102
RTVSPost2010Prop42
 90
       50
102
RTVSPost2010PropOp42
 70
     1
102
RTVSPost2010Prop43
 90
        3
102
RTVSPost2010PropOp43
 70
     1
102
RTVSPost2010Prop44ColorIndex
 90
        5
102
RTVSPost2010Prop44ColorRGB
 90
      255
102
RTVSPost2010PropOp44
 70
     1
102
RTVSPost2010Prop45
280
     0
102
RTVSPost2010PropOp45
 70
     1
102
RTVSPost2010Prop46
 90
       50
102
RTVSPost2010PropOp46
 70
     1
102
RTVSPost2010Prop47
 90
       50
102
RTVSPost2010PropOp47
 70
     1
102
RTVSPost2010Prop48
 90
       50
102
RTVSPost2010PropOp48
 70
     1
102
RTVSPost2010Prop49
280
     0
102
RTVSPost2010PropOp49
 70
     1
102
RTVSPost2010Prop50
 90
       50
102
RTVSPost2010PropOp50
 70
     1
102
RTVSPost2010Prop51ColorIndex
 90
      256
102
RTVSPost2010Prop51ColorRGB
 90
-16777216
102
RTVSPost2010PropOp51
 70
     0
102
RTVSPost2010Prop52
140
1.0
102
RTVSPost2010PropOp52
 70
     0
102
RTVSPost2010Prop53
 90
        2
102
RTVSPost2010PropOp53
 70
     1
102
RTVSPost2010Prop54
  1
strokes_ogs.tif
102
RTVSPost2010PropOp54
 70
     1
102
RTVSPost2010Prop55
280
     0
102
RTVSPost2010PropOp55
 70
     1
102
RTVSPost2010Prop56
140
1.0
102
RTVSPost2010PropOp56
 70
     1
102
RTVSPost2010Prop57
140
1.0
102
RTVSPost2010PropOp57
 70
     1
  0
XRECORD
  5
39D
102
{ACAD_REACTORS
330
39C
102
}
330
39C
100
AcDbXrecord
280
     1
102
RTVSPost2010Prop28
280
     0
102
RTVSPost2010PropOp28
 70
     1
102
RTVSPost2010Prop29
280
     1
102
RTVSPost2010PropOp29
 70
     1
102
RTVSPost2010Prop30
280
     1
102
RTVSPost2010PropOp30
 70
     1
102
RTVSPost2010Prop31
280
     0
102
RTVSPost2010PropOp31
 70
     1
102
RTVSPost2010Prop32
280
     0
102
RTVSPost2010PropOp32
 70
     1
102
RTVSPost2010Prop33
280
     0
102
RTVSPost2010PropOp33
 70
     1
102
RTVSPost2010Prop34
280
     0
102
RTVSPost2010PropOp34
 70
     1
102
RTVSPost2010Prop35
280
     0
102
RTVSPost2010PropOp35
 70
     1
102
RTVSPost2010Prop36
280
     0
102
RTVSPost2010PropOp36
 70
     1
102
RTVSPost2010Prop37
 90
       50
102
RTVSPost2010PropOp37
 70
     1
102
RTVSPost2010Prop38
140
0.0
102
RTVSPost2010PropOp38
 70
     1
102
RTVSPost2010Prop39
140
1.0
102
RTVSPost2010PropOp39
 70
     1
102
RTVSPost2010Prop40
 90
        0
102
RTVSPost2010PropOp40
 70
     1
102
RTVSPost2010Prop41ColorIndex
 90
       18
102
RTVSPost2010Prop41ColorRGB
 90
        0
102
RTVSPost2010PropOp41
 70
     1
102
RTVSPost2010Prop42
 90
       50
102
RTVSPost2010PropOp42
 70
     1
102
RTVSPost2010Prop43
 90
        3
102
RTVSPost2010PropOp43
 70
     1
102
RTVSPost2010Prop44ColorIndex
 90
        5
102
RTVSPost2010Prop44ColorRGB
 90
      255
102
RTVSPost2010PropOp44
 70
     1
102
RTVSPost2010Prop45
280
     0
102
RTVSPost2010PropOp45
 70
     1
102
RTVSPost2010Prop46
 90
       50
102
RTVSPost2010PropOp46
 70
     1
102
RTVSPost2010Prop47
 90
       50
102
RTVSPost2010PropOp47
 70
     1
102
RTVSPost2010Prop48
 90
       50
102
RTVSPost2010PropOp48
 70
     1
102
RTVSPost2010Prop49
280
     0
102
RTVSPost2010PropOp49
 70
     1
102
RTVSPost2010Prop50
 90
       50
102
RTVSPost2010PropOp50
 70
     1
102
RTVSPost2010Prop51ColorIndex
 90
      256
102
RTVSPost2010Prop51ColorRGB
 90
-16777216
102
RTVSPost2010PropOp51
 70
     0
102
RTVSPost2010Prop52
140
1.0
102
RTVSPost2010PropOp52
 70
     0
102
RTVSPost2010Prop53
 90
        2
102
RTVSPost2010PropOp53
 70
     1
102
RTVSPost2010Prop54
  1
strokes_ogs.tif
102
RTVSPost2010PropOp54
 70
     1
102
RTVSPost2010Prop55
280
     0
102
RTVSPost2010PropOp55
 70
     1
102
RTVSPost2010Prop56
140
1.0
102
RTVSPost2010PropOp56
 70
     1
102
RTVSPost2010Prop57
140
1.0
102
RTVSPost2010PropOp57
 70
     1
  0
XRECORD
  5
3AB
102
{ACAD_REACTORS
330
3AA
102
}
330
3AA
100
AcDbXrecord
280
     1
102
RTVSPost2010Prop28
280
     0
102
RTVSPost2010PropOp28
 70
     1
102
RTVSPost2010Prop29
280
     1
102
RTVSPost2010PropOp29
 70
     1
102
RTVSPost2010Prop30
280
     1
102
RTVSPost2010PropOp30
 70
     1
102
RTVSPost2010Prop31
280
     0
102
RTVSPost2010PropOp31
 70
     1
102
RTVSPost2010Prop32
280
     0
102
RTVSPost2010PropOp32
 70
     1
102
RTVSPost2010Prop33
280
     0
102
RTVSPost2010PropOp33
 70
     1
102
RTVSPost2010Prop34
280
     0
102
RTVSPost2010PropOp34
 70
     1
102
RTVSPost2010Prop35
280
     0
102
RTVSPost2010PropOp35
 70
     1
102
RTVSPost2010Prop36
280
     0
102
RTVSPost2010PropOp36
 70
     1
102
RTVSPost2010Prop37
 90
       50
102
RTVSPost2010PropOp37
 70
     1
102
RTVSPost2010Prop38
140
0.0
102
RTVSPost2010PropOp38
 70
     1
102
RTVSPost2010Prop39
140
1.0
102
RTVSPost2010PropOp39
 70
     1
102
RTVSPost2010Prop40
 90
        0
102
RTVSPost2010PropOp40
 70
     1
102
RTVSPost2010Prop41ColorIndex
 90
       18
102
RTVSPost2010Prop41ColorRGB
 90
        0
102
RTVSPost2010PropOp41
 70
     1
102
RTVSPost2010Prop42
 90
       50
102
RTVSPost2010PropOp42
 70
     1
102
RTVSPost2010Prop43
 90
        3
102
RTVSPost2010PropOp43
 70
     1
102
RTVSPost2010Prop44ColorIndex
 90
        5
102
RTVSPost2010Prop44ColorRGB
 90
      255
102
RTVSPost2010PropOp44
 70
     1
102
RTVSPost2010Prop45
280
     0
102
RTVSPost2010PropOp45
 70
     1
102
RTVSPost2010Prop46
 90
       50
102
RTVSPost2010PropOp46
 70
     1
102
RTVSPost2010Prop47
 90
       50
102
RTVSPost2010PropOp47
 70
     1
102
RTVSPost2010Prop48
 90
       50
102
RTVSPost2010PropOp48
 70
     1
102
RTVSPost2010Prop49
280
     0
102
RTVSPost2010PropOp49
 70
     1
102
RTVSPost2010Prop50
 90
       50
102
RTVSPost2010PropOp50
 70
     1
102
RTVSPost2010Prop51ColorIndex
 90
      256
102
RTVSPost2010Prop51ColorRGB
 90
-16777216
102
RTVSPost2010PropOp51
 70
     0
102
RTVSPost2010Prop52
140
1.0
102
RTVSPost2010PropOp52
 70
     0
102
RTVSPost2010Prop53
 90
        2
102
RTVSPost2010PropOp53
 70
     1
102
RTVSPost2010Prop54
  1
strokes_ogs.tif
102
RTVSPost2010PropOp54
 70
     1
102
RTVSPost2010Prop55
280
     0
102
RTVSPost2010PropOp55
 70
     1
102
RTVSPost2010Prop56
140
1.0
102
RTVSPost2010PropOp56
 70
     1
102
RTVSPost2010Prop57
140
1.0
102
RTVSPost2010PropOp57
 70
     1
  0
XRECORD
  5
3B3
102
{ACAD_REACTORS
330
3B2
102
}
330
3B2
100
AcDbXrecord
280
     1
102
RTVSPost2010Prop28
280
     0
102
RTVSPost2010PropOp28
 70
     1
102
RTVSPost2010Prop29
280
     1
102
RTVSPost2010PropOp29
 70
     1
102
RTVSPost2010Prop30
280
     1
102
RTVSPost2010PropOp30
 70
     1
102
RTVSPost2010Prop31
280
     0
102
RTVSPost2010PropOp31
 70
     1
102
RTVSPost2010Prop32
280
     0
102
RTVSPost2010PropOp32
 70
     1
102
RTVSPost2010Prop33
280
     0
102
RTVSPost2010PropOp33
 70
     1
102
RTVSPost2010Prop34
280
     0
102
RTVSPost2010PropOp34
 70
     1
102
RTVSPost2010Prop35
280
     0
102
RTVSPost2010PropOp35
 70
     1
102
RTVSPost2010Prop36
280
     0
102
RTVSPost2010PropOp36
 70
     1
102
RTVSPost2010Prop37
 90
       50
102
RTVSPost2010PropOp37
 70
     1
102
RTVSPost2010Prop38
140
0.0
102
RTVSPost2010PropOp38
 70
     1
102
RTVSPost2010Prop39
140
1.0
102
RTVSPost2010PropOp39
 70
     1
102
RTVSPost2010Prop40
 90
        0
102
RTVSPost2010PropOp40
 70
     1
102
RTVSPost2010Prop41ColorIndex
 90
       18
102
RTVSPost2010Prop41ColorRGB
 90
        0
102
RTVSPost2010PropOp41
 70
     1
102
RTVSPost2010Prop42
 90
       50
102
RTVSPost2010PropOp42
 70
     1
102
RTVSPost2010Prop43
 90
        3
102
RTVSPost2010PropOp43
 70
     1
102
RTVSPost2010Prop44ColorIndex
 90
        5
102
RTVSPost2010Prop44ColorRGB
 90
      255
102
RTVSPost2010PropOp44
 70
     1
102
RTVSPost2010Prop45
280
     0
102
RTVSPost2010PropOp45
 70
     1
102
RTVSPost2010Prop46
 90
       50
102
RTVSPost2010PropOp46
 70
     1
102
RTVSPost2010Prop47
 90
       50
102
RTVSPost2010PropOp47
 70
     1
102
RTVSPost2010Prop48
 90
       50
102
RTVSPost2010PropOp48
 70
     1
102
RTVSPost2010Prop49
280
     0
102
RTVSPost2010PropOp49
 70
     1
102
RTVSPost2010Prop50
 90
       50
102
RTVSPost2010PropOp50
 70
     1
102
RTVSPost2010Prop51ColorIndex
 90
      256
102
RTVSPost2010Prop51ColorRGB
 90
-16777216
102
RTVSPost2010PropOp51
 70
     0
102
RTVSPost2010Prop52
140
1.0
102
RTVSPost2010PropOp52
 70
     0
102
RTVSPost2010Prop53
 90
        2
102
RTVSPost2010PropOp53
 70
     1
102
RTVSPost2010Prop54
  1
strokes_ogs.tif
102
RTVSPost2010PropOp54
 70
     1
102
RTVSPost2010Prop55
280
     0
102
RTVSPost2010PropOp55
 70
     1
102
RTVSPost2010Prop56
140
1.0
102
RTVSPost2010PropOp56
 70
     1
102
RTVSPost2010Prop57
140
1.0
102
RTVSPost2010PropOp57
 70
     1
  0
XRECORD
  5
3A5
102
{ACAD_REACTORS
330
3A4
102
}
330
3A4
100
AcDbXrecord
280
     1
102
RTVSPost2010Prop28
280
     0
102
RTVSPost2010PropOp28
 70
     1
102
RTVSPost2010Prop29
280
     1
102
RTVSPost2010PropOp29
 70
     1
102
RTVSPost2010Prop30
280
     1
102
RTVSPost2010PropOp30
 70
     1
102
RTVSPost2010Prop31
280
     0
102
RTVSPost2010PropOp31
 70
     1
102
RTVSPost2010Prop32
280
     0
102
RTVSPost2010PropOp32
 70
     1
102
RTVSPost2010Prop33
280
     0
102
RTVSPost2010PropOp33
 70
     1
102
RTVSPost2010Prop34
280
     0
102
RTVSPost2010PropOp34
 70
     1
102
RTVSPost2010Prop35
280
     0
102
RTVSPost2010PropOp35
 70
     1
102
RTVSPost2010Prop36
280
     0
102
RTVSPost2010PropOp36
 70
     1
102
RTVSPost2010Prop37
 90
       50
102
RTVSPost2010PropOp37
 70
     1
102
RTVSPost2010Prop38
140
0.0
102
RTVSPost2010PropOp38
 70
     1
102
RTVSPost2010Prop39
140
1.0
102
RTVSPost2010PropOp39
 70
     1
102
RTVSPost2010Prop40
 90
        0
102
RTVSPost2010PropOp40
 70
     1
102
RTVSPost2010Prop41ColorIndex
 90
       18
102
RTVSPost2010Prop41ColorRGB
 90
        0
102
RTVSPost2010PropOp41
 70
     1
102
RTVSPost2010Prop42
 90
       50
102
RTVSPost2010PropOp42
 70
     1
102
RTVSPost2010Prop43
 90
        3
102
RTVSPost2010PropOp43
 70
     1
102
RTVSPost2010Prop44ColorIndex
 90
        5
102
RTVSPost2010Prop44ColorRGB
 90
      255
102
RTVSPost2010PropOp44
 70
     1
102
RTVSPost2010Prop45
280
     0
102
RTVSPost2010PropOp45
 70
     1
102
RTVSPost2010Prop46
 90
       50
102
RTVSPost2010PropOp46
 70
     1
102
RTVSPost2010Prop47
 90
       50
102
RTVSPost2010PropOp47
 70
     1
102
RTVSPost2010Prop48
 90
       50
102
RTVSPost2010PropOp48
 70
     1
102
RTVSPost2010Prop49
280
     0
102
RTVSPost2010PropOp49
 70
     1
102
RTVSPost2010Prop50
 90
       50
102
RTVSPost2010PropOp50
 70
     1
102
RTVSPost2010Prop51ColorIndex
 90
      256
102
RTVSPost2010Prop51ColorRGB
 90
-16777216
102
RTVSPost2010PropOp51
 70
     0
102
RTVSPost2010Prop52
140
1.0
102
RTVSPost2010PropOp52
 70
     0
102
RTVSPost2010Prop53
 90
        2
102
RTVSPost2010PropOp53
 70
     1
102
RTVSPost2010Prop54
  1
strokes_ogs.tif
102
RTVSPost2010PropOp54
 70
     1
102
RTVSPost2010Prop55
280
     0
102
RTVSPost2010PropOp55
 70
     1
102
RTVSPost2010Prop56
140
1.0
102
RTVSPost2010PropOp56
 70
     1
102
RTVSPost2010Prop57
140
1.0
102
RTVSPost2010PropOp57
 70
     1
  0
XRECORD
  5
3A9
102
{ACAD_REACTORS
330
3A8
102
}
330
3A8
100
AcDbXrecord
280
     1
102
RTVSPost2010Prop28
280
     0
102
RTVSPost2010PropOp28
 70
     1
102
RTVSPost2010Prop29
280
     1
102
RTVSPost2010PropOp29
 70
     1
102
RTVSPost2010Prop30
280
     1
102
RTVSPost2010PropOp30
 70
     1
102
RTVSPost2010Prop31
280
     0
102
RTVSPost2010PropOp31
 70
     1
102
RTVSPost2010Prop32
280
     0
102
RTVSPost2010PropOp32
 70
     1
102
RTVSPost2010Prop33
280
     0
102
RTVSPost2010PropOp33
 70
     1
102
RTVSPost2010Prop34
280
     0
102
RTVSPost2010PropOp34
 70
     1
102
RTVSPost2010Prop35
280
     0
102
RTVSPost2010PropOp35
 70
     1
102
RTVSPost2010Prop36
280
     0
102
RTVSPost2010PropOp36
 70
     1
102
RTVSPost2010Prop37
 90
       50
102
RTVSPost2010PropOp37
 70
     1
102
RTVSPost2010Prop38
140
0.0
102
RTVSPost2010PropOp38
 70
     1
102
RTVSPost2010Prop39
140
1.0
102
RTVSPost2010PropOp39
 70
     1
102
RTVSPost2010Prop40
 90
        0
102
RTVSPost2010PropOp40
 70
     1
102
RTVSPost2010Prop41ColorIndex
 90
       18
102
RTVSPost2010Prop41ColorRGB
 90
        0
102
RTVSPost2010PropOp41
 70
     1
102
RTVSPost2010Prop42
 90
       50
102
RTVSPost2010PropOp42
 70
     1
102
RTVSPost2010Prop43
 90
        3
102
RTVSPost2010PropOp43
 70
     1
102
RTVSPost2010Prop44ColorIndex
 90
        5
102
RTVSPost2010Prop44ColorRGB
 90
      255
102
RTVSPost2010PropOp44
 70
     1
102
RTVSPost2010Prop45
280
     0
102
RTVSPost2010PropOp45
 70
     1
102
RTVSPost2010Prop46
 90
       50
102
RTVSPost2010PropOp46
 70
     1
102
RTVSPost2010Prop47
 90
       50
102
RTVSPost2010PropOp47
 70
     1
102
RTVSPost2010Prop48
 90
       50
102
RTVSPost2010PropOp48
 70
     1
102
RTVSPost2010Prop49
280
     0
102
RTVSPost2010PropOp49
 70
     1
102
RTVSPost2010Prop50
 90
       50
102
RTVSPost2010PropOp50
 70
     1
102
RTVSPost2010Prop51ColorIndex
 90
      256
102
RTVSPost2010Prop51ColorRGB
 90
-16777216
102
RTVSPost2010PropOp51
 70
     0
102
RTVSPost2010Prop52
140
1.0
102
RTVSPost2010PropOp52
 70
     0
102
RTVSPost2010Prop53
 90
        2
102
RTVSPost2010PropOp53
 70
     1
102
RTVSPost2010Prop54
  1
strokes_ogs.tif
102
RTVSPost2010PropOp54
 70
     1
102
RTVSPost2010Prop55
280
     0
102
RTVSPost2010PropOp55
 70
     1
102
RTVSPost2010Prop56
140
1.0
102
RTVSPost2010PropOp56
 70
     1
102
RTVSPost2010Prop57
140
1.0
102
RTVSPost2010PropOp57
 70
     1
  0
XRECORD
  5
3C3
102
{ACAD_REACTORS
330
3C2
102
}
330
3C2
100
AcDbXrecord
280
     1
102
RTVSPost2010Prop28
280
     0
102
RTVSPost2010PropOp28
 70
     0
102
RTVSPost2010Prop29
280
     1
102
RTVSPost2010PropOp29
 70
     0
102
RTVSPost2010Prop30
280
     1
102
RTVSPost2010PropOp30
 70
     0
102
RTVSPost2010Prop31
280
     0
102
RTVSPost2010PropOp31
 70
     0
102
RTVSPost2010Prop32
280
     0
102
RTVSPost2010PropOp32
 70
     0
102
RTVSPost2010Prop33
280
     0
102
RTVSPost2010PropOp33
 70
     0
102
RTVSPost2010Prop34
280
     0
102
RTVSPost2010PropOp34
 70
     0
102
RTVSPost2010Prop35
280
     0
102
RTVSPost2010PropOp35
 70
     0
102
RTVSPost2010Prop36
280
     0
102
RTVSPost2010PropOp36
 70
     0
102
RTVSPost2010Prop37
 90
       50
102
RTVSPost2010PropOp37
 70
     0
102
RTVSPost2010Prop38
140
0.0
102
RTVSPost2010PropOp38
 70
     0
102
RTVSPost2010Prop39
140
1.0
102
RTVSPost2010PropOp39
 70
     0
102
RTVSPost2010Prop40
 90
        0
102
RTVSPost2010PropOp40
 70
     0
102
RTVSPost2010Prop41ColorIndex
 90
       18
102
RTVSPost2010Prop41ColorRGB
 90
        0
102
RTVSPost2010PropOp41
 70
     0
102
RTVSPost2010Prop42
 90
       50
102
RTVSPost2010PropOp42
 70
     0
102
RTVSPost2010Prop43
 90
        3
102
RTVSPost2010PropOp43
 70
     0
102
RTVSPost2010Prop44ColorIndex
 90
        5
102
RTVSPost2010Prop44ColorRGB
 90
      255
102
RTVSPost2010PropOp44
 70
     0
102
RTVSPost2010Prop45
280
     0
102
RTVSPost2010PropOp45
 70
     0
102
RTVSPost2010Prop46
 90
       50
102
RTVSPost2010PropOp46
 70
     0
102
RTVSPost2010Prop47
 90
       50
102
RTVSPost2010PropOp47
 70
     0
102
RTVSPost2010Prop48
 90
       50
102
RTVSPost2010PropOp48
 70
     0
102
RTVSPost2010Prop49
280
     0
102
RTVSPost2010PropOp49
 70
     0
102
RTVSPost2010Prop50
 90
       50
102
RTVSPost2010PropOp50
 70
     0
102
RTVSPost2010Prop51ColorIndex
 90
      256
102
RTVSPost2010Prop51ColorRGB
 90
-16777216
102
RTVSPost2010PropOp51
 70
     0
102
RTVSPost2010Prop52
140
1.0
102
RTVSPost2010PropOp52
 70
     0
102
RTVSPost2010Prop53
 90
        2
102
RTVSPost2010PropOp53
 70
     0
102
RTVSPost2010Prop54
  1
strokes_ogs.tif
102
RTVSPost2010PropOp54
 70
     0
102
RTVSPost2010Prop55
280
     0
102
RTVSPost2010PropOp55
 70
     0
102
RTVSPost2010Prop56
140
1.0
102
RTVSPost2010PropOp56
 70
     0
102
RTVSPost2010Prop57
140
1.0
102
RTVSPost2010PropOp57
 70
     0
  0
XRECORD
  5
3B1
102
{ACAD_REACTORS
330
3B0
102
}
330
3B0
100
AcDbXrecord
280
     1
102
RTVSPost2010Prop28
280
     0
102
RTVSPost2010PropOp28
 70
     1
102
RTVSPost2010Prop29
280
     1
102
RTVSPost2010PropOp29
 70
     1
102
RTVSPost2010Prop30
280
     1
102
RTVSPost2010PropOp30
 70
     1
102
RTVSPost2010Prop31
280
     0
102
RTVSPost2010PropOp31
 70
     1
102
RTVSPost2010Prop32
280
     0
102
RTVSPost2010PropOp32
 70
     1
102
RTVSPost2010Prop33
280
     0
102
RTVSPost2010PropOp33
 70
     1
102
RTVSPost2010Prop34
280
     0
102
RTVSPost2010PropOp34
 70
     1
102
RTVSPost2010Prop35
280
     0
102
RTVSPost2010PropOp35
 70
     1
102
RTVSPost2010Prop36
280
     0
102
RTVSPost2010PropOp36
 70
     1
102
RTVSPost2010Prop37
 90
       50
102
RTVSPost2010PropOp37
 70
     1
102
RTVSPost2010Prop38
140
0.0
102
RTVSPost2010PropOp38
 70
     1
102
RTVSPost2010Prop39
140
1.0
102
RTVSPost2010PropOp39
 70
     1
102
RTVSPost2010Prop40
 90
        0
102
RTVSPost2010PropOp40
 70
     1
102
RTVSPost2010Prop41ColorIndex
 90
       18
102
RTVSPost2010Prop41ColorRGB
 90
        0
102
RTVSPost2010PropOp41
 70
     1
102
RTVSPost2010Prop42
 90
       50
102
RTVSPost2010PropOp42
 70
     1
102
RTVSPost2010Prop43
 90
        3
102
RTVSPost2010PropOp43
 70
     1
102
RTVSPost2010Prop44ColorIndex
 90
        5
102
RTVSPost2010Prop44ColorRGB
 90
      255
102
RTVSPost2010PropOp44
 70
     1
102
RTVSPost2010Prop45
280
     0
102
RTVSPost2010PropOp45
 70
     1
102
RTVSPost2010Prop46
 90
       50
102
RTVSPost2010PropOp46
 70
     1
102
RTVSPost2010Prop47
 90
       50
102
RTVSPost2010PropOp47
 70
     1
102
RTVSPost2010Prop48
 90
       50
102
RTVSPost2010PropOp48
 70
     1
102
RTVSPost2010Prop49
280
     0
102
RTVSPost2010PropOp49
 70
     1
102
RTVSPost2010Prop50
 90
       50
102
RTVSPost2010PropOp50
 70
     1
102
RTVSPost2010Prop51ColorIndex
 90
      256
102
RTVSPost2010Prop51ColorRGB
 90
-16777216
102
RTVSPost2010PropOp51
 70
     0
102
RTVSPost2010Prop52
140
1.0
102
RTVSPost2010PropOp52
 70
     0
102
RTVSPost2010Prop53
 90
        2
102
RTVSPost2010PropOp53
 70
     1
102
RTVSPost2010Prop54
  1
strokes_ogs.tif
102
RTVSPost2010PropOp54
 70
     1
102
RTVSPost2010Prop55
280
     0
102
RTVSPost2010PropOp55
 70
     1
102
RTVSPost2010Prop56
140
1.0
102
RTVSPost2010PropOp56
 70
     1
102
RTVSPost2010Prop57
140
1.0
102
RTVSPost2010PropOp57
 70
     1
  0
XRECORD
  5
395
102
{ACAD_REACTORS
330
394
102
}
330
394
100
AcDbXrecord
280
     1
102
RTVSPost2010Prop28
280
     0
102
RTVSPost2010PropOp28
 70
     1
102
RTVSPost2010Prop29
280
     1
102
RTVSPost2010PropOp29
 70
     1
102
RTVSPost2010Prop30
280
     1
102
RTVSPost2010PropOp30
 70
     1
102
RTVSPost2010Prop31
280
     0
102
RTVSPost2010PropOp31
 70
     1
102
RTVSPost2010Prop32
280
     0
102
RTVSPost2010PropOp32
 70
     1
102
RTVSPost2010Prop33
280
     0
102
RTVSPost2010PropOp33
 70
     1
102
RTVSPost2010Prop34
280
     0
102
RTVSPost2010PropOp34
 70
     1
102
RTVSPost2010Prop35
280
     0
102
RTVSPost2010PropOp35
 70
     1
102
RTVSPost2010Prop36
280
     0
102
RTVSPost2010PropOp36
 70
     1
102
RTVSPost2010Prop37
 90
       50
102
RTVSPost2010PropOp37
 70
     1
102
RTVSPost2010Prop38
140
0.0
102
RTVSPost2010PropOp38
 70
     1
102
RTVSPost2010Prop39
140
1.0
102
RTVSPost2010PropOp39
 70
     1
102
RTVSPost2010Prop40
 90
        0
102
RTVSPost2010PropOp40
 70
     1
102
RTVSPost2010Prop41ColorIndex
 90
       18
102
RTVSPost2010Prop41ColorRGB
 90
        0
102
RTVSPost2010PropOp41
 70
     1
102
RTVSPost2010Prop42
 90
       50
102
RTVSPost2010PropOp42
 70
     1
102
RTVSPost2010Prop43
 90
        3
102
RTVSPost2010PropOp43
 70
     1
102
RTVSPost2010Prop44ColorIndex
 90
        5
102
RTVSPost2010Prop44ColorRGB
 90
      255
102
RTVSPost2010PropOp44
 70
     1
102
RTVSPost2010Prop45
280
     0
102
RTVSPost2010PropOp45
 70
     1
102
RTVSPost2010Prop46
 90
       50
102
RTVSPost2010PropOp46
 70
     1
102
RTVSPost2010Prop47
 90
       50
102
RTVSPost2010PropOp47
 70
     1
102
RTVSPost2010Prop48
 90
       50
102
RTVSPost2010PropOp48
 70
     1
102
RTVSPost2010Prop49
280
     0
102
RTVSPost2010PropOp49
 70
     1
102
RTVSPost2010Prop50
 90
       50
102
RTVSPost2010PropOp50
 70
     1
102
RTVSPost2010Prop51ColorIndex
 90
      256
102
RTVSPost2010Prop51ColorRGB
 90
-16777216
102
RTVSPost2010PropOp51
 70
     0
102
RTVSPost2010Prop52
140
1.0
102
RTVSPost2010PropOp52
 70
     0
102
RTVSPost2010Prop53
 90
        2
102
RTVSPost2010PropOp53
 70
     1
102
RTVSPost2010Prop54
  1
strokes_ogs.tif
102
RTVSPost2010PropOp54
 70
     1
102
RTVSPost2010Prop55
280
     0
102
RTVSPost2010PropOp55
 70
     1
102
RTVSPost2010Prop56
140
1.0
102
RTVSPost2010PropOp56
 70
     1
102
RTVSPost2010Prop57
140
1.0
102
RTVSPost2010PropOp57
 70
     1
  0
XRECORD
  5
397
102
{ACAD_REACTORS
330
396
102
}
330
396
100
AcDbXrecord
280
     1
102
RTVSPost2010Prop28
280
     0
102
RTVSPost2010PropOp28
 70
     1
102
RTVSPost2010Prop29
280
     1
102
RTVSPost2010PropOp29
 70
     1
102
RTVSPost2010Prop30
280
     1
102
RTVSPost2010PropOp30
 70
     1
102
RTVSPost2010Prop31
280
     0
102
RTVSPost2010PropOp31
 70
     1
102
RTVSPost2010Prop32
280
     0
102
RTVSPost2010PropOp32
 70
     1
102
RTVSPost2010Prop33
280
     0
102
RTVSPost2010PropOp33
 70
     1
102
RTVSPost2010Prop34
280
     0
102
RTVSPost2010PropOp34
 70
     1
102
RTVSPost2010Prop35
280
     0
102
RTVSPost2010PropOp35
 70
     1
102
RTVSPost2010Prop36
280
     0
102
RTVSPost2010PropOp36
 70
     1
102
RTVSPost2010Prop37
 90
       50
102
RTVSPost2010PropOp37
 70
     1
102
RTVSPost2010Prop38
140
0.0
102
RTVSPost2010PropOp38
 70
     1
102
RTVSPost2010Prop39
140
1.0
102
RTVSPost2010PropOp39
 70
     1
102
RTVSPost2010Prop40
 90
        0
102
RTVSPost2010PropOp40
 70
     1
102
RTVSPost2010Prop41ColorIndex
 90
       18
102
RTVSPost2010Prop41ColorRGB
 90
        0
102
RTVSPost2010PropOp41
 70
     1
102
RTVSPost2010Prop42
 90
       50
102
RTVSPost2010PropOp42
 70
     1
102
RTVSPost2010Prop43
 90
        3
102
RTVSPost2010PropOp43
 70
     1
102
RTVSPost2010Prop44ColorIndex
 90
        5
102
RTVSPost2010Prop44ColorRGB
 90
      255
102
RTVSPost2010PropOp44
 70
     1
102
RTVSPost2010Prop45
280
     0
102
RTVSPost2010PropOp45
 70
     1
102
RTVSPost2010Prop46
 90
       50
102
RTVSPost2010PropOp46
 70
     1
102
RTVSPost2010Prop47
 90
       50
102
RTVSPost2010PropOp47
 70
     1
102
RTVSPost2010Prop48
 90
       50
102
RTVSPost2010PropOp48
 70
     1
102
RTVSPost2010Prop49
280
     0
102
RTVSPost2010PropOp49
 70
     1
102
RTVSPost2010Prop50
 90
       50
102
RTVSPost2010PropOp50
 70
     1
102
RTVSPost2010Prop51ColorIndex
 90
      256
102
RTVSPost2010Prop51ColorRGB
 90
-16777216
102
RTVSPost2010PropOp51
 70
     0
102
RTVSPost2010Prop52
140
1.0
102
RTVSPost2010PropOp52
 70
     0
102
RTVSPost2010Prop53
 90
        2
102
RTVSPost2010PropOp53
 70
     1
102
RTVSPost2010Prop54
  1
strokes_ogs.tif
102
RTVSPost2010PropOp54
 70
     1
102
RTVSPost2010Prop55
280
     0
102
RTVSPost2010PropOp55
 70
     1
102
RTVSPost2010Prop56
140
1.0
102
RTVSPost2010PropOp56
 70
     1
102
RTVSPost2010Prop57
140
1.0
102
RTVSPost2010PropOp57
 70
     1
  0
XRECORD
  5
399
102
{ACAD_REACTORS
330
398
102
}
330
398
100
AcDbXrecord
280
     1
102
RTVSPost2010Prop28
280
     0
102
RTVSPost2010PropOp28
 70
     1
102
RTVSPost2010Prop29
280
     1
102
RTVSPost2010PropOp29
 70
     1
102
RTVSPost2010Prop30
280
     1
102
RTVSPost2010PropOp30
 70
     1
102
RTVSPost2010Prop31
280
     0
102
RTVSPost2010PropOp31
 70
     1
102
RTVSPost2010Prop32
280
     0
102
RTVSPost2010PropOp32
 70
     1
102
RTVSPost2010Prop33
280
     0
102
RTVSPost2010PropOp33
 70
     1
102
RTVSPost2010Prop34
280
     0
102
RTVSPost2010PropOp34
 70
     1
102
RTVSPost2010Prop35
280
     0
102
RTVSPost2010PropOp35
 70
     1
102
RTVSPost2010Prop36
280
     0
102
RTVSPost2010PropOp36
 70
     1
102
RTVSPost2010Prop37
 90
       50
102
RTVSPost2010PropOp37
 70
     1
102
RTVSPost2010Prop38
140
0.0
102
RTVSPost2010PropOp38
 70
     1
102
RTVSPost2010Prop39
140
1.0
102
RTVSPost2010PropOp39
 70
     1
102
RTVSPost2010Prop40
 90
        0
102
RTVSPost2010PropOp40
 70
     1
102
RTVSPost2010Prop41ColorIndex
 90
       18
102
RTVSPost2010Prop41ColorRGB
 90
        0
102
RTVSPost2010PropOp41
 70
     1
102
RTVSPost2010Prop42
 90
       50
102
RTVSPost2010PropOp42
 70
     1
102
RTVSPost2010Prop43
 90
        3
102
RTVSPost2010PropOp43
 70
     1
102
RTVSPost2010Prop44ColorIndex
 90
        5
102
RTVSPost2010Prop44ColorRGB
 90
      255
102
RTVSPost2010PropOp44
 70
     1
102
RTVSPost2010Prop45
280
     0
102
RTVSPost2010PropOp45
 70
     1
102
RTVSPost2010Prop46
 90
       50
102
RTVSPost2010PropOp46
 70
     1
102
RTVSPost2010Prop47
 90
       50
102
RTVSPost2010PropOp47
 70
     1
102
RTVSPost2010Prop48
 90
       50
102
RTVSPost2010PropOp48
 70
     1
102
RTVSPost2010Prop49
280
     0
102
RTVSPost2010PropOp49
 70
     1
102
RTVSPost2010Prop50
 90
       50
102
RTVSPost2010PropOp50
 70
     1
102
RTVSPost2010Prop51ColorIndex
 90
      256
102
RTVSPost2010Prop51ColorRGB
 90
-16777216
102
RTVSPost2010PropOp51
 70
     0
102
RTVSPost2010Prop52
140
1.0
102
RTVSPost2010PropOp52
 70
     0
102
RTVSPost2010Prop53
 90
        2
102
RTVSPost2010PropOp53
 70
     1
102
RTVSPost2010Prop54
  1
strokes_ogs.tif
102
RTVSPost2010PropOp54
 70
     1
102
RTVSPost2010Prop55
280
     0
102
RTVSPost2010PropOp55
 70
     1
102
RTVSPost2010Prop56
140
1.0
102
RTVSPost2010PropOp56
 70
     1
102
RTVSPost2010Prop57
140
1.0
102
RTVSPost2010PropOp57
 70
     1
  0
XRECORD
  5
39B
102
{ACAD_REACTORS
330
39A
102
}
330
39A
100
AcDbXrecord
280
     1
102
RTVSPost2010Prop28
280
     0
102
RTVSPost2010PropOp28
 70
     1
102
RTVSPost2010Prop29
280
     1
102
RTVSPost2010PropOp29
 70
     1
102
RTVSPost2010Prop30
280
     1
102
RTVSPost2010PropOp30
 70
     1
102
RTVSPost2010Prop31
280
     0
102
RTVSPost2010PropOp31
 70
     1
102
RTVSPost2010Prop32
280
     0
102
RTVSPost2010PropOp32
 70
     1
102
RTVSPost2010Prop33
280
     0
102
RTVSPost2010PropOp33
 70
     1
102
RTVSPost2010Prop34
280
     0
102
RTVSPost2010PropOp34
 70
     1
102
RTVSPost2010Prop35
280
     0
102
RTVSPost2010PropOp35
 70
     1
102
RTVSPost2010Prop36
280
     0
102
RTVSPost2010PropOp36
 70
     1
102
RTVSPost2010Prop37
 90
       50
102
RTVSPost2010PropOp37
 70
     1
102
RTVSPost2010Prop38
140
0.0
102
RTVSPost2010PropOp38
 70
     1
102
RTVSPost2010Prop39
140
1.0
102
RTVSPost2010PropOp39
 70
     1
102
RTVSPost2010Prop40
 90
        0
102
RTVSPost2010PropOp40
 70
     1
102
RTVSPost2010Prop41ColorIndex
 90
       18
102
RTVSPost2010Prop41ColorRGB
 90
        0
102
RTVSPost2010PropOp41
 70
     1
102
RTVSPost2010Prop42
 90
       50
102
RTVSPost2010PropOp42
 70
     1
102
RTVSPost2010Prop43
 90
        3
102
RTVSPost2010PropOp43
 70
     1
102
RTVSPost2010Prop44ColorIndex
 90
        5
102
RTVSPost2010Prop44ColorRGB
 90
      255
102
RTVSPost2010PropOp44
 70
     1
102
RTVSPost2010Prop45
280
     0
102
RTVSPost2010PropOp45
 70
     1
102
RTVSPost2010Prop46
 90
       50
102
RTVSPost2010PropOp46
 70
     1
102
RTVSPost2010Prop47
 90
       50
102
RTVSPost2010PropOp47
 70
     1
102
RTVSPost2010Prop48
 90
       50
102
RTVSPost2010PropOp48
 70
     1
102
RTVSPost2010Prop49
280
     0
102
RTVSPost2010PropOp49
 70
     1
102
RTVSPost2010Prop50
 90
       50
102
RTVSPost2010PropOp50
 70
     1
102
RTVSPost2010Prop51ColorIndex
 90
      256
102
RTVSPost2010Prop51ColorRGB
 90
-16777216
102
RTVSPost2010PropOp51
 70
     0
102
RTVSPost2010Prop52
140
1.0
102
RTVSPost2010PropOp52
 70
     0
102
RTVSPost2010Prop53
 90
        2
102
RTVSPost2010PropOp53
 70
     1
102
RTVSPost2010Prop54
  1
strokes_ogs.tif
102
RTVSPost2010PropOp54
 70
     1
102
RTVSPost2010Prop55
280
     0
102
RTVSPost2010PropOp55
 70
     1
102
RTVSPost2010Prop56
140
1.0
102
RTVSPost2010PropOp56
 70
     1
102
RTVSPost2010Prop57
140
1.0
102
RTVSPost2010PropOp57
 70
     1
  0
XRECORD
  5
3A3
102
{ACAD_REACTORS
330
3A2
102
}
330
3A2
100
AcDbXrecord
280
     1
102
RTVSPost2010Prop28
280
     0
102
RTVSPost2010PropOp28
 70
     1
102
RTVSPost2010Prop29
280
     1
102
RTVSPost2010PropOp29
 70
     1
102
RTVSPost2010Prop30
280
     1
102
RTVSPost2010PropOp30
 70
     1
102
RTVSPost2010Prop31
280
     0
102
RTVSPost2010PropOp31
 70
     1
102
RTVSPost2010Prop32
280
     0
102
RTVSPost2010PropOp32
 70
     1
102
RTVSPost2010Prop33
280
     0
102
RTVSPost2010PropOp33
 70
     1
102
RTVSPost2010Prop34
280
     0
102
RTVSPost2010PropOp34
 70
     1
102
RTVSPost2010Prop35
280
     0
102
RTVSPost2010PropOp35
 70
     1
102
RTVSPost2010Prop36
280
     0
102
RTVSPost2010PropOp36
 70
     1
102
RTVSPost2010Prop37
 90
       50
102
RTVSPost2010PropOp37
 70
     1
102
RTVSPost2010Prop38
140
0.0
102
RTVSPost2010PropOp38
 70
     1
102
RTVSPost2010Prop39
140
1.0
102
RTVSPost2010PropOp39
 70
     1
102
RTVSPost2010Prop40
 90
        0
102
RTVSPost2010PropOp40
 70
     1
102
RTVSPost2010Prop41ColorIndex
 90
       18
102
RTVSPost2010Prop41ColorRGB
 90
        0
102
RTVSPost2010PropOp41
 70
     1
102
RTVSPost2010Prop42
 90
       50
102
RTVSPost2010PropOp42
 70
     1
102
RTVSPost2010Prop43
 90
        3
102
RTVSPost2010PropOp43
 70
     1
102
RTVSPost2010Prop44ColorIndex
 90
        5
102
RTVSPost2010Prop44ColorRGB
 90
      255
102
RTVSPost2010PropOp44
 70
     1
102
RTVSPost2010Prop45
280
     0
102
RTVSPost2010PropOp45
 70
     1
102
RTVSPost2010Prop46
 90
       50
102
RTVSPost2010PropOp46
 70
     1
102
RTVSPost2010Prop47
 90
       50
102
RTVSPost2010PropOp47
 70
     1
102
RTVSPost2010Prop48
 90
       50
102
RTVSPost2010PropOp48
 70
     1
102
RTVSPost2010Prop49
280
     0
102
RTVSPost2010PropOp49
 70
     1
102
RTVSPost2010Prop50
 90
       50
102
RTVSPost2010PropOp50
 70
     1
102
RTVSPost2010Prop51ColorIndex
 90
      256
102
RTVSPost2010Prop51ColorRGB
 90
-16777216
102
RTVSPost2010PropOp51
 70
     0
102
RTVSPost2010Prop52
140
1.0
102
RTVSPost2010PropOp52
 70
     0
102
RTVSPost2010Prop53
 90
        2
102
RTVSPost2010PropOp53
 70
     1
102
RTVSPost2010Prop54
  1
strokes_ogs.tif
102
RTVSPost2010PropOp54
 70
     1
102
RTVSPost2010Prop55
280
     0
102
RTVSPost2010PropOp55
 70
     1
102
RTVSPost2010Prop56
140
1.0
102
RTVSPost2010PropOp56
 70
     1
102
RTVSPost2010Prop57
140
1.0
102
RTVSPost2010PropOp57
 70
     1
  0
XRECORD
  5
3BF
102
{ACAD_REACTORS
330
3BE
102
}
330
3BE
100
AcDbXrecord
280
     1
102
RTVSPost2010Prop28
280
     0
102
RTVSPost2010PropOp28
 70
     0
102
RTVSPost2010Prop29
280
     1
102
RTVSPost2010PropOp29
 70
     0
102
RTVSPost2010Prop30
280
     1
102
RTVSPost2010PropOp30
 70
     0
102
RTVSPost2010Prop31
280
     0
102
RTVSPost2010PropOp31
 70
     0
102
RTVSPost2010Prop32
280
     0
102
RTVSPost2010PropOp32
 70
     0
102
RTVSPost2010Prop33
280
     0
102
RTVSPost2010PropOp33
 70
     0
102
RTVSPost2010Prop34
280
     0
102
RTVSPost2010PropOp34
 70
     0
102
RTVSPost2010Prop35
280
     0
102
RTVSPost2010PropOp35
 70
     0
102
RTVSPost2010Prop36
280
     0
102
RTVSPost2010PropOp36
 70
     0
102
RTVSPost2010Prop37
 90
       50
102
RTVSPost2010PropOp37
 70
     0
102
RTVSPost2010Prop38
140
0.0
102
RTVSPost2010PropOp38
 70
     0
102
RTVSPost2010Prop39
140
1.0
102
RTVSPost2010PropOp39
 70
     0
102
RTVSPost2010Prop40
 90
        0
102
RTVSPost2010PropOp40
 70
     0
102
RTVSPost2010Prop41ColorIndex
 90
       18
102
RTVSPost2010Prop41ColorRGB
 90
        0
102
RTVSPost2010PropOp41
 70
     0
102
RTVSPost2010Prop42
 90
       50
102
RTVSPost2010PropOp42
 70
     0
102
RTVSPost2010Prop43
 90
        3
102
RTVSPost2010PropOp43
 70
     0
102
RTVSPost2010Prop44ColorIndex
 90
        5
102
RTVSPost2010Prop44ColorRGB
 90
      255
102
RTVSPost2010PropOp44
 70
     0
102
RTVSPost2010Prop45
280
     0
102
RTVSPost2010PropOp45
 70
     0
102
RTVSPost2010Prop46
 90
       50
102
RTVSPost2010PropOp46
 70
     0
102
RTVSPost2010Prop47
 90
       50
102
RTVSPost2010PropOp47
 70
     0
102
RTVSPost2010Prop48
 90
       50
102
RTVSPost2010PropOp48
 70
     0
102
RTVSPost2010Prop49
280
     0
102
RTVSPost2010PropOp49
 70
     0
102
RTVSPost2010Prop50
 90
       50
102
RTVSPost2010PropOp50
 70
     0
102
RTVSPost2010Prop51ColorIndex
 90
      256
102
RTVSPost2010Prop51ColorRGB
 90
-16777216
102
RTVSPost2010PropOp51
 70
     0
102
RTVSPost2010Prop52
140
1.0
102
RTVSPost2010PropOp52
 70
     0
102
RTVSPost2010Prop53
 90
        2
102
RTVSPost2010PropOp53
 70
     0
102
RTVSPost2010Prop54
  1
strokes_ogs.tif
102
RTVSPost2010PropOp54
 70
     0
102
RTVSPost2010Prop55
280
     0
102
RTVSPost2010PropOp55
 70
     0
102
RTVSPost2010Prop56
140
1.0
102
RTVSPost2010PropOp56
 70
     0
102
RTVSPost2010Prop57
140
1.0
102
RTVSPost2010PropOp57
 70
     0
  0
XRECORD
  5
3AF
102
{ACAD_REACTORS
330
3AE
102
}
330
3AE
100
AcDbXrecord
280
     1
102
RTVSPost2010Prop28
280
     0
102
RTVSPost2010PropOp28
 70
     1
102
RTVSPost2010Prop29
280
     1
102
RTVSPost2010PropOp29
 70
     1
102
RTVSPost2010Prop30
280
     1
102
RTVSPost2010PropOp30
 70
     1
102
RTVSPost2010Prop31
280
     0
102
RTVSPost2010PropOp31
 70
     1
102
RTVSPost2010Prop32
280
     0
102
RTVSPost2010PropOp32
 70
     1
102
RTVSPost2010Prop33
280
     0
102
RTVSPost2010PropOp33
 70
     1
102
RTVSPost2010Prop34
280
     0
102
RTVSPost2010PropOp34
 70
     1
102
RTVSPost2010Prop35
280
     0
102
RTVSPost2010PropOp35
 70
     1
102
RTVSPost2010Prop36
280
     0
102
RTVSPost2010PropOp36
 70
     1
102
RTVSPost2010Prop37
 90
       50
102
RTVSPost2010PropOp37
 70
     1
102
RTVSPost2010Prop38
140
0.0
102
RTVSPost2010PropOp38
 70
     1
102
RTVSPost2010Prop39
140
1.0
102
RTVSPost2010PropOp39
 70
     1
102
RTVSPost2010Prop40
 90
        0
102
RTVSPost2010PropOp40
 70
     1
102
RTVSPost2010Prop41ColorIndex
 90
       18
102
RTVSPost2010Prop41ColorRGB
 90
        0
102
RTVSPost2010PropOp41
 70
     1
102
RTVSPost2010Prop42
 90
       50
102
RTVSPost2010PropOp42
 70
     1
102
RTVSPost2010Prop43
 90
        3
102
RTVSPost2010PropOp43
 70
     1
102
RTVSPost2010Prop44ColorIndex
 90
        5
102
RTVSPost2010Prop44ColorRGB
 90
      255
102
RTVSPost2010PropOp44
 70
     1
102
RTVSPost2010Prop45
280
     0
102
RTVSPost2010PropOp45
 70
     1
102
RTVSPost2010Prop46
 90
       50
102
RTVSPost2010PropOp46
 70
     1
102
RTVSPost2010Prop47
 90
       50
102
RTVSPost2010PropOp47
 70
     1
102
RTVSPost2010Prop48
 90
       50
102
RTVSPost2010PropOp48
 70
     1
102
RTVSPost2010Prop49
280
     0
102
RTVSPost2010PropOp49
 70
     1
102
RTVSPost2010Prop50
 90
       50
102
RTVSPost2010PropOp50
 70
     1
102
RTVSPost2010Prop51ColorIndex
 90
      256
102
RTVSPost2010Prop51ColorRGB
 90
-16777216
102
RTVSPost2010PropOp51
 70
     0
102
RTVSPost2010Prop52
140
1.0
102
RTVSPost2010PropOp52
 70
     0
102
RTVSPost2010Prop53
 90
        2
102
RTVSPost2010PropOp53
 70
     1
102
RTVSPost2010Prop54
  1
strokes_ogs.tif
102
RTVSPost2010PropOp54
 70
     1
102
RTVSPost2010Prop55
280
     0
102
RTVSPost2010PropOp55
 70
     1
102
RTVSPost2010Prop56
140
1.0
102
RTVSPost2010PropOp56
 70
     1
102
RTVSPost2010Prop57
140
1.0
102
RTVSPost2010PropOp57
 70
     1
  0
XRECORD
  5
3C1
102
{ACAD_REACTORS
330
3C0
102
}
330
3C0
100
AcDbXrecord
280
     1
102
RTVSPost2010Prop28
280
     0
102
RTVSPost2010PropOp28
 70
     0
102
RTVSPost2010Prop29
280
     1
102
RTVSPost2010PropOp29
 70
     0
102
RTVSPost2010Prop30
280
     1
102
RTVSPost2010PropOp30
 70
     0
102
RTVSPost2010Prop31
280
     0
102
RTVSPost2010PropOp31
 70
     0
102
RTVSPost2010Prop32
280
     0
102
RTVSPost2010PropOp32
 70
     0
102
RTVSPost2010Prop33
280
     0
102
RTVSPost2010PropOp33
 70
     0
102
RTVSPost2010Prop34
280
     0
102
RTVSPost2010PropOp34
 70
     0
102
RTVSPost2010Prop35
280
     0
102
RTVSPost2010PropOp35
 70
     0
102
RTVSPost2010Prop36
280
     0
102
RTVSPost2010PropOp36
 70
     0
102
RTVSPost2010Prop37
 90
       50
102
RTVSPost2010PropOp37
 70
     0
102
RTVSPost2010Prop38
140
0.0
102
RTVSPost2010PropOp38
 70
     0
102
RTVSPost2010Prop39
140
1.0
102
RTVSPost2010PropOp39
 70
     0
102
RTVSPost2010Prop40
 90
        0
102
RTVSPost2010PropOp40
 70
     0
102
RTVSPost2010Prop41ColorIndex
 90
       18
102
RTVSPost2010Prop41ColorRGB
 90
        0
102
RTVSPost2010PropOp41
 70
     0
102
RTVSPost2010Prop42
 90
       50
102
RTVSPost2010PropOp42
 70
     0
102
RTVSPost2010Prop43
 90
        3
102
RTVSPost2010PropOp43
 70
     0
102
RTVSPost2010Prop44ColorIndex
 90
        5
102
RTVSPost2010Prop44ColorRGB
 90
      255
102
RTVSPost2010PropOp44
 70
     0
102
RTVSPost2010Prop45
280
     0
102
RTVSPost2010PropOp45
 70
     0
102
RTVSPost2010Prop46
 90
       50
102
RTVSPost2010PropOp46
 70
     0
102
RTVSPost2010Prop47
 90
       50
102
RTVSPost2010PropOp47
 70
     0
102
RTVSPost2010Prop48
 90
       50
102
RTVSPost2010PropOp48
 70
     0
102
RTVSPost2010Prop49
280
     0
102
RTVSPost2010PropOp49
 70
     0
102
RTVSPost2010Prop50
 90
       50
102
RTVSPost2010PropOp50
 70
     0
102
RTVSPost2010Prop51ColorIndex
 90
      256
102
RTVSPost2010Prop51ColorRGB
 90
-16777216
102
RTVSPost2010PropOp51
 70
     0
102
RTVSPost2010Prop52
140
1.0
102
RTVSPost2010PropOp52
 70
     0
102
RTVSPost2010Prop53
 90
        2
102
RTVSPost2010PropOp53
 70
     0
102
RTVSPost2010Prop54
  1
strokes_ogs.tif
102
RTVSPost2010PropOp54
 70
     0
102
RTVSPost2010Prop55
280
     0
102
RTVSPost2010PropOp55
 70
     0
102
RTVSPost2010Prop56
140
1.0
102
RTVSPost2010PropOp56
 70
     0
102
RTVSPost2010Prop57
140
1.0
102
RTVSPost2010PropOp57
 70
     0
  0
XRECORD
  5
3A7
102
{ACAD_REACTORS
330
3A6
102
}
330
3A6
100
AcDbXrecord
280
     1
102
RTVSPost2010Prop28
280
     0
102
RTVSPost2010PropOp28
 70
     1
102
RTVSPost2010Prop29
280
     1
102
RTVSPost2010PropOp29
 70
     1
102
RTVSPost2010Prop30
280
     1
102
RTVSPost2010PropOp30
 70
     1
102
RTVSPost2010Prop31
280
     0
102
RTVSPost2010PropOp31
 70
     1
102
RTVSPost2010Prop32
280
     0
102
RTVSPost2010PropOp32
 70
     1
102
RTVSPost2010Prop33
280
     0
102
RTVSPost2010PropOp33
 70
     1
102
RTVSPost2010Prop34
280
     0
102
RTVSPost2010PropOp34
 70
     1
102
RTVSPost2010Prop35
280
     0
102
RTVSPost2010PropOp35
 70
     1
102
RTVSPost2010Prop36
280
     0
102
RTVSPost2010PropOp36
 70
     1
102
RTVSPost2010Prop37
 90
       50
102
RTVSPost2010PropOp37
 70
     1
102
RTVSPost2010Prop38
140
0.0
102
RTVSPost2010PropOp38
 70
     1
102
RTVSPost2010Prop39
140
1.0
102
RTVSPost2010PropOp39
 70
     1
102
RTVSPost2010Prop40
 90
        0
102
RTVSPost2010PropOp40
 70
     1
102
RTVSPost2010Prop41ColorIndex
 90
       18
102
RTVSPost2010Prop41ColorRGB
 90
        0
102
RTVSPost2010PropOp41
 70
     1
102
RTVSPost2010Prop42
 90
       50
102
RTVSPost2010PropOp42
 70
     1
102
RTVSPost2010Prop43
 90
        3
102
RTVSPost2010PropOp43
 70
     1
102
RTVSPost2010Prop44ColorIndex
 90
        5
102
RTVSPost2010Prop44ColorRGB
 90
      255
102
RTVSPost2010PropOp44
 70
     1
102
RTVSPost2010Prop45
280
     0
102
RTVSPost2010PropOp45
 70
     1
102
RTVSPost2010Prop46
 90
       50
102
RTVSPost2010PropOp46
 70
     1
102
RTVSPost2010Prop47
 90
       50
102
RTVSPost2010PropOp47
 70
     1
102
RTVSPost2010Prop48
 90
       50
102
RTVSPost2010PropOp48
 70
     1
102
RTVSPost2010Prop49
280
     0
102
RTVSPost2010PropOp49
 70
     1
102
RTVSPost2010Prop50
 90
       50
102
RTVSPost2010PropOp50
 70
     1
102
RTVSPost2010Prop51ColorIndex
 90
      256
102
RTVSPost2010Prop51ColorRGB
 90
-16777216
102
RTVSPost2010PropOp51
 70
     0
102
RTVSPost2010Prop52
140
1.0
102
RTVSPost2010PropOp52
 70
     0
102
RTVSPost2010Prop53
 90
        2
102
RTVSPost2010PropOp53
 70
     1
102
RTVSPost2010Prop54
  1
strokes_ogs.tif
102
RTVSPost2010PropOp54
 70
     1
102
RTVSPost2010Prop55
280
     0
102
RTVSPost2010PropOp55
 70
     1
102
RTVSPost2010Prop56
140
1.0
102
RTVSPost2010PropOp56
 70
     1
102
RTVSPost2010Prop57
140
1.0
102
RTVSPost2010PropOp57
 70
     1
  0
XRECORD
  5
3BD
102
{ACAD_REACTORS
330
3BC
102
}
330
3BC
100
AcDbXrecord
280
     1
102
RTVSPost2010Prop28
280
     0
102
RTVSPost2010PropOp28
 70
     1
102
RTVSPost2010Prop29
280
     1
102
RTVSPost2010PropOp29
 70
     1
102
RTVSPost2010Prop30
280
     1
102
RTVSPost2010PropOp30
 70
     1
102
RTVSPost2010Prop31
280
     0
102
RTVSPost2010PropOp31
 70
     1
102
RTVSPost2010Prop32
280
     0
102
RTVSPost2010PropOp32
 70
     1
102
RTVSPost2010Prop33
280
     0
102
RTVSPost2010PropOp33
 70
     1
102
RTVSPost2010Prop34
280
     0
102
RTVSPost2010PropOp34
 70
     1
102
RTVSPost2010Prop35
280
     0
102
RTVSPost2010PropOp35
 70
     1
102
RTVSPost2010Prop36
280
     0
102
RTVSPost2010PropOp36
 70
     1
102
RTVSPost2010Prop37
 90
       50
102
RTVSPost2010PropOp37
 70
     1
102
RTVSPost2010Prop38
140
0.0
102
RTVSPost2010PropOp38
 70
     1
102
RTVSPost2010Prop39
140
1.0
102
RTVSPost2010PropOp39
 70
     1
102
RTVSPost2010Prop40
 90
        0
102
RTVSPost2010PropOp40
 70
     1
102
RTVSPost2010Prop41ColorIndex
 90
       18
102
RTVSPost2010Prop41ColorRGB
 90
        0
102
RTVSPost2010PropOp41
 70
     1
102
RTVSPost2010Prop42
 90
       50
102
RTVSPost2010PropOp42
 70
     1
102
RTVSPost2010Prop43
 90
        3
102
RTVSPost2010PropOp43
 70
     1
102
RTVSPost2010Prop44ColorIndex
 90
        5
102
RTVSPost2010Prop44ColorRGB
 90
      255
102
RTVSPost2010PropOp44
 70
     1
102
RTVSPost2010Prop45
280
     0
102
RTVSPost2010PropOp45
 70
     1
102
RTVSPost2010Prop46
 90
       50
102
RTVSPost2010PropOp46
 70
     1
102
RTVSPost2010Prop47
 90
       50
102
RTVSPost2010PropOp47
 70
     1
102
RTVSPost2010Prop48
 90
       50
102
RTVSPost2010PropOp48
 70
     1
102
RTVSPost2010Prop49
280
     0
102
RTVSPost2010PropOp49
 70
     1
102
RTVSPost2010Prop50
 90
       50
102
RTVSPost2010PropOp50
 70
     1
102
RTVSPost2010Prop51ColorIndex
 90
      256
102
RTVSPost2010Prop51ColorRGB
 90
-16777216
102
RTVSPost2010PropOp51
 70
     0
102
RTVSPost2010Prop52
140
1.0
102
RTVSPost2010PropOp52
 70
     0
102
RTVSPost2010Prop53
 90
        2
102
RTVSPost2010PropOp53
 70
     1
102
RTVSPost2010Prop54
  1
strokes_ogs.tif
102
RTVSPost2010PropOp54
 70
     1
102
RTVSPost2010Prop55
280
     0
102
RTVSPost2010PropOp55
 70
     1
102
RTVSPost2010Prop56
140
1.0
102
RTVSPost2010PropOp56
 70
     1
102
RTVSPost2010Prop57
140
1.0
102
RTVSPost2010PropOp57
 70
     1
  0
XRECORD
  5
3BB
102
{ACAD_REACTORS
330
3BA
102
}
330
3BA
100
AcDbXrecord
280
     1
102
RTVSPost2010Prop28
280
     0
102
RTVSPost2010PropOp28
 70
     1
102
RTVSPost2010Prop29
280
     1
102
RTVSPost2010PropOp29
 70
     1
102
RTVSPost2010Prop30
280
     1
102
RTVSPost2010PropOp30
 70
     1
102
RTVSPost2010Prop31
280
     0
102
RTVSPost2010PropOp31
 70
     1
102
RTVSPost2010Prop32
280
     0
102
RTVSPost2010PropOp32
 70
     1
102
RTVSPost2010Prop33
280
     0
102
RTVSPost2010PropOp33
 70
     1
102
RTVSPost2010Prop34
280
     0
102
RTVSPost2010PropOp34
 70
     1
102
RTVSPost2010Prop35
280
     0
102
RTVSPost2010PropOp35
 70
     1
102
RTVSPost2010Prop36
280
     0
102
RTVSPost2010PropOp36
 70
     1
102
RTVSPost2010Prop37
 90
       50
102
RTVSPost2010PropOp37
 70
     1
102
RTVSPost2010Prop38
140
0.0
102
RTVSPost2010PropOp38
 70
     1
102
RTVSPost2010Prop39
140
1.0
102
RTVSPost2010PropOp39
 70
     1
102
RTVSPost2010Prop40
 90
        0
102
RTVSPost2010PropOp40
 70
     1
102
RTVSPost2010Prop41ColorIndex
 90
       18
102
RTVSPost2010Prop41ColorRGB
 90
        0
102
RTVSPost2010PropOp41
 70
     1
102
RTVSPost2010Prop42
 90
       50
102
RTVSPost2010PropOp42
 70
     1
102
RTVSPost2010Prop43
 90
        3
102
RTVSPost2010PropOp43
 70
     1
102
RTVSPost2010Prop44ColorIndex
 90
        5
102
RTVSPost2010Prop44ColorRGB
 90
      255
102
RTVSPost2010PropOp44
 70
     1
102
RTVSPost2010Prop45
280
     0
102
RTVSPost2010PropOp45
 70
     1
102
RTVSPost2010Prop46
 90
       50
102
RTVSPost2010PropOp46
 70
     1
102
RTVSPost2010Prop47
 90
       50
102
RTVSPost2010PropOp47
 70
     1
102
RTVSPost2010Prop48
 90
       50
102
RTVSPost2010PropOp48
 70
     1
102
RTVSPost2010Prop49
280
     0
102
RTVSPost2010PropOp49
 70
     1
102
RTVSPost2010Prop50
 90
       50
102
RTVSPost2010PropOp50
 70
     1
102
RTVSPost2010Prop51ColorIndex
 90
      256
102
RTVSPost2010Prop51ColorRGB
 90
-16777216
102
RTVSPost2010PropOp51
 70
     0
102
RTVSPost2010Prop52
140
1.0
102
RTVSPost2010PropOp52
 70
     0
102
RTVSPost2010Prop53
 90
        2
102
RTVSPost2010PropOp53
 70
     1
102
RTVSPost2010Prop54
  1
strokes_ogs.tif
102
RTVSPost2010PropOp54
 70
     1
102
RTVSPost2010Prop55
280
     0
102
RTVSPost2010PropOp55
 70
     1
102
RTVSPost2010Prop56
140
1.0
102
RTVSPost2010PropOp56
 70
     1
102
RTVSPost2010Prop57
140
1.0
102
RTVSPost2010PropOp57
 70
     1
  0
XRECORD
  5
3B5
102
{ACAD_REACTORS
330
3B4
102
}
330
3B4
100
AcDbXrecord
280
     1
102
RTVSPost2010Prop28
280
     0
102
RTVSPost2010PropOp28
 70
     1
102
RTVSPost2010Prop29
280
     1
102
RTVSPost2010PropOp29
 70
     1
102
RTVSPost2010Prop30
280
     1
102
RTVSPost2010PropOp30
 70
     1
102
RTVSPost2010Prop31
280
     0
102
RTVSPost2010PropOp31
 70
     1
102
RTVSPost2010Prop32
280
     0
102
RTVSPost2010PropOp32
 70
     1
102
RTVSPost2010Prop33
280
     0
102
RTVSPost2010PropOp33
 70
     1
102
RTVSPost2010Prop34
280
     0
102
RTVSPost2010PropOp34
 70
     1
102
RTVSPost2010Prop35
280
     0
102
RTVSPost2010PropOp35
 70
     1
102
RTVSPost2010Prop36
280
     0
102
RTVSPost2010PropOp36
 70
     1
102
RTVSPost2010Prop37
 90
       50
102
RTVSPost2010PropOp37
 70
     1
102
RTVSPost2010Prop38
140
0.0
102
RTVSPost2010PropOp38
 70
     1
102
RTVSPost2010Prop39
140
1.0
102
RTVSPost2010PropOp39
 70
     1
102
RTVSPost2010Prop40
 90
        0
102
RTVSPost2010PropOp40
 70
     1
102
RTVSPost2010Prop41ColorIndex
 90
       18
102
RTVSPost2010Prop41ColorRGB
 90
        0
102
RTVSPost2010PropOp41
 70
     1
102
RTVSPost2010Prop42
 90
       50
102
RTVSPost2010PropOp42
 70
     1
102
RTVSPost2010Prop43
 90
        3
102
RTVSPost2010PropOp43
 70
     1
102
RTVSPost2010Prop44ColorIndex
 90
        5
102
RTVSPost2010Prop44ColorRGB
 90
      255
102
RTVSPost2010PropOp44
 70
     1
102
RTVSPost2010Prop45
280
     0
102
RTVSPost2010PropOp45
 70
     1
102
RTVSPost2010Prop46
 90
       50
102
RTVSPost2010PropOp46
 70
     1
102
RTVSPost2010Prop47
 90
       50
102
RTVSPost2010PropOp47
 70
     1
102
RTVSPost2010Prop48
 90
       50
102
RTVSPost2010PropOp48
 70
     1
102
RTVSPost2010Prop49
280
     0
102
RTVSPost2010PropOp49
 70
     1
102
RTVSPost2010Prop50
 90
       50
102
RTVSPost2010PropOp50
 70
     1
102
RTVSPost2010Prop51ColorIndex
 90
      256
102
RTVSPost2010Prop51ColorRGB
 90
-16777216
102
RTVSPost2010PropOp51
 70
     0
102
RTVSPost2010Prop52
140
1.0
102
RTVSPost2010PropOp52
 70
     0
102
RTVSPost2010Prop53
 90
        2
102
RTVSPost2010PropOp53
 70
     1
102
RTVSPost2010Prop54
  1
strokes_ogs.tif
102
RTVSPost2010PropOp54
 70
     1
102
RTVSPost2010Prop55
280
     0
102
RTVSPost2010PropOp55
 70
     1
102
RTVSPost2010Prop56
140
1.0
102
RTVSPost2010PropOp56
 70
     1
102
RTVSPost2010Prop57
140
1.0
102
RTVSPost2010PropOp57
 70
     1
  0
XRECORD
  5
3B7
102
{ACAD_REACTORS
330
3B6
102
}
330
3B6
100
AcDbXrecord
280
     1
102
RTVSPost2010Prop28
280
     0
102
RTVSPost2010PropOp28
 70
     1
102
RTVSPost2010Prop29
280
     1
102
RTVSPost2010PropOp29
 70
     1
102
RTVSPost2010Prop30
280
     1
102
RTVSPost2010PropOp30
 70
     1
102
RTVSPost2010Prop31
280
     0
102
RTVSPost2010PropOp31
 70
     1
102
RTVSPost2010Prop32
280
     0
102
RTVSPost2010PropOp32
 70
     1
102
RTVSPost2010Prop33
280
     0
102
RTVSPost2010PropOp33
 70
     1
102
RTVSPost2010Prop34
280
     0
102
RTVSPost2010PropOp34
 70
     1
102
RTVSPost2010Prop35
280
     0
102
RTVSPost2010PropOp35
 70
     1
102
RTVSPost2010Prop36
280
     0
102
RTVSPost2010PropOp36
 70
     1
102
RTVSPost2010Prop37
 90
       50
102
RTVSPost2010PropOp37
 70
     1
102
RTVSPost2010Prop38
140
0.0
102
RTVSPost2010PropOp38
 70
     1
102
RTVSPost2010Prop39
140
1.0
102
RTVSPost2010PropOp39
 70
     1
102
RTVSPost2010Prop40
 90
        0
102
RTVSPost2010PropOp40
 70
     1
102
RTVSPost2010Prop41ColorIndex
 90
       18
102
RTVSPost2010Prop41ColorRGB
 90
        0
102
RTVSPost2010PropOp41
 70
     1
102
RTVSPost2010Prop42
 90
       50
102
RTVSPost2010PropOp42
 70
     1
102
RTVSPost2010Prop43
 90
        3
102
RTVSPost2010PropOp43
 70
     1
102
RTVSPost2010Prop44ColorIndex
 90
        5
102
RTVSPost2010Prop44ColorRGB
 90
      255
102
RTVSPost2010PropOp44
 70
     1
102
RTVSPost2010Prop45
280
     0
102
RTVSPost2010PropOp45
 70
     1
102
RTVSPost2010Prop46
 90
       50
102
RTVSPost2010PropOp46
 70
     1
102
RTVSPost2010Prop47
 90
       50
102
RTVSPost2010PropOp47
 70
     1
102
RTVSPost2010Prop48
 90
       50
102
RTVSPost2010PropOp48
 70
     1
102
RTVSPost2010Prop49
280
     0
102
RTVSPost2010PropOp49
 70
     1
102
RTVSPost2010Prop50
 90
       50
102
RTVSPost2010PropOp50
 70
     1
102
RTVSPost2010Prop51ColorIndex
 90
      256
102
RTVSPost2010Prop51ColorRGB
 90
-16777216
102
RTVSPost2010PropOp51
 70
     0
102
RTVSPost2010Prop52
140
1.0
102
RTVSPost2010PropOp52
 70
     0
102
RTVSPost2010Prop53
 90
        2
102
RTVSPost2010PropOp53
 70
     1
102
RTVSPost2010Prop54
  1
strokes_ogs.tif
102
RTVSPost2010PropOp54
 70
     1
102
RTVSPost2010Prop55
280
     0
102
RTVSPost2010PropOp55
 70
     1
102
RTVSPost2010Prop56
140
1.0
102
RTVSPost2010PropOp56
 70
     1
102
RTVSPost2010Prop57
140
1.0
102
RTVSPost2010PropOp57
 70
     1
  0
XRECORD
  5
3AD
102
{ACAD_REACTORS
330
3AC
102
}
330
3AC
100
AcDbXrecord
280
     1
102
RTVSPost2010Prop28
280
     0
102
RTVSPost2010PropOp28
 70
     1
102
RTVSPost2010Prop29
280
     1
102
RTVSPost2010PropOp29
 70
     1
102
RTVSPost2010Prop30
280
     1
102
RTVSPost2010PropOp30
 70
     1
102
RTVSPost2010Prop31
280
     0
102
RTVSPost2010PropOp31
 70
     1
102
RTVSPost2010Prop32
280
     0
102
RTVSPost2010PropOp32
 70
     1
102
RTVSPost2010Prop33
280
     0
102
RTVSPost2010PropOp33
 70
     1
102
RTVSPost2010Prop34
280
     0
102
RTVSPost2010PropOp34
 70
     1
102
RTVSPost2010Prop35
280
     0
102
RTVSPost2010PropOp35
 70
     1
102
RTVSPost2010Prop36
280
     0
102
RTVSPost2010PropOp36
 70
     1
102
RTVSPost2010Prop37
 90
       50
102
RTVSPost2010PropOp37
 70
     1
102
RTVSPost2010Prop38
140
0.0
102
RTVSPost2010PropOp38
 70
     1
102
RTVSPost2010Prop39
140
1.0
102
RTVSPost2010PropOp39
 70
     1
102
RTVSPost2010Prop40
 90
        0
102
RTVSPost2010PropOp40
 70
     1
102
RTVSPost2010Prop41ColorIndex
 90
       18
102
RTVSPost2010Prop41ColorRGB
 90
        0
102
RTVSPost2010PropOp41
 70
     1
102
RTVSPost2010Prop42
 90
       50
102
RTVSPost2010PropOp42
 70
     1
102
RTVSPost2010Prop43
 90
        3
102
RTVSPost2010PropOp43
 70
     1
102
RTVSPost2010Prop44ColorIndex
 90
        5
102
RTVSPost2010Prop44ColorRGB
 90
      255
102
RTVSPost2010PropOp44
 70
     1
102
RTVSPost2010Prop45
280
     0
102
RTVSPost2010PropOp45
 70
     1
102
RTVSPost2010Prop46
 90
       50
102
RTVSPost2010PropOp46
 70
     1
102
RTVSPost2010Prop47
 90
       50
102
RTVSPost2010PropOp47
 70
     1
102
RTVSPost2010Prop48
 90
       50
102
RTVSPost2010PropOp48
 70
     1
102
RTVSPost2010Prop49
280
     0
102
RTVSPost2010PropOp49
 70
     1
102
RTVSPost2010Prop50
 90
       50
102
RTVSPost2010PropOp50
 70
     1
102
RTVSPost2010Prop51ColorIndex
 90
      256
102
RTVSPost2010Prop51ColorRGB
 90
-16777216
102
RTVSPost2010PropOp51
 70
     0
102
RTVSPost2010Prop52
140
1.0
102
RTVSPost2010PropOp52
 70
     0
102
RTVSPost2010Prop53
 90
        2
102
RTVSPost2010PropOp53
 70
     1
102
RTVSPost2010Prop54
  1
strokes_ogs.tif
102
RTVSPost2010PropOp54
 70
     1
102
RTVSPost2010Prop55
280
     0
102
RTVSPost2010PropOp55
 70
     1
102
RTVSPost2010Prop56
140
1.0
102
RTVSPost2010PropOp56
 70
     1
102
RTVSPost2010Prop57
140
1.0
102
RTVSPost2010PropOp57
 70
     1
  0
XRECORD
  5
3A1
102
{ACAD_REACTORS
330
3A0
102
}
330
3A0
100
AcDbXrecord
280
     1
102
RTVSPost2010Prop28
280
     0
102
RTVSPost2010PropOp28
 70
     1
102
RTVSPost2010Prop29
280
     1
102
RTVSPost2010PropOp29
 70
     1
102
RTVSPost2010Prop30
280
     1
102
RTVSPost2010PropOp30
 70
     1
102
RTVSPost2010Prop31
280
     0
102
RTVSPost2010PropOp31
 70
     1
102
RTVSPost2010Prop32
280
     0
102
RTVSPost2010PropOp32
 70
     1
102
RTVSPost2010Prop33
280
     0
102
RTVSPost2010PropOp33
 70
     1
102
RTVSPost2010Prop34
280
     0
102
RTVSPost2010PropOp34
 70
     1
102
RTVSPost2010Prop35
280
     0
102
RTVSPost2010PropOp35
 70
     1
102
RTVSPost2010Prop36
280
     0
102
RTVSPost2010PropOp36
 70
     1
102
RTVSPost2010Prop37
 90
       50
102
RTVSPost2010PropOp37
 70
     1
102
RTVSPost2010Prop38
140
0.0
102
RTVSPost2010PropOp38
 70
     1
102
RTVSPost2010Prop39
140
1.0
102
RTVSPost2010PropOp39
 70
     1
102
RTVSPost2010Prop40
 90
        0
102
RTVSPost2010PropOp40
 70
     1
102
RTVSPost2010Prop41ColorIndex
 90
       18
102
RTVSPost2010Prop41ColorRGB
 90
        0
102
RTVSPost2010PropOp41
 70
     1
102
RTVSPost2010Prop42
 90
       50
102
RTVSPost2010PropOp42
 70
     1
102
RTVSPost2010Prop43
 90
        3
102
RTVSPost2010PropOp43
 70
     1
102
RTVSPost2010Prop44ColorIndex
 90
        5
102
RTVSPost2010Prop44ColorRGB
 90
      255
102
RTVSPost2010PropOp44
 70
     1
102
RTVSPost2010Prop45
280
     0
102
RTVSPost2010PropOp45
 70
     1
102
RTVSPost2010Prop46
 90
       50
102
RTVSPost2010PropOp46
 70
     1
102
RTVSPost2010Prop47
 90
       50
102
RTVSPost2010PropOp47
 70
     1
102
RTVSPost2010Prop48
 90
       50
102
RTVSPost2010PropOp48
 70
     1
102
RTVSPost2010Prop49
280
     0
102
RTVSPost2010PropOp49
 70
     1
102
RTVSPost2010Prop50
 90
       50
102
RTVSPost2010PropOp50
 70
     1
102
RTVSPost2010Prop51ColorIndex
 90
      256
102
RTVSPost2010Prop51ColorRGB
 90
-16777216
102
RTVSPost2010PropOp51
 70
     0
102
RTVSPost2010Prop52
140
1.0
102
RTVSPost2010PropOp52
 70
     0
102
RTVSPost2010Prop53
 90
        2
102
RTVSPost2010PropOp53
 70
     1
102
RTVSPost2010Prop54
  1
strokes_ogs.tif
102
RTVSPost2010PropOp54
 70
     1
102
RTVSPost2010Prop55
280
     0
102
RTVSPost2010PropOp55
 70
     1
102
RTVSPost2010Prop56
140
1.0
102
RTVSPost2010PropOp56
 70
     1
102
RTVSPost2010Prop57
140
1.0
102
RTVSPost2010PropOp57
 70
     1
  0
XRECORD
  5
3B9
102
{ACAD_REACTORS
330
3B8
102
}
330
3B8
100
AcDbXrecord
280
     1
102
RTVSPost2010Prop28
280
     0
102
RTVSPost2010PropOp28
 70
     1
102
RTVSPost2010Prop29
280
     1
102
RTVSPost2010PropOp29
 70
     1
102
RTVSPost2010Prop30
280
     1
102
RTVSPost2010PropOp30
 70
     1
102
RTVSPost2010Prop31
280
     0
102
RTVSPost2010PropOp31
 70
     1
102
RTVSPost2010Prop32
280
     0
102
RTVSPost2010PropOp32
 70
     1
102
RTVSPost2010Prop33
280
     0
102
RTVSPost2010PropOp33
 70
     1
102
RTVSPost2010Prop34
280
     0
102
RTVSPost2010PropOp34
 70
     1
102
RTVSPost2010Prop35
280
     0
102
RTVSPost2010PropOp35
 70
     1
102
RTVSPost2010Prop36
280
     0
102
RTVSPost2010PropOp36
 70
     1
102
RTVSPost2010Prop37
 90
       50
102
RTVSPost2010PropOp37
 70
     1
102
RTVSPost2010Prop38
140
0.0
102
RTVSPost2010PropOp38
 70
     1
102
RTVSPost2010Prop39
140
1.0
102
RTVSPost2010PropOp39
 70
     1
102
RTVSPost2010Prop40
 90
        0
102
RTVSPost2010PropOp40
 70
     1
102
RTVSPost2010Prop41ColorIndex
 90
       18
102
RTVSPost2010Prop41ColorRGB
 90
        0
102
RTVSPost2010PropOp41
 70
     1
102
RTVSPost2010Prop42
 90
       50
102
RTVSPost2010PropOp42
 70
     1
102
RTVSPost2010Prop43
 90
        3
102
RTVSPost2010PropOp43
 70
     1
102
RTVSPost2010Prop44ColorIndex
 90
        5
102
RTVSPost2010Prop44ColorRGB
 90
      255
102
RTVSPost2010PropOp44
 70
     1
102
RTVSPost2010Prop45
280
     0
102
RTVSPost2010PropOp45
 70
     1
102
RTVSPost2010Prop46
 90
       50
102
RTVSPost2010PropOp46
 70
     1
102
RTVSPost2010Prop47
 90
       50
102
RTVSPost2010PropOp47
 70
     1
102
RTVSPost2010Prop48
 90
       50
102
RTVSPost2010PropOp48
 70
     1
102
RTVSPost2010Prop49
280
     0
102
RTVSPost2010PropOp49
 70
     1
102
RTVSPost2010Prop50
 90
       50
102
RTVSPost2010PropOp50
 70
     1
102
RTVSPost2010Prop51ColorIndex
 90
      256
102
RTVSPost2010Prop51ColorRGB
 90
-16777216
102
RTVSPost2010PropOp51
 70
     0
102
RTVSPost2010Prop52
140
1.0
102
RTVSPost2010PropOp52
 70
     0
102
RTVSPost2010Prop53
 90
        2
102
RTVSPost2010PropOp53
 70
     1
102
RTVSPost2010Prop54
  1
strokes_ogs.tif
102
RTVSPost2010PropOp54
 70
     1
102
RTVSPost2010Prop55
280
     0
102
RTVSPost2010PropOp55
 70
     1
102
RTVSPost2010Prop56
140
1.0
102
RTVSPost2010PropOp56
 70
     1
102
RTVSPost2010Prop57
140
1.0
102
RTVSPost2010PropOp57
 70
     1
  0
ENDSEC
  0
EOF
