  0
SECTION
  2
HEADER
  9
$ACADVER
  1
AC1024
  9
$ACADMAINTVER
 70
   226
  9
$DWGCODEPAGE
  3
ANSI_1252
  9
$INSBASE
 10
0.0
 20
0.0
 30
0.0
  9
$EXTMIN
 10
1.000000000000000E+20
 20
1.000000000000000E+20
 30
1.000000000000000E+20
  9
$EXTMAX
 10
-1.000000000000000E+20
 20
-1.000000000000000E+20
 30
-1.000000000000000E+20
  9
$LIMMIN
 10
0.0
 20
0.0
  9
$LIMMAX
 10
12.0
 20
9.0
  9
$ORTHOMODE
 70
     0
  9
$REGENMODE
 70
     1
  9
$FILLMODE
 70
     1
  9
$QTEXTMODE
 70
     0
  9
$MIRRTEXT
 70
     1
  9
$LTSCALE
 40
1.0
  9
$ATTMODE
 70
     1
  9
$TEXTSIZE
 40
0.2
  9
$TRACEWID
 40
0.05
  9
$TEXTSTYLE
  7
Standard
  9
$CLAYER
  8
Material Color - 01
  9
$CELTYPE
  6
ByLayer
  9
$CECOLOR
 62
   256
  9
$CELTSCALE
 40
1.0
  9
$DISPSILH
 70
     0
  9
$DIMSCALE
 40
1.0
  9
$DIMASZ
 40
0.18
  9
$DIMEXO
 40
0.0625
  9
$DIMDLI
 40
0.38
  9
$DIMRND
 40
0.0
  9
$DIMDLE
 40
0.0
  9
$DIMEXE
 40
0.18
  9
$DIMTP
 40
0.0
  9
$DIMTM
 40
0.0
  9
$DIMTXT
 40
0.18
  9
$DIMCEN
 40
0.09
  9
$DIMTSZ
 40
0.0
  9
$DIMTOL
 70
     0
  9
$DIMLIM
 70
     0
  9
$DIMTIH
 70
     1
  9
$DIMTOH
 70
     1
  9
$DIMSE1
 70
     0
  9
$DIMSE2
 70
     0
  9
$DIMTAD
 70
     0
  9
$DIMZIN
 70
     0
  9
$DIMBLK
  1

  9
$DIMASO
 70
     1
  9
$DIMSHO
 70
     1
  9
$DIMPOST
  1

  9
$DIMAPOST
  1

  9
$DIMALT
 70
     0
  9
$DIMALTD
 70
     2
  9
$DIMALTF
 40
25.4
  9
$DIMLFAC
 40
1.0
  9
$DIMTOFL
 70
     0
  9
$DIMTVP
 40
0.0
  9
$DIMTIX
 70
     0
  9
$DIMSOXD
 70
     0
  9
$DIMSAH
 70
     0
  9
$DIMBLK1
  1

  9
$DIMBLK2
  1

  9
$DIMSTYLE
  2
Standard
  9
$DIMCLRD
 70
     0
  9
$DIMCLRE
 70
     0
  9
$DIMCLRT
 70
     0
  9
$DIMTFAC
 40
1.0
  9
$DIMGAP
 40
0.09
  9
$DIMJUST
 70
     0
  9
$DIMSD1
 70
     0
  9
$DIMSD2
 70
     0
  9
$DIMTOLJ
 70
     1
  9
$DIMTZIN
 70
     0
  9
$DIMALTZ
 70
     0
  9
$DIMALTTZ
 70
     0
  9
$DIMUPT
 70
     0
  9
$DIMDEC
 70
     4
  9
$DIMTDEC
 70
     4
  9
$DIMALTU
 70
     2
  9
$DIMALTTD
 70
     2
  9
$DIMTXSTY
  7
Standard
  9
$DIMAUNIT
 70
     0
  9
$DIMADEC
 70
     0
  9
$DIMALTRND
 40
0.0
  9
$DIMAZIN
 70
     0
  9
$DIMDSEP
 70
    46
  9
$DIMATFIT
 70
     3
  9
$DIMFRAC
 70
     0
  9
$DIMLDRBLK
  1

  9
$DIMLUNIT
 70
     2
  9
$DIMLWD
 70
    -2
  9
$DIMLWE
 70
    -2
  9
$DIMTMOVE
 70
     0
  9
$DIMFXL
 40
1.0
  9
$DIMFXLON
 70
     0
  9
$DIMJOGANG
 40
0.7853981633974483
  9
$DIMTFILL
 70
     0
  9
$DIMTFILLCLR
 70
     0
  9
$DIMARCSYM
 70
     0
  9
$DIMLTYPE
  6

  9
$DIMLTEX1
  6

  9
$DIMLTEX2
  6

  9
$DIMTXTDIRECTION
 70
     0
  9
$LUNITS
 70
     2
  9
$LUPREC
 70
     4
  9
$SKETCHINC
 40
0.1
  9
$FILLETRAD
 40
0.5
  9
$AUNITS
 70
     0
  9
$AUPREC
 70
     0
  9
$MENU
  1
.
  9
$ELEVATION
 40
0.0
  9
$PELEVATION
 40
0.0
  9
$THICKNESS
 40
0.0
  9
$LIMCHECK
 70
     0
  9
$CHAMFERA
 40
0.5
  9
$CHAMFERB
 40
0.5
  9
$CHAMFERC
 40
1.0
  9
$CHAMFERD
 40
0.0
  9
$SKPOLY
 70
     0
  9
$TDCREATE
 40
2451380.888761574
  9
$TDUCREATE
 40
2451380.805432396
  9
$TDUPDATE
 40
2451380.924513889
  9
$TDUUPDATE
 40
2451380.841180556
  9
$TDINDWG
 40
0.0075602199
  9
$TDUSRTIMER
 40
0.0075511806
  9
$USRTIMER
 70
     1
  9
$ANGBASE
 50
0.0
  9
$ANGDIR
 70
     0
  9
$PDMODE
 70
     0
  9
$PDSIZE
 40
0.0
  9
$PLINEWID
 40
0.0
  9
$SPLFRAME
 70
     0
  9
$SPLINETYPE
 70
     6
  9
$SPLINESEGS
 70
     8
  9
$HANDSEED
  5
1C1
  9
$SURFTAB1
 70
     6
  9
$SURFTAB2
 70
     6
  9
$SURFTYPE
 70
     6
  9
$SURFU
 70
     6
  9
$SURFV
 70
     6
  9
$UCSBASE
  2

  9
$UCSNAME
  2

  9
$UCSORG
 10
0.0
 20
0.0
 30
0.0
  9
$UCSXDIR
 10
1.0
 20
0.0
 30
0.0
  9
$UCSYDIR
 10
0.0
 20
1.0
 30
0.0
  9
$UCSORTHOREF
  2

  9
$UCSORTHOVIEW
 70
     0
  9
$UCSORGTOP
 10
0.0
 20
0.0
 30
0.0
  9
$UCSORGBOTTOM
 10
0.0
 20
0.0
 30
0.0
  9
$UCSORGLEFT
 10
0.0
 20
0.0
 30
0.0
  9
$UCSORGRIGHT
 10
0.0
 20
0.0
 30
0.0
  9
$UCSORGFRONT
 10
0.0
 20
0.0
 30
0.0
  9
$UCSORGBACK
 10
0.0
 20
0.0
 30
0.0
  9
$PUCSBASE
  2

  9
$PUCSNAME
  2

  9
$PUCSORG
 10
0.0
 20
0.0
 30
0.0
  9
$PUCSXDIR
 10
1.0
 20
0.0
 30
0.0
  9
$PUCSYDIR
 10
0.0
 20
1.0
 30
0.0
  9
$PUCSORTHOREF
  2

  9
$PUCSORTHOVIEW
 70
     0
  9
$PUCSORGTOP
 10
0.0
 20
0.0
 30
0.0
  9
$PUCSORGBOTTOM
 10
0.0
 20
0.0
 30
0.0
  9
$PUCSORGLEFT
 10
0.0
 20
0.0
 30
0.0
  9
$PUCSORGRIGHT
 10
0.0
 20
0.0
 30
0.0
  9
$PUCSORGFRONT
 10
0.0
 20
0.0
 30
0.0
  9
$PUCSORGBACK
 10
0.0
 20
0.0
 30
0.0
  9
$USERI1
 70
     0
  9
$USERI2
 70
     0
  9
$USERI3
 70
     0
  9
$USERI4
 70
     0
  9
$USERI5
 70
     0
  9
$USERR1
 40
0.0
  9
$USERR2
 40
0.0
  9
$USERR3
 40
0.0
  9
$USERR4
 40
0.0
  9
$USERR5
 40
0.0
  9
$WORLDVIEW
 70
     1
  9
$SHADEDGE
 70
     3
  9
$SHADEDIF
 70
    70
  9
$TILEMODE
 70
     1
  9
$MAXACTVP
 70
    64
  9
$PINSBASE
 10
0.0
 20
0.0
 30
0.0
  9
$PLIMCHECK
 70
     0
  9
$PEXTMIN
 10
1.000000000000000E+20
 20
1.000000000000000E+20
 30
1.000000000000000E+20
  9
$PEXTMAX
 10
-1.000000000000000E+20
 20
-1.000000000000000E+20
 30
-1.000000000000000E+20
  9
$PLIMMIN
 10
0.0
 20
0.0
  9
$PLIMMAX
 10
12.0
 20
9.0
  9
$UNITMODE
 70
     0
  9
$VISRETAIN
 70
     1
  9
$PLINEGEN
 70
     0
  9
$PSLTSCALE
 70
     1
  9
$TREEDEPTH
 70
  3020
  9
$CMLSTYLE
  2
Standard
  9
$CMLJUST
 70
     0
  9
$CMLSCALE
 40
1.0
  9
$PROXYGRAPHICS
 70
     1
  9
$MEASUREMENT
 70
     0
  9
$CELWEIGHT
370
    -1
  9
$ENDCAPS
280
     0
  9
$JOINSTYLE
280
     0
  9
$LWDISPLAY
290
     0
  9
$INSUNITS
 70
     1
  9
$HYPERLINKBASE
  1

  9
$STYLESHEET
  1

  9
$XEDIT
290
     1
  9
$CEPSNTYPE
380
     0
  9
$PSTYLEMODE
290
     1
  9
$FINGERPRINTGUID
  2
{12F50282-3ED8-11D3-A8B7-0060B0F84BC6}
  9
$VERSIONGUID
  2
{12F50293-3ED8-11D3-A8B7-0060B0F84BC6}
  9
$EXTNAMES
290
     1
  9
$PSVPSCALE
 40
0.0
  9
$OLESTARTUP
290
     0
  9
$SORTENTS
280
   127
  9
$INDEXCTL
280
     0
  9
$HIDETEXT
280
     0
  9
$XCLIPFRAME
280
     2
  9
$HALOGAP
280
     0
  9
$OBSCOLOR
 70
   257
  9
$OBSLTYPE
280
     0
  9
$INTERSECTIONDISPLAY
280
     0
  9
$INTERSECTIONCOLOR
 70
   257
  9
$DIMASSOC
280
     1
  9
$PROJECTNAME
  1

  9
$CAMERADISPLAY
290
     0
  9
$LENSLENGTH
 40
50.0
  9
$CAMERAHEIGHT
 40
0.0
  9
$STEPSPERSEC
 40
2.0
  9
$STEPSIZE
 40
6.0
  9
$3DDWFPREC
 40
2.0
  9
$PSOLWIDTH
 40
0.25
  9
$PSOLHEIGHT
 40
4.0
  9
$LOFTANG1
 40
1.570796326794896
  9
$LOFTANG2
 40
1.570796326794896
  9
$LOFTMAG1
 40
0.0
  9
$LOFTMAG2
 40
0.0
  9
$LOFTPARAM
 70
     7
  9
$LOFTNORMALS
280
     1
  9
$LATITUDE
 40
37.795
  9
$LONGITUDE
 40
-122.394
  9
$NORTHDIRECTION
 40
0.0
  9
$TIMEZONE
 70
 -8000
  9
$LIGHTGLYPHDISPLAY
280
     1
  9
$TILEMODELIGHTSYNCH
280
     1
  9
$CMATERIAL
347
AB
  9
$SOLIDHIST
280
     0
  9
$SHOWHIST
280
     1
  9
$DWFFRAME
280
     2
  9
$DGNFRAME
280
     0
  9
$REALWORLDSCALE
290
     1
  9
$INTERFERECOLOR
 62
     1
  9
$INTERFEREOBJVS
345
CD
  9
$INTERFEREVPVS
346
CA
  9
$CSHADOW
280
     0
  9
$SHADOWPLANELOCATION
 40
0.0
  0
ENDSEC
  0
SECTION
  2
CLASSES
  0
CLASS
  1
ACDBDICTIONARYWDFLT
  2
AcDbDictionaryWithDefault
  3
ObjectDBX Classes
 90
        0
 91
        1
280
     0
281
     0
  0
CLASS
  1
ACDBPLACEHOLDER
  2
AcDbPlaceHolder
  3
ObjectDBX Classes
 90
        0
 91
        2
280
     0
281
     0
  0
CLASS
  1
LAYOUT
  2
AcDbLayout
  3
ObjectDBX Classes
 90
        0
 91
        3
280
     0
281
     0
  0
CLASS
  1
MATERIAL
  2
AcDbMaterial
  3
ObjectDBX Classes
 90
     1153
 91
        3
280
     0
281
     0
  0
CLASS
  1
VISUALSTYLE
  2
AcDbVisualStyle
  3
ObjectDBX Classes
 90
     4095
 91
       24
280
     0
281
     0
  0
CLASS
  1
TABLESTYLE
  2
AcDbTableStyle
  3
ObjectDBX Classes
 90
     4095
 91
        1
280
     0
281
     0
  0
CLASS
  1
SCALE
  2
AcDbScale
  3
ObjectDBX Classes
 90
     1153
 91
       17
280
     0
281
     0
  0
CLASS
  1
MLEADERSTYLE
  2
AcDbMLeaderStyle
  3
ACDB_MLEADERSTYLE_CLASS
 90
     4095
 91
        1
280
     0
281
     0
  0
CLASS
  1
ACDBSECTIONVIEWSTYLE
  2
AcDbSectionViewStyle
  3
ObjectDBX Classes
 90
     1025
 91
        1
280
     0
281
     0
  0
CLASS
  1
ACDBDETAILVIEWSTYLE
  2
AcDbDetailViewStyle
  3
ObjectDBX Classes
 90
     1025
 91
        1
280
     0
281
     0
  0
CLASS
  1
MESH
  2
AcDbSubDMesh
  3
ObjectDBX Classes
 90
        0
 91
        1
280
     0
281
     1
  0
CLASS
  1
DICTIONARYVAR
  2
AcDbDictionaryVar
  3
ObjectDBX Classes
 90
        0
 91
        9
280
     0
281
     0
  0
CLASS
  1
CELLSTYLEMAP
  2
AcDbCellStyleMap
  3
ObjectDBX Classes
 90
     1152
 91
        1
280
     0
281
     0
  0
ENDSEC
  0
SECTION
  2
TABLES
  0
TABLE
  2
VPORT
  5
8
330
0
100
AcDbSymbolTable
 70
     1
  0
VPORT
  5
A8
330
8
100
AcDbSymbolTableRecord
100
AcDbViewportTableRecord
  2
*Active
 70
     0
 10
0.0
 20
0.0
 11
1.0
 21
1.0
 12
20.50609588623047
 22
635.234375
 13
0.0
 23
0.0
 14
0.5
 24
0.5
 15
0.5
 25
0.5
 16
-1.0
 26
-1.0
 36
1.0
 17
0.0
 27
0.0
 37
0.0
 40
1733.999998953249
 41
0.1488325092779098
 42
50.0
 43
0.0
 44
0.0
 50
0.0
 51
0.0
 71
     0
 72
   100
 73
     1
 74
     3
 75
     0
 76
     0
 77
     0
 78
     0
281
     0
 65
     1
110
0.0
120
0.0
130
0.0
111
1.0
121
0.0
131
0.0
112
0.0
122
1.0
132
0.0
 79
     0
146
0.0
348
C9
 60
     3
 61
     5
292
     1
282
     1
141
0.0
142
0.0
 63
   250
421
  3355443
  0
ENDTAB
  0
TABLE
  2
LTYPE
  5
5
330
0
100
AcDbSymbolTable
 70
     1
  0
LTYPE
  5
14
330
5
100
AcDbSymbolTableRecord
100
AcDbLinetypeTableRecord
  2
ByBlock
 70
     0
  3

 72
    65
 73
     0
 40
0.0
  0
LTYPE
  5
15
330
5
100
AcDbSymbolTableRecord
100
AcDbLinetypeTableRecord
  2
ByLayer
 70
     0
  3

 72
    65
 73
     0
 40
0.0
  0
LTYPE
  5
16
330
5
100
AcDbSymbolTableRecord
100
AcDbLinetypeTableRecord
  2
Continuous
 70
     0
  3
Solid line
 72
    65
 73
     0
 40
0.0
  0
ENDTAB
  0
TABLE
  2
LAYER
  5
2
330
0
100
AcDbSymbolTable
 70
     4
  0
LAYER
  5
10
330
2
100
AcDbSymbolTableRecord
100
AcDbLayerTableRecord
  2
0
 70
     0
 62
   153
420
  7507413
  6
Continuous
370
    -3
390
F
347
BB
  0
LAYER
  5
2B
330
2
100
AcDbSymbolTableRecord
100
AcDbLayerTableRecord
  2
ASHADE
 70
     4
 62
     7
  6
Continuous
370
    -3
390
2D
347
BB
  0
LAYER
  5
F9
330
2
100
AcDbSymbolTableRecord
100
AcDbLayerTableRecord
  2
Insert Point
 70
     0
 62
    41
420
 16768895
  6
Continuous
370
    -3
390
F
347
BB
  0
LAYER
  5
FA
330
2
100
AcDbSymbolTableRecord
100
AcDbLayerTableRecord
  2
Material Color - 01
 70
     0
 62
     7
420
 16777215
  6
Continuous
370
    -3
390
F
347
BB
  0
ENDTAB
  0
TABLE
  2
STYLE
  5
3
330
0
100
AcDbSymbolTable
 70
     2
  0
STYLE
  5
11
330
3
100
AcDbSymbolTableRecord
100
AcDbTextStyleTableRecord
  2
Standard
 70
     0
 40
0.0
 41
1.0
 50
0.0
 71
     0
 42
0.2
  3
txt
  4

  0
STYLE
  5
2C
330
3
100
AcDbSymbolTableRecord
100
AcDbTextStyleTableRecord
  2
ASHADE
 70
     0
 40
0.2
 41
1.0
 50
0.0
 71
     0
 42
0.2
  3
simplex
  4

  0
ENDTAB
  0
TABLE
  2
VIEW
  5
6
330
0
100
AcDbSymbolTable
 70
     0
  0
ENDTAB
  0
TABLE
  2
UCS
  5
7
330
0
100
AcDbSymbolTable
 70
     0
  0
ENDTAB
  0
TABLE
  2
APPID
  5
9
330
0
100
AcDbSymbolTable
 70
     6
  0
APPID
  5
12
330
9
100
AcDbSymbolTableRecord
100
AcDbRegAppTableRecord
  2
ACAD
 70
     0
  0
APPID
  5
8F
330
9
100
AcDbSymbolTableRecord
100
AcDbRegAppTableRecord
  2
AVE_RENDER
 70
     0
  0
APPID
  5
90
330
9
100
AcDbSymbolTableRecord
100
AcDbRegAppTableRecord
  2
AVE_ENTITY_MATERIAL
 70
     0
  0
APPID
  5
9C
330
9
100
AcDbSymbolTableRecord
100
AcDbRegAppTableRecord
  2
AVE_FINISH
 70
     0
  0
APPID
  5
9D
330
9
100
AcDbSymbolTableRecord
100
AcDbRegAppTableRecord
  2
AVE_MATERIAL
 70
     0
  0
APPID
  5
9E
330
9
100
AcDbSymbolTableRecord
100
AcDbRegAppTableRecord
  2
AVE_GLOBAL
 70
     0
  0
ENDTAB
  0
TABLE
  2
DIMSTYLE
  5
A
330
0
100
AcDbSymbolTable
 70
     1
100
AcDbDimStyleTable
 71
     0
  0
DIMSTYLE
105
27
330
A
100
AcDbSymbolTableRecord
100
AcDbDimStyleTableRecord
  2
Standard
 70
     0
340
11
  0
ENDTAB
  0
TABLE
  2
BLOCK_RECORD
  5
1
330
0
100
AcDbSymbolTable
 70
     6
  0
BLOCK_RECORD
  5
1F
330
1
100
AcDbSymbolTableRecord
100
AcDbBlockTableRecord
  2
*Model_Space
340
22
 70
     0
280
     1
281
     0
  0
BLOCK_RECORD
  5
1B
330
1
100
AcDbSymbolTableRecord
100
AcDbBlockTableRecord
  2
*Paper_Space
340
1E
 70
     0
280
     1
281
     0
  0
BLOCK_RECORD
  5
23
330
1
100
AcDbSymbolTableRecord
100
AcDbBlockTableRecord
  2
*Paper_Space0
340
26
 70
     0
280
     1
281
     0
  0
BLOCK_RECORD
  5
2E
330
1
100
AcDbSymbolTableRecord
100
AcDbBlockTableRecord
  2
direct
340
0
 70
     0
280
     1
281
     0
  0
BLOCK_RECORD
  5
42
330
1
100
AcDbSymbolTableRecord
100
AcDbBlockTableRecord
  2
overhead
340
0
 70
     0
280
     1
281
     0
  0
BLOCK_RECORD
  5
5F
330
1
100
AcDbSymbolTableRecord
100
AcDbBlockTableRecord
  2
sh_spot
340
0
 70
     0
280
     1
281
     0
  0
BLOCK_RECORD
  5
91
330
1
100
AcDbSymbolTableRecord
100
AcDbBlockTableRecord
  2
AVE_RENDER
340
0
102
{BLKREFS
331
94
331
95
331
96
331
97
331
98
331
99
331
9A
331
9B
102
}
 70
     0
280
     1
281
     0
  0
BLOCK_RECORD
  5
9F
330
1
100
AcDbSymbolTableRecord
100
AcDbBlockTableRecord
  2
AVE_GLOBAL
340
0
102
{BLKREFS
331
A2
102
}
 70
     0
280
     1
281
     0
  0
ENDTAB
  0
ENDSEC
  0
SECTION
  2
BLOCKS
  0
BLOCK
  5
20
330
1F
100
AcDbEntity
  8
0
100
AcDbBlockBegin
  2
*Model_Space
 70
     0
 10
0.0
 20
0.0
 30
0.0
  3
*Model_Space
  1

  0
ENDBLK
  5
21
330
1F
100
AcDbEntity
  8
0
100
AcDbBlockEnd
  0
BLOCK
  5
1C
330
1B
100
AcDbEntity
 67
     1
  8
0
100
AcDbBlockBegin
  2
*Paper_Space
 70
     0
 10
0.0
 20
0.0
 30
0.0
  3
*Paper_Space
  1

  0
ENDBLK
  5
1D
330
1B
100
AcDbEntity
 67
     1
  8
0
100
AcDbBlockEnd
  0
BLOCK
  5
24
330
23
100
AcDbEntity
 67
     1
  8
0
100
AcDbBlockBegin
  2
*Paper_Space0
 70
     0
 10
0.0
 20
0.0
 30
0.0
  3
*Paper_Space0
  1

  0
ENDBLK
  5
25
330
23
100
AcDbEntity
 67
     1
  8
0
100
AcDbBlockEnd
  0
BLOCK
  5
40
330
2E
100
AcDbEntity
  8
0
100
AcDbBlockBegin
  2
direct
 70
     2
 10
0.0
 20
0.0
 30
0.0
  3
direct
  1

  0
ATTDEF
  5
2F
330
2E
100
AcDbEntity
  8
ASHADE
  6
Continuous
 62
     1
100
AcDbText
 10
0.0
 20
-0.1
 30
0.0
 40
0.2
  1

  7
ASHADE
 72
     1
 11
0.0
 21
-0.1
 31
0.0
100
AcDbAttributeDefinition
280
     0
  3
Light Name
  2
SNAME
 70
     0
280
     0
  0
ARC
  5
30
330
2E
100
AcDbEntity
  8
ASHADE
  6
Continuous
 62
     7
100
AcDbCircle
 10
0.0
 20
0.0
 30
0.0
 40
0.3
100
AcDbArc
 50
205.6792886194569
 51
334.3207113805431
  0
ARC
  5
31
330
2E
100
AcDbEntity
  8
ASHADE
  6
Continuous
 62
     7
100
AcDbCircle
 10
0.0
 20
0.0
 30
0.0
 40
0.3
100
AcDbArc
 50
25.67928861945685
 51
154.3207113805431
  0
LINE
  5
32
330
2E
100
AcDbEntity
  8
ASHADE
  6
Continuous
 62
     7
100
AcDbLine
 10
-0.21
 20
0.2142428528562855
 30
0.0
 11
-0.21
 21
0.5
 31
0.0
  0
LINE
  5
33
330
2E
100
AcDbEntity
  8
ASHADE
  6
Continuous
 62
     7
100
AcDbLine
 10
-0.11
 20
0.2791057147390572
 30
0.0
 11
-0.11
 21
0.5
 31
0.0
  0
LINE
  5
34
330
2E
100
AcDbEntity
  8
ASHADE
  6
Continuous
 62
     7
100
AcDbLine
 10
0.21
 20
0.2142428528562855
 30
0.0
 11
0.21
 21
0.5
 31
0.0
  0
ATTDEF
  5
35
330
2E
100
AcDbEntity
  8
ASHADE
  6
Continuous
 62
     7
100
AcDbText
 10
0.0
 20
0.25
 30
0.0
 40
0.01
  1

100
AcDbAttributeDefinition
280
     0
  3
Look-at Y
  2
LAY
 70
     1
280
     0
  0
ATTDEF
  5
36
330
2E
100
AcDbEntity
  8
ASHADE
  6
Continuous
 62
     7
100
AcDbText
 10
0.0
 20
0.22
 30
0.0
 40
0.01
  1
1
100
AcDbAttributeDefinition
280
     0
  3
Light Intensity
  2
INTENSITY
 70
     1
280
     0
  0
ATTDEF
  5
37
330
2E
100
AcDbEntity
  8
ASHADE
  6
Continuous
 62
     7
100
AcDbText
 10
0.0
 20
0.16
 30
0.0
 40
0.01
  1
-1
100
AcDbAttributeDefinition
280
     0
  3
*not used*
  2
BEAMD
 70
     1
280
     0
  0
ATTDEF
  5
38
330
2E
100
AcDbEntity
  8
ASHADE
  6
Continuous
 62
     7
100
AcDbText
 10
0.0
 20
0.175
 30
0.0
 40
0.01
  1
-1
100
AcDbAttributeDefinition
280
     0
  3
*not used*
  2
CONED
 70
     1
280
     0
  0
ATTDEF
  5
39
330
2E
100
AcDbEntity
  8
ASHADE
  6
Continuous
 62
     7
100
AcDbText
 10
0.0
 20
0.19
 30
0.0
 40
0.01
  1
0
100
AcDbAttributeDefinition
280
     0
  3
Depth Map Size
  2
CONEA
 70
     1
280
     0
  0
ATTDEF
  5
3A
330
2E
100
AcDbEntity
  8
ASHADE
  6
Continuous
 62
     7
100
AcDbText
 10
0.0
 20
0.2050000000000001
 30
0.0
 40
0.01
  1
1,1,1
100
AcDbAttributeDefinition
280
     0
  3
Light Color (RGB)
  2
COLOR
 70
     1
280
     0
  0
ATTDEF
  5
3B
330
2E
100
AcDbEntity
  8
ASHADE
  6
Continuous
 62
     7
100
AcDbText
 10
0.0
 20
0.235
 30
0.0
 40
0.01
  1

100
AcDbAttributeDefinition
280
     0
  3
Look-at Z
  2
LAZ
 70
     1
280
     0
  0
LINE
  5
3C
330
2E
100
AcDbEntity
  8
ASHADE
  6
Continuous
 62
     7
100
AcDbLine
 10
0.0
 20
0.3
 30
0.0
 11
0.0
 21
0.5
 31
0.0
  0
LINE
  5
3D
330
2E
100
AcDbEntity
  8
ASHADE
  6
Continuous
 62
     7
100
AcDbLine
 10
0.11
 20
0.2791057147390572
 30
0.0
 11
0.11
 21
0.5
 31
0.0
  0
ATTDEF
  5
3E
330
2E
100
AcDbEntity
  8
ASHADE
  6
Continuous
 62
     7
100
AcDbText
 10
0.0
 20
0.265
 30
0.0
 40
0.01
  1

100
AcDbAttributeDefinition
280
     0
  3
Look-at X
  2
LAX
 70
     1
280
     0
  0
ATTDEF
  5
3F
330
2E
100
AcDbEntity
  8
ASHADE
  6
Continuous
 62
     7
100
AcDbText
 10
0.0
 20
0.28
 30
0.0
 40
0.01
  1

100
AcDbAttributeDefinition
280
     0
  3

  2
GNAME
 70
     1
280
     0
  0
ENDBLK
  5
41
330
2E
100
AcDbEntity
  8
0
100
AcDbBlockEnd
  0
BLOCK
  5
5D
330
42
100
AcDbEntity
  8
0
100
AcDbBlockBegin
  2
overhead
 70
     2
 10
0.0
 20
0.0
 30
0.0
  3
overhead
  1

  0
ATTDEF
  5
43
330
42
100
AcDbEntity
  8
ASHADE
  6
Continuous
 62
     1
100
AcDbText
 10
0.0
 20
-0.1
 30
0.0
 40
0.2
  1

  7
ASHADE
 72
     1
 11
0.0
 21
-0.1
 31
0.0
100
AcDbAttributeDefinition
280
     0
  3
Light Name
  2
SNAME
 70
     0
280
     0
  0
ARC
  5
44
330
42
100
AcDbEntity
  8
ASHADE
  6
Continuous
 62
     7
100
AcDbCircle
 10
0.0
 20
0.0
 30
0.0
 40
0.3
100
AcDbArc
 50
205.6792886194569
 51
334.3207113805431
  0
LINE
  5
45
330
42
100
AcDbEntity
  8
ASHADE
  6
Continuous
 62
     7
100
AcDbLine
 10
-0.2041413561583015
 20
-0.2198324514393848
 30
0.0
 11
-0.2721884748777353
 21
-0.2931099352525131
 31
0.0
  0
LINE
  5
46
330
42
100
AcDbEntity
  8
ASHADE
  6
Continuous
 62
     7
100
AcDbLine
 10
-0.1096591641591904
 20
-0.2792398032442862
 30
0.0
 11
-0.1279356915190555
 21
-0.3257797704516673
 31
0.0
  0
LINE
  5
47
330
42
100
AcDbEntity
  8
ASHADE
  6
Continuous
 62
     7
100
AcDbLine
 10
0.0
 20
-0.2999999999999999
 30
0.0
 11
0.0
 21
-0.4
 31
0.0
  0
LINE
  5
48
330
42
100
AcDbEntity
  8
ASHADE
  6
Continuous
 62
     7
100
AcDbLine
 10
0.1096591641591904
 20
-0.2792398032442862
 30
0.0
 11
0.1279356915190555
 21
-0.3257797704516673
 31
0.0
  0
LINE
  5
49
330
42
100
AcDbEntity
  8
ASHADE
  6
Continuous
 62
     7
100
AcDbLine
 10
0.2041413561583015
 20
-0.2198324514393848
 30
0.0
 11
0.2721884748777353
 21
-0.2931099352525131
 31
0.0
  0
ARC
  5
4A
330
42
100
AcDbEntity
  8
ASHADE
  6
Continuous
 62
     7
100
AcDbCircle
 10
0.0
 20
0.0
 30
0.0
 40
0.3
100
AcDbArc
 50
25.67928861945685
 51
154.3207113805431
  0
LINE
  5
4B
330
42
100
AcDbEntity
  8
ASHADE
  6
Continuous
 62
     7
100
AcDbLine
 10
-0.2703701166919155
 20
0.13
 30
0.0
 11
-0.3154318028072347
 21
0.1516666666666666
 31
0.0
  0
LINE
  5
4C
330
42
100
AcDbEntity
  8
ASHADE
  6
Continuous
 62
     7
100
AcDbLine
 10
-0.2703701166919155
 20
-0.13
 30
0.0
 11
-0.3154318028072347
 21
-0.1516666666666666
 31
0.0
  0
LINE
  5
4D
330
42
100
AcDbEntity
  8
ASHADE
  6
Continuous
 62
     7
100
AcDbLine
 10
-0.2041413561583015
 20
0.2198324514393849
 30
0.0
 11
-0.2721884748777353
 21
0.2931099352525131
 31
0.0
  0
LINE
  5
4E
330
42
100
AcDbEntity
  8
ASHADE
  6
Continuous
 62
     7
100
AcDbLine
 10
-0.1096591641591904
 20
0.2792398032442862
 30
0.0
 11
-0.1279356915190555
 21
0.3257797704516674
 31
0.0
  0
LINE
  5
4F
330
42
100
AcDbEntity
  8
ASHADE
  6
Continuous
 62
     7
100
AcDbLine
 10
0.2703701166919155
 20
-0.13
 30
0.0
 11
0.3154318028072347
 21
-0.1516666666666666
 31
0.0
  0
LINE
  5
50
330
42
100
AcDbEntity
  8
ASHADE
  6
Continuous
 62
     7
100
AcDbLine
 10
0.2703701166919155
 20
0.13
 30
0.0
 11
0.3154318028072347
 21
0.1516666666666666
 31
0.0
  0
LINE
  5
51
330
42
100
AcDbEntity
  8
ASHADE
  6
Continuous
 62
     7
100
AcDbLine
 10
0.0
 20
0.3
 30
0.0
 11
0.0
 21
0.4
 31
0.0
  0
ATTDEF
  5
52
330
42
100
AcDbEntity
  8
ASHADE
  6
Continuous
 62
     7
100
AcDbText
 10
0.0
 20
0.22
 30
0.0
 40
0.01
  1
1
100
AcDbAttributeDefinition
280
     0
  3
Light Intensity
  2
INTENSITY
 70
     1
280
     0
  0
ATTDEF
  5
53
330
42
100
AcDbEntity
  8
ASHADE
  6
Continuous
 62
     7
100
AcDbText
 10
0.0
 20
0.16
 30
0.0
 40
0.01
  1
-1
100
AcDbAttributeDefinition
280
     0
  3
*not used*
  2
BEAMD
 70
     1
280
     0
  0
ATTDEF
  5
54
330
42
100
AcDbEntity
  8
ASHADE
  6
Continuous
 62
     7
100
AcDbText
 10
0.0
 20
0.175
 30
0.0
 40
0.01
  1
-1
100
AcDbAttributeDefinition
280
     0
  3
*not used*
  2
CONED
 70
     1
280
     0
  0
ATTDEF
  5
55
330
42
100
AcDbEntity
  8
ASHADE
  6
Continuous
 62
     7
100
AcDbText
 10
0.0
 20
0.19
 30
0.0
 40
0.01
  1
0
100
AcDbAttributeDefinition
280
     0
  3
Depth Map Size
  2
CONEA
 70
     1
280
     0
  0
ATTDEF
  5
56
330
42
100
AcDbEntity
  8
ASHADE
  6
Continuous
 62
     7
100
AcDbText
 10
0.0
 20
0.2050000000000001
 30
0.0
 40
0.01
  1
1,1,1
100
AcDbAttributeDefinition
280
     0
  3
Light Color (RGB)
  2
COLOR
 70
     1
280
     0
  0
ATTDEF
  5
57
330
42
100
AcDbEntity
  8
ASHADE
  6
Continuous
 62
     7
100
AcDbText
 10
0.0
 20
0.235
 30
0.0
 40
0.01
  1

100
AcDbAttributeDefinition
280
     0
  3
Look-at Z
  2
LAZ
 70
     1
280
     0
  0
ATTDEF
  5
58
330
42
100
AcDbEntity
  8
ASHADE
  6
Continuous
 62
     7
100
AcDbText
 10
0.0
 20
0.25
 30
0.0
 40
0.01
  1

100
AcDbAttributeDefinition
280
     0
  3
Look-at Y
  2
LAY
 70
     1
280
     0
  0
ATTDEF
  5
59
330
42
100
AcDbEntity
  8
ASHADE
  6
Continuous
 62
     7
100
AcDbText
 10
0.0
 20
0.265
 30
0.0
 40
0.01
  1

100
AcDbAttributeDefinition
280
     0
  3
Look-at X
  2
LAX
 70
     1
280
     0
  0
ATTDEF
  5
5A
330
42
100
AcDbEntity
  8
ASHADE
  6
Continuous
 62
     7
100
AcDbText
 10
0.0
 20
0.28
 30
0.0
 40
0.01
  1

100
AcDbAttributeDefinition
280
     0
  3

  2
GNAME
 70
     1
280
     0
  0
LINE
  5
5B
330
42
100
AcDbEntity
  8
ASHADE
  6
Continuous
 62
     7
100
AcDbLine
 10
0.1096591641591904
 20
0.2792398032442862
 30
0.0
 11
0.1279356915190555
 21
0.3257797704516674
 31
0.0
  0
LINE
  5
5C
330
42
100
AcDbEntity
  8
ASHADE
  6
Continuous
 62
     7
100
AcDbLine
 10
0.2041413561583015
 20
0.2198324514393849
 30
0.0
 11
0.2721884748777353
 21
0.2931099352525131
 31
0.0
  0
ENDBLK
  5
5E
330
42
100
AcDbEntity
  8
0
100
AcDbBlockEnd
  0
BLOCK
  5
85
330
5F
100
AcDbEntity
  8
0
100
AcDbBlockBegin
  2
sh_spot
 70
     2
 10
0.0
 20
0.0
 30
0.0
  3
sh_spot
  1

  0
LINE
  5
60
330
5F
100
AcDbEntity
  8
ASHADE
  6
Continuous
 62
     7
100
AcDbLine
 10
0.25
 20
0.26
 30
0.0
 11
-0.25
 21
0.26
 31
0.0
  0
LINE
  5
61
330
5F
100
AcDbEntity
  8
ASHADE
  6
Continuous
 62
     7
100
AcDbLine
 10
-0.25
 20
-0.3399999999999999
 30
0.0
 11
0.25
 21
-0.3399999999999999
 31
0.0
  0
ATTDEF
  5
62
330
5F
100
AcDbEntity
  8
ASHADE
  6
Continuous
 62
     1
100
AcDbText
 10
0.0
 20
-0.1
 30
0.0
 40
0.2
  1

  7
ASHADE
 72
     1
 11
0.0
 21
-0.1
 31
0.0
100
AcDbAttributeDefinition
280
     0
  3
Light Name
  2
SNAME
 70
     0
280
     0
  0
LINE
  5
63
330
5F
100
AcDbEntity
  8
ASHADE
  6
Continuous
 62
     7
100
AcDbLine
 10
-0.25
 20
-0.13
 30
0.0
 11
-0.25
 21
-0.3399999999999999
 31
0.0
  0
LINE
  5
64
330
5F
100
AcDbEntity
  8
ASHADE
  6
Continuous
 62
     7
100
AcDbLine
 10
-0.25
 20
-0.18
 30
0.0
 11
-0.29
 21
-0.18
 31
0.0
  0
LINE
  5
65
330
5F
100
AcDbEntity
  8
ASHADE
  6
Continuous
 62
     7
100
AcDbLine
 10
-0.29
 20
-0.22
 30
0.0
 11
-0.25
 21
-0.22
 31
0.0
  0
LINE
  5
66
330
5F
100
AcDbEntity
  8
ASHADE
  6
Continuous
 62
     7
100
AcDbLine
 10
-0.29
 20
-0.18
 30
0.0
 11
-0.29
 21
-0.22
 31
0.0
  0
LINE
  5
67
330
5F
100
AcDbEntity
  8
ASHADE
  6
Continuous
 62
     7
100
AcDbLine
 10
-0.1045454545454545
 20
0.26
 30
0.0
 11
-0.15
 21
0.46
 31
0.0
  0
LINE
  5
68
330
5F
100
AcDbEntity
  8
ASHADE
  6
Continuous
 62
     7
100
AcDbLine
 10
-0.21
 20
0.26
 30
0.0
 11
-0.301304347826087
 21
0.46
 31
0.0
  0
LINE
  5
69
330
5F
100
AcDbEntity
  8
ASHADE
  6
Continuous
 62
     7
100
AcDbLine
 10
-0.25
 20
0.26
 30
0.0
 11
-0.25
 21
0.13
 31
0.0
  0
LINE
  5
6A
330
5F
100
AcDbEntity
  8
ASHADE
  6
Continuous
 62
     7
100
AcDbLine
 10
-0.25
 20
0.22
 30
0.0
 11
-0.29
 21
0.22
 31
0.0
  0
LINE
  5
6B
330
5F
100
AcDbEntity
  8
ASHADE
  6
Continuous
 62
     7
100
AcDbLine
 10
-0.29
 20
0.1799999999999999
 30
0.0
 11
-0.25
 21
0.1799999999999999
 31
0.0
  0
LINE
  5
6C
330
5F
100
AcDbEntity
  8
ASHADE
  6
Continuous
 62
     7
100
AcDbLine
 10
-0.29
 20
0.22
 30
0.0
 11
-0.29
 21
0.1799999999999999
 31
0.0
  0
ATTDEF
  5
6D
330
5F
100
AcDbEntity
  8
ASHADE
  6
Continuous
 62
     7
100
AcDbText
 10
0.0
 20
-0.24
 30
0.0
 40
0.01
  1
0
100
AcDbAttributeDefinition
280
     0
  3
Depth Map Size
  2
ZSIZE
 70
     1
280
     0
  0
ATTDEF
  5
6E
330
5F
100
AcDbEntity
  8
ASHADE
  6
Continuous
 62
     7
100
AcDbText
 10
0.0
 20
-0.3300000000000001
 30
0.0
 40
0.01
  1
0,0,0
100
AcDbAttributeDefinition
280
     0
  3
Look-from XYZ
  2
LFXYZ
 70
     1
280
     0
  0
ATTDEF
  5
6F
330
5F
100
AcDbEntity
  8
ASHADE
  6
Continuous
 62
     7
100
AcDbText
 10
0.0
 20
-0.315
 30
0.0
 40
0.01
  1
0.0
100
AcDbAttributeDefinition
280
     0
  3
Beam Distribution
  2
BEAMDI
 70
     1
280
     0
  0
ATTDEF
  5
70
330
5F
100
AcDbEntity
  8
ASHADE
  6
Continuous
 62
     7
100
AcDbText
 10
0.0
 20
-0.3
 30
0.0
 40
0.01
  1
0.0
100
AcDbAttributeDefinition
280
     0
  3
Cone Delta
  2
CONEDE
 70
     1
280
     0
  0
ATTDEF
  5
71
330
5F
100
AcDbEntity
  8
ASHADE
  6
Continuous
 62
     7
100
AcDbText
 10
0.0
 20
-0.2850000000000001
 30
0.0
 40
0.01
  1
10.0
100
AcDbAttributeDefinition
280
     0
  3
Cone Angle
  2
CONEAN
 70
     1
280
     0
  0
ATTDEF
  5
72
330
5F
100
AcDbEntity
  8
ASHADE
  6
Continuous
 62
     7
100
AcDbText
 10
0.0
 20
-0.27
 30
0.0
 40
0.01
  1
-1
100
AcDbAttributeDefinition
280
     0
  3
*not used*
  2
BIASMAX
 70
     1
280
     0
  0
ATTDEF
  5
73
330
5F
100
AcDbEntity
  8
ASHADE
  6
Continuous
 62
     7
100
AcDbText
 10
0.0
 20
-0.255
 30
0.0
 40
0.01
  1
-1
100
AcDbAttributeDefinition
280
     0
  3
*not used*
  2
BIASMIN
 70
     1
280
     0
  0
ATTDEF
  5
74
330
5F
100
AcDbEntity
  8
ASHADE
  6
Continuous
 62
     7
100
AcDbText
 10
0.0
 20
-0.225
 30
0.0
 40
0.01
  1
1,1,1
100
AcDbAttributeDefinition
280
     0
  3
Light Color (RGB)
  2
COLOR
 70
     1
280
     0
  0
ATTDEF
  5
75
330
5F
100
AcDbEntity
  8
ASHADE
  6
Continuous
 62
     7
100
AcDbText
 10
0.0
 20
-0.21
 30
0.0
 40
0.01
  1
1
100
AcDbAttributeDefinition
280
     0
  3
Light Intensity
  2
INTENSITY
 70
     1
280
     0
  0
ATTDEF
  5
76
330
5F
100
AcDbEntity
  8
ASHADE
  6
Continuous
 62
     7
100
AcDbText
 10
0.0
 20
-0.15
 30
0.0
 40
0.01
  1

100
AcDbAttributeDefinition
280
     0
  3

  2
GNAME
 70
     1
280
     0
  0
ATTDEF
  5
77
330
5F
100
AcDbEntity
  8
ASHADE
  6
Continuous
 62
     7
100
AcDbText
 10
0.0
 20
-0.195
 30
0.0
 40
0.01
  1

100
AcDbAttributeDefinition
280
     0
  3
Look-at Z
  2
LAZ
 70
     1
280
     0
  0
ATTDEF
  5
78
330
5F
100
AcDbEntity
  8
ASHADE
  6
Continuous
 62
     7
100
AcDbText
 10
0.0
 20
-0.18
 30
0.0
 40
0.01
  1

100
AcDbAttributeDefinition
280
     0
  3
Look-at Y
  2
LAY
 70
     1
280
     0
  0
ATTDEF
  5
79
330
5F
100
AcDbEntity
  8
ASHADE
  6
Continuous
 62
     7
100
AcDbText
 10
0.0
 20
-0.165
 30
0.0
 40
0.01
  1

100
AcDbAttributeDefinition
280
     0
  3
Look-at X
  2
LAX
 70
     1
280
     0
  0
LINE
  5
7A
330
5F
100
AcDbEntity
  8
ASHADE
  6
Continuous
 62
     7
100
AcDbLine
 10
0.25
 20
-0.3399999999999999
 30
0.0
 11
0.25
 21
-0.13
 31
0.0
  0
LINE
  5
7B
330
5F
100
AcDbEntity
  8
ASHADE
  6
Continuous
 62
     7
100
AcDbLine
 10
0.25
 20
-0.18
 30
0.0
 11
0.29
 21
-0.18
 31
0.0
  0
LINE
  5
7C
330
5F
100
AcDbEntity
  8
ASHADE
  6
Continuous
 62
     7
100
AcDbLine
 10
0.29
 20
-0.22
 30
0.0
 11
0.25
 21
-0.22
 31
0.0
  0
LINE
  5
7D
330
5F
100
AcDbEntity
  8
ASHADE
  6
Continuous
 62
     7
100
AcDbLine
 10
0.29
 20
-0.18
 30
0.0
 11
0.29
 21
-0.22
 31
0.0
  0
LINE
  5
7E
330
5F
100
AcDbEntity
  8
ASHADE
  6
Continuous
 62
     7
100
AcDbLine
 10
0.21
 20
0.26
 30
0.0
 11
0.301304347826087
 21
0.46
 31
0.0
  0
LINE
  5
7F
330
5F
100
AcDbEntity
  8
ASHADE
  6
Continuous
 62
     7
100
AcDbLine
 10
0.1045454545454545
 20
0.26
 30
0.0
 11
0.15
 21
0.46
 31
0.0
  0
LINE
  5
80
330
5F
100
AcDbEntity
  8
ASHADE
  6
Continuous
 62
     7
100
AcDbLine
 10
0.0
 20
0.26
 30
0.0
 11
0.0
 21
0.46
 31
0.0
  0
LINE
  5
81
330
5F
100
AcDbEntity
  8
ASHADE
  6
Continuous
 62
     7
100
AcDbLine
 10
0.25
 20
0.13
 30
0.0
 11
0.25
 21
0.26
 31
0.0
  0
LINE
  5
82
330
5F
100
AcDbEntity
  8
ASHADE
  6
Continuous
 62
     7
100
AcDbLine
 10
0.25
 20
0.22
 30
0.0
 11
0.29
 21
0.22
 31
0.0
  0
LINE
  5
83
330
5F
100
AcDbEntity
  8
ASHADE
  6
Continuous
 62
     7
100
AcDbLine
 10
0.29
 20
0.1799999999999999
 30
0.0
 11
0.25
 21
0.1799999999999999
 31
0.0
  0
LINE
  5
84
330
5F
100
AcDbEntity
  8
ASHADE
  6
Continuous
 62
     7
100
AcDbLine
 10
0.29
 20
0.22
 30
0.0
 11
0.29
 21
0.1799999999999999
 31
0.0
  0
ENDBLK
  5
86
330
5F
100
AcDbEntity
  8
0
100
AcDbBlockEnd
  0
BLOCK
  5
92
330
91
100
AcDbEntity
  8
ASHADE
100
AcDbBlockBegin
  2
AVE_RENDER
 70
     0
 10
0.0
 20
0.0
 30
0.0
  3
AVE_RENDER
  1
AVE_RENDER
  0
ENDBLK
  5
93
330
91
100
AcDbEntity
  8
0
100
AcDbBlockEnd
  0
BLOCK
  5
A0
330
9F
100
AcDbEntity
  8
ASHADE
100
AcDbBlockBegin
  2
AVE_GLOBAL
 70
     0
 10
0.0
 20
0.0
 30
0.0
  3
AVE_GLOBAL
  1
AVE_GLOBAL
  0
ENDBLK
  5
A1
330
9F
100
AcDbEntity
  8
0
100
AcDbBlockEnd
  0
ENDSEC
  0
SECTION
  2
ENTITIES
  0
INSERT
  5
94
330
1F
100
AcDbEntity
  8
ASHADE
 62
     1
100
AcDbBlockReference
  2
AVE_RENDER
 10
0.0
 20
0.0
 30
0.0
1001
AVE_RENDER
1002
{
1070
     7
1000
Pref
1070
    30
1070
    20
1070
     1
1070
     0
1000

1070
    10
1070
     1
1070
    10
1040
1.0
1070
     1
1040
0.3
1040
0.7
1040
0.0
1040
10.0
1010
-1.0
1020
-1.0
1030
-1.0
1040
0.3
1070
    49
1070
     0
1070
     0
1010
1.0
1020
1.0
1030
1.0
1040
45.0
1070
     1
1070
     0
1000
WCS
1040
0.0
1070
     0
1040
10.0
1002
}
  0
INSERT
  5
95
330
1F
100
AcDbEntity
  8
ASHADE
 62
     3
100
AcDbBlockReference
  2
AVE_RENDER
 10
0.0
 20
0.0
 30
0.0
1001
AVE_RENDER
1002
{
1070
     0
1000
Full Opt
1070
     0
1070
     1
1070
     1
1070
     1
1070
     0
1070
     0
1070
     0
1070
     1
1070
     1
1040
0.0001
1040
0.0001
1002
}
  0
INSERT
  5
96
330
1F
100
AcDbEntity
  8
ASHADE
 62
     4
100
AcDbBlockReference
  2
AVE_RENDER
 10
0.0
 20
0.0
 30
0.0
1001
AVE_RENDER
1002
{
1070
     0
1000
Quick Opt
1070
     0
1070
     1
1070
     1
1070
     1
1070
     0
1070
     0
1070
     1
1002
}
  0
INSERT
  5
97
330
1F
100
AcDbEntity
  8
ASHADE
 62
     5
100
AcDbBlockReference
  2
AVE_RENDER
 10
0.0
 20
0.0
 30
0.0
1001
AVE_RENDER
1002
{
1070
     1
1000
Scanl Opt
1070
     2
1070
     0
1070
     2
1040
2.0
1040
4.0
1070
     0
1070
     1
1070
     0
1040
0.03
1002
}
  0
INSERT
  5
98
330
1F
100
AcDbEntity
  8
ASHADE
 62
     6
100
AcDbBlockReference
  2
AVE_RENDER
 10
0.0
 20
0.0
 30
0.0
1001
AVE_RENDER
1002
{
1070
     2
1000
Raytr Opt
1070
     2
1070
     0
1070
     2
1040
2.0
1040
4.0
1070
     0
1070
     1
1070
     1
1040
0.03
1070
     3
1040
0.03
1002
}
  0
INSERT
  5
99
330
1F
100
AcDbEntity
  8
ASHADE
 62
     7
100
AcDbBlockReference
  2
AVE_RENDER
 10
0.0
 20
0.0
 30
0.0
1001
AVE_RENDER
1002
{
1070
     0
1000
RFile Opt
1070
     1
1070
   640
1070
   480
1070
 10000
1070
     1
1070
     8
1070
     8
1070
     0
1070
     0
1070
     0
1070
     0
1070
     0
1070
     0
1070
     0
1002
}
  0
INSERT
  5
9A
330
1F
100
AcDbEntity
  8
ASHADE
 62
     8
100
AcDbBlockReference
  2
AVE_RENDER
 10
0.0
 20
0.0
 30
0.0
1001
AVE_RENDER
1002
{
1070
     0
1000
Fog Opt
1070
     0
1070
     0
1040
0.0
1040
1.0
1040
0.0
1040
1.0
1010
0.5
1020
0.5
1030
0.5
1002
}
  0
INSERT
  5
9B
330
1F
100
AcDbEntity
  8
ASHADE
 62
     9
100
AcDbBlockReference
  2
AVE_RENDER
 10
0.0
 20
0.0
 30
0.0
1001
AVE_RENDER
1002
{
1070
     0
1000
BG Opt
1070
     0
1070
     1
1010
0.0
1020
0.0
1030
0.0
1010
1.0
1020
0.0
1030
0.0
1010
0.0
1020
1.0
1030
0.0
1010
0.0
1020
0.0
1030
1.0
1040
0.5
1040
0.33
1040
0.0
1000

1070
     1
1000

1070
     1
1070
     1
1040
1.0
1040
1.0
1040
0.0
1040
0.0
1070
     0
1002
}
  0
INSERT
  5
A2
330
1F
100
AcDbEntity
  8
ASHADE
 62
     1
100
AcDbBlockReference
  2
AVE_GLOBAL
 10
0.0
 20
0.0
 30
0.0
1001
AVE_MATERIAL
1002
{
1000
*GLOBAL*
1000
2
1000
Global finish.
1002
{
1002
}
1002
{
1070
    63
1002
{
1002
{
1010
-1.0
1020
-1.0
1030
-1.0
1002
}
1040
0.1000000014901161
1000

1040
0.0
1002
{
1002
}
1040
0.0
1002
{
1002
}
1040
0.0
1002
}
1002
{
1002
{
1010
-1.0
1020
-1.0
1030
-1.0
1002
}
1040
0.6999999880790711
1000

1040
0.0
1002
{
1002
}
1040
0.0
1002
{
1002
}
1040
0.0
1002
}
1002
{
1002
{
1010
-1.0
1020
-1.0
1030
-1.0
1002
}
1040
0.2000000029802322
1000

1040
0.0
1002
{
1002
}
1040
0.0
1002
{
1002
}
1040
0.0
1002
}
1002
{
1070
     0
1002
{
1070
     1
1002
{
1040
1.0
1040
1.0
1000

1040
0.0
1002
{
1002
}
1040
0.0
1002
{
1002
}
1040
0.0
1002
}
1002
}
1040
1.0
1040
0.0
1040
0.0
1002
}
1002
{
1040
1.0
1040
1.0
1000

1040
0.0
1002
{
1002
}
1040
0.0
1002
{
1002
}
1040
0.0
1002
}
1002
{
1040
0.5
1040
1.0
1000

1040
0.0
1002
{
1002
}
1040
0.0
1002
{
1002
}
1040
0.0
1002
}
1002
{
1070
     0
1040
0.0
1002
{
1002
}
1040
1.0
1002
{
1002
}
1040
0.0
1002
}
1002
{
1040
0.0
1002
{
1002
{
1010
0.0
1020
0.0
1030
0.0
1002
}
1040
1.0
1000

1040
0.0
1002
{
1002
}
1040
0.0
1002
{
1002
}
1040
0.0
1002
}
1002
}
1002
{
1002
{
1070
     1
1002
{
1040
0.0
1040
1.0
1000

1040
0.0
1002
{
1002
}
1040
0.0
1002
{
1002
}
1040
0.0
1002
}
1002
}
1040
0.0
1002
{
1002
}
1010
1.0
1020
0.0
1030
0.0
1010
0.0
1020
1.0
1030
0.0
1010
0.0
1020
0.0
1030
1.0
1070
     0
1002
}
1002
{
1002
{
1040
1.0
1040
1.0
1002
{
1070
     1
1002
{
1040
1.0
1040
1.0
1000

1040
0.0
1002
{
1002
}
1040
0.0
1002
{
1002
}
1040
0.0
1002
}
1002
}
1002
}
1070
     0
1040
0.0
1002
{
1002
}
1002
}
1002
{
1002
}
1002
}
1002
{
1071
        3
1070
     3
1070
     0
1002
{
1070
     2
1070
     0
1070
     0
1040
0.0
1002
}
1070
     0
1070
     2
1002
{
1002
}
1002
}
1002
{
1040
8030.0
1040
190.3000030517578
1040
0.3050000071525574
1040
228.0
1040
545.0
1040
14.0
1040
17.39999961853027
1040
0.4560000002384186
1002
}
1002
}
  0
POLYLINE
  5
FB
330
1F
100
AcDbEntity
  8
Insert Point
100
AcDb2dPolyline
 66
     1
 10
0.0
 20
0.0
 30
0.0
 70
     1
  0
VERTEX
  5
FC
330
FB
100
AcDbEntity
  8
Insert Point
100
AcDbVertex
100
AcDb2dVertex
 10
60.0
 20
0.0
 30
0.0
  0
VERTEX
  5
FD
330
FB
100
AcDbEntity
  8
Insert Point
100
AcDbVertex
100
AcDb2dVertex
 10
59.92184066772461
 20
3.084959983825683
 30
0.0
  0
VERTEX
  5
FE
330
FB
100
AcDbEntity
  8
Insert Point
100
AcDbVertex
100
AcDb2dVertex
 10
59.68989562988281
 20
6.129721641540527
 30
0.0
  0
VERTEX
  5
FF
330
FB
100
AcDbEntity
  8
Insert Point
100
AcDbVertex
100
AcDb2dVertex
 10
59.30794906616211
 20
9.130498886108398
 30
0.0
  0
VERTEX
  5
100
330
FB
100
AcDbEntity
  8
Insert Point
100
AcDbVertex
100
AcDb2dVertex
 10
58.77978515625
 20
12.08350372314453
 30
0.0
  0
VERTEX
  5
101
330
FB
100
AcDbEntity
  8
Insert Point
100
AcDbVertex
100
AcDb2dVertex
 10
58.10919189453125
 20
14.98495101928711
 30
0.0
  0
VERTEX
  5
102
330
FB
100
AcDbEntity
  8
Insert Point
100
AcDbVertex
100
AcDb2dVertex
 10
57.29995346069336
 20
17.83105659484863
 30
0.0
  0
VERTEX
  5
103
330
FB
100
AcDbEntity
  8
Insert Point
100
AcDbVertex
100
AcDb2dVertex
 10
56.35585784912109
 20
20.61802864074707
 30
0.0
  0
VERTEX
  5
104
330
FB
100
AcDbEntity
  8
Insert Point
100
AcDbVertex
100
AcDb2dVertex
 10
55.28069686889648
 20
23.34208679199219
 30
0.0
  0
VERTEX
  5
105
330
FB
100
AcDbEntity
  8
Insert Point
100
AcDbVertex
100
AcDb2dVertex
 10
54.07824325561524
 20
25.99944305419922
 30
0.0
  0
VERTEX
  5
106
330
FB
100
AcDbEntity
  8
Insert Point
100
AcDbVertex
100
AcDb2dVertex
 10
52.7522964477539
 20
28.58630752563477
 30
0.0
  0
VERTEX
  5
107
330
FB
100
AcDbEntity
  8
Insert Point
100
AcDbVertex
100
AcDb2dVertex
 10
51.30663681030274
 20
31.09889793395996
 30
0.0
  0
VERTEX
  5
108
330
FB
100
AcDbEntity
  8
Insert Point
100
AcDbVertex
100
AcDb2dVertex
 10
49.74505615234375
 20
33.53342437744141
 30
0.0
  0
VERTEX
  5
109
330
FB
100
AcDbEntity
  8
Insert Point
100
AcDbVertex
100
AcDb2dVertex
 10
48.07133102416992
 20
35.88610458374024
 30
0.0
  0
VERTEX
  5
10A
330
FB
100
AcDbEntity
  8
Insert Point
100
AcDbVertex
100
AcDb2dVertex
 10
46.28925323486328
 20
38.15314865112305
 30
0.0
  0
VERTEX
  5
10B
330
FB
100
AcDbEntity
  8
Insert Point
100
AcDbVertex
100
AcDb2dVertex
 10
44.40261077880859
 20
40.33077239990234
 30
0.0
  0
VERTEX
  5
10C
330
FB
100
AcDbEntity
  8
Insert Point
100
AcDbVertex
100
AcDb2dVertex
 10
42.41518783569335
 20
42.41518783569335
 30
0.0
  0
VERTEX
  5
10D
330
FB
100
AcDbEntity
  8
Insert Point
100
AcDbVertex
100
AcDb2dVertex
 10
40.33077239990234
 20
44.40261077880859
 30
0.0
  0
VERTEX
  5
10E
330
FB
100
AcDbEntity
  8
Insert Point
100
AcDbVertex
100
AcDb2dVertex
 10
38.15314483642578
 20
46.28925704956055
 30
0.0
  0
VERTEX
  5
10F
330
FB
100
AcDbEntity
  8
Insert Point
100
AcDbVertex
100
AcDb2dVertex
 10
35.88610076904297
 20
48.07133102416992
 30
0.0
  0
VERTEX
  5
110
330
FB
100
AcDbEntity
  8
Insert Point
100
AcDbVertex
100
AcDb2dVertex
 10
33.53342056274414
 20
49.74505615234375
 30
0.0
  0
VERTEX
  5
111
330
FB
100
AcDbEntity
  8
Insert Point
100
AcDbVertex
100
AcDb2dVertex
 10
31.09889602661133
 20
51.30663681030274
 30
0.0
  0
VERTEX
  5
112
330
FB
100
AcDbEntity
  8
Insert Point
100
AcDbVertex
100
AcDb2dVertex
 10
28.58630752563477
 20
52.75230026245117
 30
0.0
  0
VERTEX
  5
113
330
FB
100
AcDbEntity
  8
Insert Point
100
AcDbVertex
100
AcDb2dVertex
 10
25.99943923950196
 20
54.0782470703125
 30
0.0
  0
VERTEX
  5
114
330
FB
100
AcDbEntity
  8
Insert Point
100
AcDbVertex
100
AcDb2dVertex
 10
23.34208488464355
 20
55.28069686889648
 30
0.0
  0
VERTEX
  5
115
330
FB
100
AcDbEntity
  8
Insert Point
100
AcDbVertex
100
AcDb2dVertex
 10
20.61802673339844
 20
56.35586166381836
 30
0.0
  0
VERTEX
  5
116
330
FB
100
AcDbEntity
  8
Insert Point
100
AcDbVertex
100
AcDb2dVertex
 10
17.83105278015137
 20
57.29995727539062
 30
0.0
  0
VERTEX
  5
117
330
FB
100
AcDbEntity
  8
Insert Point
100
AcDbVertex
100
AcDb2dVertex
 10
14.98494911193847
 20
58.10919189453125
 30
0.0
  0
VERTEX
  5
118
330
FB
100
AcDbEntity
  8
Insert Point
100
AcDbVertex
100
AcDb2dVertex
 10
12.08350086212158
 20
58.77978515625
 30
0.0
  0
VERTEX
  5
119
330
FB
100
AcDbEntity
  8
Insert Point
100
AcDbVertex
100
AcDb2dVertex
 10
9.130496025085449
 20
59.30794906616211
 30
0.0
  0
VERTEX
  5
11A
330
FB
100
AcDbEntity
  8
Insert Point
100
AcDbVertex
100
AcDb2dVertex
 10
6.129718780517578
 20
59.68989944458008
 30
0.0
  0
VERTEX
  5
11B
330
FB
100
AcDbEntity
  8
Insert Point
100
AcDbVertex
100
AcDb2dVertex
 10
3.084957361221313
 20
59.92184448242188
 30
0.0
  0
VERTEX
  5
11C
330
FB
100
AcDbEntity
  8
Insert Point
100
AcDbVertex
100
AcDb2dVertex
 10
-0.0000026226832688
 20
60.0
 30
0.0
  0
VERTEX
  5
11D
330
FB
100
AcDbEntity
  8
Insert Point
100
AcDbVertex
100
AcDb2dVertex
 10
-3.084962844848632
 20
59.92184066772461
 30
0.0
  0
VERTEX
  5
11E
330
FB
100
AcDbEntity
  8
Insert Point
100
AcDbVertex
100
AcDb2dVertex
 10
-6.129724025726318
 20
59.68989562988281
 30
0.0
  0
VERTEX
  5
11F
330
FB
100
AcDbEntity
  8
Insert Point
100
AcDbVertex
100
AcDb2dVertex
 10
-9.130500793457031
 20
59.30794906616211
 30
0.0
  0
VERTEX
  5
120
330
FB
100
AcDbEntity
  8
Insert Point
100
AcDbVertex
100
AcDb2dVertex
 10
-12.08350563049316
 20
58.77978515625
 30
0.0
  0
VERTEX
  5
121
330
FB
100
AcDbEntity
  8
Insert Point
100
AcDbVertex
100
AcDb2dVertex
 10
-14.98495578765869
 20
58.10919189453125
 30
0.0
  0
VERTEX
  5
122
330
FB
100
AcDbEntity
  8
Insert Point
100
AcDbVertex
100
AcDb2dVertex
 10
-17.8310604095459
 20
57.29995346069336
 30
0.0
  0
VERTEX
  5
123
330
FB
100
AcDbEntity
  8
Insert Point
100
AcDbVertex
100
AcDb2dVertex
 10
-20.61803436279297
 20
56.35585784912109
 30
0.0
  0
VERTEX
  5
124
330
FB
100
AcDbEntity
  8
Insert Point
100
AcDbVertex
100
AcDb2dVertex
 10
-23.34209060668945
 20
55.28069686889648
 30
0.0
  0
VERTEX
  5
125
330
FB
100
AcDbEntity
  8
Insert Point
100
AcDbVertex
100
AcDb2dVertex
 10
-25.99944686889648
 20
54.07824325561524
 30
0.0
  0
VERTEX
  5
126
330
FB
100
AcDbEntity
  8
Insert Point
100
AcDbVertex
100
AcDb2dVertex
 10
-28.58631134033203
 20
52.7522964477539
 30
0.0
  0
VERTEX
  5
127
330
FB
100
AcDbEntity
  8
Insert Point
100
AcDbVertex
100
AcDb2dVertex
 10
-31.09889984130859
 20
51.30663681030274
 30
0.0
  0
VERTEX
  5
128
330
FB
100
AcDbEntity
  8
Insert Point
100
AcDbVertex
100
AcDb2dVertex
 10
-33.53342819213867
 20
49.74505615234375
 30
0.0
  0
VERTEX
  5
129
330
FB
100
AcDbEntity
  8
Insert Point
100
AcDbVertex
100
AcDb2dVertex
 10
-35.8861083984375
 20
48.07133102416992
 30
0.0
  0
VERTEX
  5
12A
330
FB
100
AcDbEntity
  8
Insert Point
100
AcDbVertex
100
AcDb2dVertex
 10
-38.15315246582031
 20
46.28925323486328
 30
0.0
  0
VERTEX
  5
12B
330
FB
100
AcDbEntity
  8
Insert Point
100
AcDbVertex
100
AcDb2dVertex
 10
-40.33077621459961
 20
44.40261077880859
 30
0.0
  0
VERTEX
  5
12C
330
FB
100
AcDbEntity
  8
Insert Point
100
AcDbVertex
100
AcDb2dVertex
 10
-42.41519165039062
 20
42.41518783569335
 30
0.0
  0
VERTEX
  5
12D
330
FB
100
AcDbEntity
  8
Insert Point
100
AcDbVertex
100
AcDb2dVertex
 10
-44.40261459350586
 20
40.33077239990234
 30
0.0
  0
VERTEX
  5
12E
330
FB
100
AcDbEntity
  8
Insert Point
100
AcDbVertex
100
AcDb2dVertex
 10
-46.28926086425781
 20
38.15314483642578
 30
0.0
  0
VERTEX
  5
12F
330
FB
100
AcDbEntity
  8
Insert Point
100
AcDbVertex
100
AcDb2dVertex
 10
-48.07133483886719
 20
35.88610076904297
 30
0.0
  0
VERTEX
  5
130
330
FB
100
AcDbEntity
  8
Insert Point
100
AcDbVertex
100
AcDb2dVertex
 10
-49.74505615234375
 20
33.53342056274414
 30
0.0
  0
VERTEX
  5
131
330
FB
100
AcDbEntity
  8
Insert Point
100
AcDbVertex
100
AcDb2dVertex
 10
-51.30664443969727
 20
31.0988941192627
 30
0.0
  0
VERTEX
  5
132
330
FB
100
AcDbEntity
  8
Insert Point
100
AcDbVertex
100
AcDb2dVertex
 10
-52.75230026245117
 20
28.58630561828613
 30
0.0
  0
VERTEX
  5
133
330
FB
100
AcDbEntity
  8
Insert Point
100
AcDbVertex
100
AcDb2dVertex
 10
-54.0782470703125
 20
25.99943923950196
 30
0.0
  0
VERTEX
  5
134
330
FB
100
AcDbEntity
  8
Insert Point
100
AcDbVertex
100
AcDb2dVertex
 10
-55.28070068359375
 20
23.34208488464355
 30
0.0
  0
VERTEX
  5
135
330
FB
100
AcDbEntity
  8
Insert Point
100
AcDbVertex
100
AcDb2dVertex
 10
-56.35586547851563
 20
20.61802673339844
 30
0.0
  0
VERTEX
  5
136
330
FB
100
AcDbEntity
  8
Insert Point
100
AcDbVertex
100
AcDb2dVertex
 10
-57.29995727539062
 20
17.83105278015137
 30
0.0
  0
VERTEX
  5
137
330
FB
100
AcDbEntity
  8
Insert Point
100
AcDbVertex
100
AcDb2dVertex
 10
-58.10919570922852
 20
14.98494815826416
 30
0.0
  0
VERTEX
  5
138
330
FB
100
AcDbEntity
  8
Insert Point
100
AcDbVertex
100
AcDb2dVertex
 10
-58.77978897094727
 20
12.08349895477295
 30
0.0
  0
VERTEX
  5
139
330
FB
100
AcDbEntity
  8
Insert Point
100
AcDbVertex
100
AcDb2dVertex
 10
-59.30795288085938
 20
9.130494117736816
 30
0.0
  0
VERTEX
  5
13A
330
FB
100
AcDbEntity
  8
Insert Point
100
AcDbVertex
100
AcDb2dVertex
 10
-59.68989944458008
 20
6.129716873168945
 30
0.0
  0
VERTEX
  5
13B
330
FB
100
AcDbEntity
  8
Insert Point
100
AcDbVertex
100
AcDb2dVertex
 10
-59.92184448242188
 20
3.084954977035522
 30
0.0
  0
VERTEX
  5
13C
330
FB
100
AcDbEntity
  8
Insert Point
100
AcDbVertex
100
AcDb2dVertex
 10
-60.0
 20
-0.0000052453665376
 30
0.0
  0
VERTEX
  5
13D
330
FB
100
AcDbEntity
  8
Insert Point
100
AcDbVertex
100
AcDb2dVertex
 10
-59.92184066772461
 20
-3.084964990615844
 30
0.0
  0
VERTEX
  5
13E
330
FB
100
AcDbEntity
  8
Insert Point
100
AcDbVertex
100
AcDb2dVertex
 10
-59.68989562988281
 20
-6.129726409912109
 30
0.0
  0
VERTEX
  5
13F
330
FB
100
AcDbEntity
  8
Insert Point
100
AcDbVertex
100
AcDb2dVertex
 10
-59.30794906616211
 20
-9.130502700805664
 30
0.0
  0
VERTEX
  5
140
330
FB
100
AcDbEntity
  8
Insert Point
100
AcDbVertex
100
AcDb2dVertex
 10
-58.77978515625
 20
-12.08350849151611
 30
0.0
  0
VERTEX
  5
141
330
FB
100
AcDbEntity
  8
Insert Point
100
AcDbVertex
100
AcDb2dVertex
 10
-58.10919189453125
 20
-14.98495674133301
 30
0.0
  0
VERTEX
  5
142
330
FB
100
AcDbEntity
  8
Insert Point
100
AcDbVertex
100
AcDb2dVertex
 10
-57.29995727539062
 20
-17.8310604095459
 30
0.0
  0
VERTEX
  5
143
330
FB
100
AcDbEntity
  8
Insert Point
100
AcDbVertex
100
AcDb2dVertex
 10
-56.35585784912109
 20
-20.61803436279297
 30
0.0
  0
VERTEX
  5
144
330
FB
100
AcDbEntity
  8
Insert Point
100
AcDbVertex
100
AcDb2dVertex
 10
-55.28069686889648
 20
-23.34209060668945
 30
0.0
  0
VERTEX
  5
145
330
FB
100
AcDbEntity
  8
Insert Point
100
AcDbVertex
100
AcDb2dVertex
 10
-54.07824325561524
 20
-25.99944305419922
 30
0.0
  0
VERTEX
  5
146
330
FB
100
AcDbEntity
  8
Insert Point
100
AcDbVertex
100
AcDb2dVertex
 10
-52.7522964477539
 20
-28.58631134033203
 30
0.0
  0
VERTEX
  5
147
330
FB
100
AcDbEntity
  8
Insert Point
100
AcDbVertex
100
AcDb2dVertex
 10
-51.306640625
 20
-31.09889984130859
 30
0.0
  0
VERTEX
  5
148
330
FB
100
AcDbEntity
  8
Insert Point
100
AcDbVertex
100
AcDb2dVertex
 10
-49.74504852294922
 20
-33.53342819213867
 30
0.0
  0
VERTEX
  5
149
330
FB
100
AcDbEntity
  8
Insert Point
100
AcDbVertex
100
AcDb2dVertex
 10
-48.07132720947265
 20
-35.8861083984375
 30
0.0
  0
VERTEX
  5
14A
330
FB
100
AcDbEntity
  8
Insert Point
100
AcDbVertex
100
AcDb2dVertex
 10
-46.28925323486328
 20
-38.15315246582031
 30
0.0
  0
VERTEX
  5
14B
330
FB
100
AcDbEntity
  8
Insert Point
100
AcDbVertex
100
AcDb2dVertex
 10
-44.40261077880859
 20
-40.33077621459961
 30
0.0
  0
VERTEX
  5
14C
330
FB
100
AcDbEntity
  8
Insert Point
100
AcDbVertex
100
AcDb2dVertex
 10
-42.41518783569335
 20
-42.41519165039062
 30
0.0
  0
VERTEX
  5
14D
330
FB
100
AcDbEntity
  8
Insert Point
100
AcDbVertex
100
AcDb2dVertex
 10
-40.33077239990234
 20
-44.40261077880859
 30
0.0
  0
VERTEX
  5
14E
330
FB
100
AcDbEntity
  8
Insert Point
100
AcDbVertex
100
AcDb2dVertex
 10
-38.15314483642578
 20
-46.28925704956055
 30
0.0
  0
VERTEX
  5
14F
330
FB
100
AcDbEntity
  8
Insert Point
100
AcDbVertex
100
AcDb2dVertex
 10
-35.88610076904297
 20
-48.07133483886719
 30
0.0
  0
VERTEX
  5
150
330
FB
100
AcDbEntity
  8
Insert Point
100
AcDbVertex
100
AcDb2dVertex
 10
-33.53342437744141
 20
-49.74505615234375
 30
0.0
  0
VERTEX
  5
151
330
FB
100
AcDbEntity
  8
Insert Point
100
AcDbVertex
100
AcDb2dVertex
 10
-31.09889602661133
 20
-51.306640625
 30
0.0
  0
VERTEX
  5
152
330
FB
100
AcDbEntity
  8
Insert Point
100
AcDbVertex
100
AcDb2dVertex
 10
-28.58630752563477
 20
-52.75230026245117
 30
0.0
  0
VERTEX
  5
153
330
FB
100
AcDbEntity
  8
Insert Point
100
AcDbVertex
100
AcDb2dVertex
 10
-25.99944114685059
 20
-54.0782470703125
 30
0.0
  0
VERTEX
  5
154
330
FB
100
AcDbEntity
  8
Insert Point
100
AcDbVertex
100
AcDb2dVertex
 10
-23.34208679199219
 20
-55.28069686889648
 30
0.0
  0
VERTEX
  5
155
330
FB
100
AcDbEntity
  8
Insert Point
100
AcDbVertex
100
AcDb2dVertex
 10
-20.61802864074707
 20
-56.35586166381836
 30
0.0
  0
VERTEX
  5
156
330
FB
100
AcDbEntity
  8
Insert Point
100
AcDbVertex
100
AcDb2dVertex
 10
-17.83105659484863
 20
-57.29995727539062
 30
0.0
  0
VERTEX
  5
157
330
FB
100
AcDbEntity
  8
Insert Point
100
AcDbVertex
100
AcDb2dVertex
 10
-14.98495197296142
 20
-58.10919189453125
 30
0.0
  0
VERTEX
  5
158
330
FB
100
AcDbEntity
  8
Insert Point
100
AcDbVertex
100
AcDb2dVertex
 10
-12.08350276947021
 20
-58.77978515625
 30
0.0
  0
VERTEX
  5
159
330
FB
100
AcDbEntity
  8
Insert Point
100
AcDbVertex
100
AcDb2dVertex
 10
-9.130497932434082
 20
-59.30794906616211
 30
0.0
  0
VERTEX
  5
15A
330
FB
100
AcDbEntity
  8
Insert Point
100
AcDbVertex
100
AcDb2dVertex
 10
-6.129721164703369
 20
-59.68989944458008
 30
0.0
  0
VERTEX
  5
15B
330
FB
100
AcDbEntity
  8
Insert Point
100
AcDbVertex
100
AcDb2dVertex
 10
-3.084959268569946
 20
-59.92184448242188
 30
0.0
  0
VERTEX
  5
15C
330
FB
100
AcDbEntity
  8
Insert Point
100
AcDbVertex
100
AcDb2dVertex
 10
0.0000007154928312
 20
-60.0
 30
0.0
  0
VERTEX
  5
15D
330
FB
100
AcDbEntity
  8
Insert Point
100
AcDbVertex
100
AcDb2dVertex
 10
3.08496069908142
 20
-59.92184066772461
 30
0.0
  0
VERTEX
  5
15E
330
FB
100
AcDbEntity
  8
Insert Point
100
AcDbVertex
100
AcDb2dVertex
 10
6.129722118377685
 20
-59.68989562988281
 30
0.0
  0
VERTEX
  5
15F
330
FB
100
AcDbEntity
  8
Insert Point
100
AcDbVertex
100
AcDb2dVertex
 10
9.130499839782714
 20
-59.30794906616211
 30
0.0
  0
VERTEX
  5
160
330
FB
100
AcDbEntity
  8
Insert Point
100
AcDbVertex
100
AcDb2dVertex
 10
12.08350467681885
 20
-58.77978515625
 30
0.0
  0
VERTEX
  5
161
330
FB
100
AcDbEntity
  8
Insert Point
100
AcDbVertex
100
AcDb2dVertex
 10
14.98495197296142
 20
-58.10919189453125
 30
0.0
  0
VERTEX
  5
162
330
FB
100
AcDbEntity
  8
Insert Point
100
AcDbVertex
100
AcDb2dVertex
 10
17.83105659484863
 20
-57.29995727539062
 30
0.0
  0
VERTEX
  5
163
330
FB
100
AcDbEntity
  8
Insert Point
100
AcDbVertex
100
AcDb2dVertex
 10
20.61802864074707
 20
-56.35585784912109
 30
0.0
  0
VERTEX
  5
164
330
FB
100
AcDbEntity
  8
Insert Point
100
AcDbVertex
100
AcDb2dVertex
 10
23.34208679199219
 20
-55.28069686889648
 30
0.0
  0
VERTEX
  5
165
330
FB
100
AcDbEntity
  8
Insert Point
100
AcDbVertex
100
AcDb2dVertex
 10
25.99944305419922
 20
-54.07824325561524
 30
0.0
  0
VERTEX
  5
166
330
FB
100
AcDbEntity
  8
Insert Point
100
AcDbVertex
100
AcDb2dVertex
 10
28.58630752563477
 20
-52.7522964477539
 30
0.0
  0
VERTEX
  5
167
330
FB
100
AcDbEntity
  8
Insert Point
100
AcDbVertex
100
AcDb2dVertex
 10
31.09889793395996
 20
-51.306640625
 30
0.0
  0
VERTEX
  5
168
330
FB
100
AcDbEntity
  8
Insert Point
100
AcDbVertex
100
AcDb2dVertex
 10
33.53342437744141
 20
-49.74505615234375
 30
0.0
  0
VERTEX
  5
169
330
FB
100
AcDbEntity
  8
Insert Point
100
AcDbVertex
100
AcDb2dVertex
 10
35.88610458374024
 20
-48.07133102416992
 30
0.0
  0
VERTEX
  5
16A
330
FB
100
AcDbEntity
  8
Insert Point
100
AcDbVertex
100
AcDb2dVertex
 10
38.15314865112305
 20
-46.28925323486328
 30
0.0
  0
VERTEX
  5
16B
330
FB
100
AcDbEntity
  8
Insert Point
100
AcDbVertex
100
AcDb2dVertex
 10
40.33077239990234
 20
-44.40261459350586
 30
0.0
  0
VERTEX
  5
16C
330
FB
100
AcDbEntity
  8
Insert Point
100
AcDbVertex
100
AcDb2dVertex
 10
42.41518783569335
 20
-42.41518783569335
 30
0.0
  0
VERTEX
  5
16D
330
FB
100
AcDbEntity
  8
Insert Point
100
AcDbVertex
100
AcDb2dVertex
 10
44.40261077880859
 20
-40.33077239990234
 30
0.0
  0
VERTEX
  5
16E
330
FB
100
AcDbEntity
  8
Insert Point
100
AcDbVertex
100
AcDb2dVertex
 10
46.28925704956055
 20
-38.15314865112305
 30
0.0
  0
VERTEX
  5
16F
330
FB
100
AcDbEntity
  8
Insert Point
100
AcDbVertex
100
AcDb2dVertex
 10
48.07133102416992
 20
-35.88610076904297
 30
0.0
  0
VERTEX
  5
170
330
FB
100
AcDbEntity
  8
Insert Point
100
AcDbVertex
100
AcDb2dVertex
 10
49.74505615234375
 20
-33.53342437744141
 30
0.0
  0
VERTEX
  5
171
330
FB
100
AcDbEntity
  8
Insert Point
100
AcDbVertex
100
AcDb2dVertex
 10
51.30663681030274
 20
-31.09889602661133
 30
0.0
  0
VERTEX
  5
172
330
FB
100
AcDbEntity
  8
Insert Point
100
AcDbVertex
100
AcDb2dVertex
 10
52.75230026245117
 20
-28.58630752563477
 30
0.0
  0
VERTEX
  5
173
330
FB
100
AcDbEntity
  8
Insert Point
100
AcDbVertex
100
AcDb2dVertex
 10
54.0782470703125
 20
-25.99944114685059
 30
0.0
  0
VERTEX
  5
174
330
FB
100
AcDbEntity
  8
Insert Point
100
AcDbVertex
100
AcDb2dVertex
 10
55.28069686889648
 20
-23.34208679199219
 30
0.0
  0
VERTEX
  5
175
330
FB
100
AcDbEntity
  8
Insert Point
100
AcDbVertex
100
AcDb2dVertex
 10
56.35586166381836
 20
-20.6180305480957
 30
0.0
  0
VERTEX
  5
176
330
FB
100
AcDbEntity
  8
Insert Point
100
AcDbVertex
100
AcDb2dVertex
 10
57.29995727539062
 20
-17.83105659484863
 30
0.0
  0
VERTEX
  5
177
330
FB
100
AcDbEntity
  8
Insert Point
100
AcDbVertex
100
AcDb2dVertex
 10
58.10919189453125
 20
-14.98495197296142
 30
0.0
  0
VERTEX
  5
178
330
FB
100
AcDbEntity
  8
Insert Point
100
AcDbVertex
100
AcDb2dVertex
 10
58.77978515625
 20
-12.08350372314453
 30
0.0
  0
VERTEX
  5
179
330
FB
100
AcDbEntity
  8
Insert Point
100
AcDbVertex
100
AcDb2dVertex
 10
59.30794906616211
 20
-9.130498886108398
 30
0.0
  0
VERTEX
  5
17A
330
FB
100
AcDbEntity
  8
Insert Point
100
AcDbVertex
100
AcDb2dVertex
 10
59.68989944458008
 20
-6.129721641540527
 30
0.0
  0
VERTEX
  5
17B
330
FB
100
AcDbEntity
  8
Insert Point
100
AcDbVertex
100
AcDb2dVertex
 10
59.92184448242188
 20
-3.084959983825683
 30
0.0
  0
SEQEND
  5
17C
330
FB
100
AcDbEntity
  8
Insert Point
  0
MESH
  5
17D
330
1F
100
AcDbEntity
  8
Material Color - 01
160
             47528
310
A8B90000280500000C00000013000000020000003C0000000600000002000000000000000000204000000000000044C00000000000389840000000000000204000000000000044C000000000007097400C000000130000000A0000003C000000060000000200000000000000000020C000000000000044C000000000003898
310
40000000000000204000000000000044C000000000007097400C00000013000000120000003C000000060000000200000000000000000020C000000000000044C00000000000389840000000000000204000000000000044C000000000003898400C000000130000001A0000003C0000000600000002000000000000000000
310
204000000000000044C0000000000070974000000000000020C000000000000044C000000000007097400C00000013000000220000003C000000060000000200000000000000000020C000000000000044C0000000000038984000000000000020C000000000000044C000000000007097400C000000130000002A0000003C
310
000000060000000200000000000000000020C000000000008059C0000000000038984000000000000020C000000000008059C000000000007097400C00000013000000320000003C0000000600000002000000000000000000204000000000008059C0000000000038984000000000000020C000000000008059C000000000
310
007097400C000000130000003A0000003C0000000600000002000000000000000000204000000000008059C0000000000038984000000000000020C000000000008059C000000000003898400C00000013000000420000003C000000060000000200000000000000000020C000000000008059C00000000000709740000000
310
000000204000000000008059C000000000007097400C000000130000004A0000003C0000000600000002000000000000000000204000000000008059C00000000000389840000000000000204000000000008059C000000000007097400C00000013000000520000003C000000060000000200000000000000000020C00000
310
0000000044C0000000000070974000000000000020C000000000008059C000000000007097400C000000130000005A0000003C000000060000000200000000000000000020C000000000000044C0000000000038984000000000000020C000000000008059C000000000007097400C00000013000000620000003C00000006
310
0000000200000000000000000020C000000000000044C0000000000038984000000000000020C000000000008059C000000000003898400C000000130000006A0000003C0000000600000002000000000000000000204000000000000044C00000000000709740000000000000204000000000008059C00000000000709740
310
0C00000013000000720000003C000000060000000200000000000000000020C000000000000044C00000000000709740000000000000204000000000008059C000000000007097400C000000130000007A0000003C0000000600000002000000000000000000204000000000000044C0000000000038984000000000000020
310
4000000000008059C000000000003898400C00000013000000820000003C0000000600000002000000000000000000204000000000000044C00000000000709740000000000000204000000000008059C000000000003898400C000000130000008A0000003C00000006000000020000000000000000002040000000000000
310
44C0000000000038984000000000000020C000000000008059C000000000003898400C00000013000000920000003C0000000600000002000000000000000020424000000000008059C0000000005761984000000000002042400000000000805DC000000000576198400C000000130000009A0000003C0000000600000002
310
0000000000000000C0424000000000008059C0000000000060984000000000002042400000000000805DC000000000576198400C00000013000000A20000003C00000006000000020000000000000000C0424000000000008059C00000000000609840000000000020424000000000008059C000000000576198400C000000
310
13000000AA0000003C00000006000000020000000000000000C042400000000000805DC0000000000060984000000000002042400000000000805DC000000000576198400C00000013000000B20000003C00000006000000020000000000000000C0424000000000008059C000000000006098400000000000C04240000000
310
0000805DC000000000006098400C00000013000000BA0000003C0000000600000002000000000000000060434000000000008059C000000000576198400000000000C042400000000000805DC000000000006098400C00000013000000C20000003C00000006000000020000000000000000C0424000000000008059C00000
310
000000609840000000000060434000000000008059C000000000576198400C00000013000000CA0000003C00000006000000020000000000000000C042400000000000805DC0000000000060984000000000006043400000000000805DC000000000576198400C00000013000000D20000003C000000060000000200000000
310
0000000060434000000000008059C0000000005761984000000000006043400000000000805DC000000000576198400C00000013000000DA0000003C0000000600000002000000000000C020D5434000000000008059C0000000000065984000000000006043400000000000805DC000000000576198400C00000013000000
310
E20000003C0000000600000002000000000000C020D5434000000000008059C00000000000659840000000000060434000000000008059C000000000576198400C00000013000000EA0000003C000000060000000200000000000000006043400000000000805DC00000000057619840000000C020D543400000000000805D
310
C000000000006598400C00000013000000F20000003C0000000600000002000000000000C020D5434000000000008059C00000000000659840000000C020D543400000000000805DC000000000006598400C00000013000000FA0000003C0000000600000002000000000000000000444000000000008059C000000000006A
310
9840000000C020D543400000000000805DC000000000006598400C00000013000000020100003C0000000600000002000000000000000000444000000000008059C000000000006A9840000000C020D5434000000000008059C000000000006598400C000000130000000A0100003C0000000600000002000000000000C020
310
D543400000000000805DC0000000000065984000000000000044400000000000805DC000000000006A98400C00000013000000120100003C0000000600000002000000000000000000444000000000008059C000000000006A984000000000000044400000000000805DC000000000006A98400C000000130000001A010000
310
3C0000000600000002000000000000C020D5434000000000008059C000000000006F984000000000000044400000000000805DC000000000006A98400C00000013000000220100003C0000000600000002000000000000C020D5434000000000008059C000000000006F9840000000000000444000000000008059C0000000
310
00006A98400C000000130000002A0100003C000000060000000200000000000000000044400000000000805DC000000000006A9840000000C020D543400000000000805DC000000000006F98400C00000013000000320100003C0000000600000002000000000000C020D5434000000000008059C000000000006F98400000
310
00C020D543400000000000805DC000000000006F98400C000000130000003A0100003C0000000600000002000000000000000060434000000000008059C000000000A9729840000000C020D543400000000000805DC000000000006F98400C00000013000000420100003C0000000600000002000000000000000060434000
310
000000008059C000000000A9729840000000C020D5434000000000008059C000000000006F98400C000000130000004A0100003C0000000600000002000000000000C020D543400000000000805DC000000000006F984000000000006043400000000000805DC000000000A97298400C00000013000000520100003C000000
310
0600000002000000000000000060434000000000008059C000000000A972984000000000006043400000000000805DC000000000A97298400C000000130000005A0100003C00000006000000020000000000000000C0424000000000008059C0000000000074984000000000006043400000000000805DC000000000A97298
310
400C00000013000000620100003C00000006000000020000000000000000C0424000000000008059C00000000000749840000000000060434000000000008059C000000000A97298400C000000130000006A0100003C000000060000000200000000000000006043400000000000805DC000000000A97298400000000000C0
310
42400000000000805DC000000000007498400C00000013000000720100003C00000006000000020000000000000000C0424000000000008059C000000000007498400000000000C042400000000000805DC000000000007498400C000000130000007A0100003C000000060000000200000000000000002042400000000000
310
8059C000000000A97298400000000000C042400000000000805DC000000000007498400C00000013000000820100003C0000000600000002000000000000000020424000000000008059C000000000A97298400000000000C0424000000000008059C000000000007498400C000000130000008A0100003C00000006000000
310
020000000000000000C042400000000000805DC0000000000074984000000000002042400000000000805DC000000000A97298400C00000013000000920100003C0000000600000002000000000000000020424000000000008059C000000000A972984000000000002042400000000000805DC000000000A97298400C0000
310
00130000009A0100003C000000060000000200000000000040DFAA414000000000008059C000000000006F984000000000002042400000000000805DC000000000A97298400C00000013000000A20100003C000000060000000200000000000040DFAA414000000000008059C000000000006F984000000000002042400000
310
0000008059C000000000A97298400C00000013000000AA0100003C000000060000000200000000000000002042400000000000805DC000000000A972984000000040DFAA41400000000000805DC000000000006F98400C00000013000000B20100003C000000060000000200000000000040DFAA414000000000008059C000
310
000000006F984000000040DFAA41400000000000805DC000000000006F98400C00000013000000BA0100003C0000000600000002000000000000000080414000000000008059C000000000006A984000000040DFAA41400000000000805DC000000000006F98400C00000013000000C20100003C0000000600000002000000
310
000000000080414000000000008059C000000000006A984000000040DFAA414000000000008059C000000000006F98400C00000013000000CA0100003C000000060000000200000000000040DFAA41400000000000805DC000000000006F984000000000008041400000000000805DC000000000006A98400C000000130000
310
00D20100003C0000000600000002000000000000000080414000000000008059C000000000006A984000000000008041400000000000805DC000000000006A98400C00000013000000DA0100003C000000060000000200000000000040DFAA414000000000008059C000000000006598400000000000804140000000000080
310
5DC000000000006A98400C00000013000000E20100003C000000060000000200000000000040DFAA414000000000008059C00000000000659840000000000080414000000000008059C000000000006A98400C00000013000000EA0100003C000000060000000200000000000000008041400000000000805DC00000000000
310
6A984000000040DFAA41400000000000805DC000000000006598400C00000013000000F20100003C000000060000000200000000000040DFAA414000000000008059C0000000000065984000000040DFAA41400000000000805DC000000000006598400C00000013000000FA0100003C000000060000000200000000000000
310
0020424000000000008059C0000000005761984000000040DFAA41400000000000805DC000000000006598400C00000013000000020200003C0000000600000002000000000000000020424000000000008059C0000000005761984000000040DFAA414000000000008059C000000000006598400C000000130000000A0200
310
003C000000060000000200000000000040DFAA41400000000000805DC0000000000065984000000000002042400000000000805DC000000000576198400C00000013000000120200003C0000000600000002000000000000000060484000000000008059C0000000005703974000000000006048400000000000805DC00000
310
0000570397400C000000130000001A0200003C0000000600000002000000000000000000494000000000008059C0000000000002974000000000006048400000000000805DC000000000570397400C00000013000000220200003C0000000600000002000000000000000000494000000000008059C0000000000002974000
310
0000000060484000000000008059C000000000570397400C000000130000002A0200003C000000060000000200000000000000000049400000000000805DC0000000000002974000000000006048400000000000805DC000000000570397400C00000013000000320200003C00000006000000020000000000000000004940
310
00000000008059C0000000000002974000000000000049400000000000805DC000000000000297400C000000130000003A0200003C00000006000000020000000000000000A0494000000000008059C0000000005703974000000000000049400000000000805DC000000000000297400C00000013000000420200003C0000
310
000600000002000000000000000000494000000000008059C000000000000297400000000000A0494000000000008059C000000000570397400C000000130000004A0200003C000000060000000200000000000000000049400000000000805DC000000000000297400000000000A049400000000000805DC0000000005703
310
97400C00000013000000520200003C00000006000000020000000000000000A0494000000000008059C000000000570397400000000000A049400000000000805DC000000000570397400C000000130000005A0200003C0000000600000002000000000000C020154A4000000000008059C000000000000797400000000000
310
A049400000000000805DC000000000570397400C00000013000000620200003C0000000600000002000000000000C020154A4000000000008059C000000000000797400000000000A0494000000000008059C000000000570397400C000000130000006A0200003C00000006000000020000000000000000A0494000000000
310
00805DC00000000057039740000000C020154A400000000000805DC000000000000797400C00000013000000720200003C0000000600000002000000000000C020154A4000000000008059C00000000000079740000000C020154A400000000000805DC000000000000797400C000000130000007A0200003C000000060000
310
00020000000000000000404A4000000000008059C000000000000C9740000000C020154A400000000000805DC000000000000797400C00000013000000820200003C00000006000000020000000000000000404A4000000000008059C000000000000C9740000000C020154A4000000000008059C000000000000797400C00
310
0000130000008A0200003C0000000600000002000000000000C020154A400000000000805DC000000000000797400000000000404A400000000000805DC000000000000C97400C00000013000000920200003C00000006000000020000000000000000404A4000000000008059C000000000000C97400000000000404A4000
310
00000000805DC000000000000C97400C000000130000009A0200003C0000000600000002000000000000C020154A4000000000008059C000000000001197400000000000404A400000000000805DC000000000000C97400C00000013000000A20200003C0000000600000002000000000000C020154A4000000000008059C0
310
00000000001197400000000000404A4000000000008059C000000000000C97400C00000013000000AA0200003C00000006000000020000000000000000404A400000000000805DC000000000000C9740000000C020154A400000000000805DC000000000001197400C00000013000000B20200003C00000006000000020000
310
00000000C020154A4000000000008059C00000000000119740000000C020154A400000000000805DC000000000001197400C00000013000000BA0200003C00000006000000020000000000000000A0494000000000008059C000000000A9149740000000C020154A400000000000805DC000000000001197400C0000001300
310
0000C20200003C00000006000000020000000000000000A0494000000000008059C000000000A9149740000000C020154A4000000000008059C000000000001197400C00000013000000CA0200003C0000000600000002000000000000C020154A400000000000805DC000000000001197400000000000A049400000000000
310
805DC000000000A91497400C00000013000000D20200003C00000006000000020000000000000000A0494000000000008059C000000000A91497400000000000A049400000000000805DC000000000A91497400C00000013000000DA0200003C0000000600000002000000000000000000494000000000008059C000000000
310
001697400000000000A049400000000000805DC000000000A91497400C00000013000000E20200003C0000000600000002000000000000000000494000000000008059C000000000001697400000000000A0494000000000008059C000000000A91497400C00000013000000EA0200003C0000000600000002000000000000
310
0000A049400000000000805DC000000000A914974000000000000049400000000000805DC000000000001697400C00000013000000F20200003C0000000600000002000000000000000000494000000000008059C0000000000016974000000000000049400000000000805DC000000000001697400C00000013000000FA02
310
00003C0000000600000002000000000000000060484000000000008059C000000000A914974000000000000049400000000000805DC000000000001697400C00000013000000020300003C0000000600000002000000000000000060484000000000008059C000000000A9149740000000000000494000000000008059C000
310
000000001697400C000000130000000A0300003C000000060000000200000000000000000049400000000000805DC0000000000016974000000000006048400000000000805DC000000000A91497400C00000013000000120300003C0000000600000002000000000000000060484000000000008059C000000000A9149740
310
00000000006048400000000000805DC000000000A91497400C000000130000001A0300003C000000060000000200000000000060DFEA474000000000008059C0000000000011974000000000006048400000000000805DC000000000A91497400C00000013000000220300003C000000060000000200000000000060DFEA47
310
4000000000008059C00000000000119740000000000060484000000000008059C000000000A91497400C000000130000002A0300003C000000060000000200000000000000006048400000000000805DC000000000A914974000000060DFEA47400000000000805DC000000000001197400C00000013000000320300003C00
310
0000060000000200000000000060DFEA474000000000008059C0000000000011974000000060DFEA47400000000000805DC000000000001197400C000000130000003A0300003C00000006000000020000000000000000C0474000000000008059C000000000000C974000000060DFEA47400000000000805DC00000000000
310
1197400C00000013000000420300003C00000006000000020000000000000000C0474000000000008059C000000000000C974000000060DFEA474000000000008059C000000000001197400C000000130000004A0300003C000000060000000200000000000060DFEA47400000000000805DC0000000000011974000000000
310
00C047400000000000805DC000000000000C97400C00000013000000520300003C00000006000000020000000000000000C0474000000000008059C000000000000C97400000000000C047400000000000805DC000000000000C97400C000000130000005A0300003C000000060000000200000000000060DFEA4740000000
310
00008059C000000000000797400000000000C047400000000000805DC000000000000C97400C00000013000000620300003C000000060000000200000000000060DFEA474000000000008059C000000000000797400000000000C0474000000000008059C000000000000C97400C000000130000006A0300003C0000000600
310
0000020000000000000000C047400000000000805DC000000000000C974000000060DFEA47400000000000805DC000000000000797400C00000013000000720300003C000000060000000200000000000060DFEA474000000000008059C0000000000007974000000060DFEA47400000000000805DC000000000000797400C
310
000000130000007A0300003C0000000600000002000000000000000060484000000000008059C0000000005703974000000060DFEA47400000000000805DC000000000000797400C00000013000000820300003C0000000600000002000000000000000060484000000000008059C0000000005703974000000060DFEA4740
310
00000000008059C000000000000797400C000000130000008A0300003C000000060000000200000000000060DFEA47400000000000805DC0000000000007974000000000006048400000000000805DC000000000570397400C00000013000000920300003C00000006000000020000000000000000A049C000000000008059
310
C000000000570397400000000000A049C00000000000805DC000000000570397400C000000130000009A0300003C000000060000000200000000000000000049C000000000008059C000000000000297400000000000A049C00000000000805DC000000000570397400C00000013000000A20300003C000000060000000200
310
000000000000000049C000000000008059C000000000000297400000000000A049C000000000008059C000000000570397400C00000013000000AA0300003C000000060000000200000000000000000049C00000000000805DC000000000000297400000000000A049C00000000000805DC000000000570397400C00000013
310
000000B20300003C000000060000000200000000000000000049C000000000008059C0000000000002974000000000000049C00000000000805DC000000000000297400C00000013000000BA0300003C000000060000000200000000000000006048C000000000008059C0000000005703974000000000000049C000000000
310
00805DC000000000000297400C00000013000000C20300003C000000060000000200000000000000000049C000000000008059C0000000000002974000000000006048C000000000008059C000000000570397400C00000013000000CA0300003C000000060000000200000000000000000049C00000000000805DC0000000
310
000002974000000000006048C00000000000805DC000000000570397400C00000013000000D20300003C000000060000000200000000000000006048C000000000008059C0000000005703974000000000006048C00000000000805DC000000000570397400C00000013000000DA0300003C00000006000000020000000000
310
0060DFEA47C000000000008059C0000000000007974000000000006048C00000000000805DC000000000570397400C00000013000000E20300003C000000060000000200000000000060DFEA47C000000000008059C0000000000007974000000000006048C000000000008059C000000000570397400C00000013000000EA
310
0300003C000000060000000200000000000000006048C00000000000805DC0000000005703974000000060DFEA47C00000000000805DC000000000000797400C00000013000000F20300003C000000060000000200000000000060DFEA47C000000000008059C0000000000007974000000060DFEA47C00000000000805DC0
310
00000000000797400C00000013000000FA0300003C00000006000000020000000000000000C047C000000000008059C000000000000C974000000060DFEA47C00000000000805DC000000000000797400C00000013000000020400003C00000006000000020000000000000000C047C000000000008059C000000000000C97
310
4000000060DFEA47C000000000008059C000000000000797400C000000130000000A0400003C000000060000000200000000000060DFEA47C00000000000805DC000000000000797400000000000C047C00000000000805DC000000000000C97400C00000013000000120400003C00000006000000020000000000000000C0
310
47C000000000008059C000000000000C97400000000000C047C00000000000805DC000000000000C97400C000000130000001A0400003C000000060000000200000000000060DFEA47C000000000008059C000000000001197400000000000C047C00000000000805DC000000000000C97400C00000013000000220400003C
310
000000060000000200000000000060DFEA47C000000000008059C000000000001197400000000000C047C000000000008059C000000000000C97400C000000130000002A0400003C00000006000000020000000000000000C047C00000000000805DC000000000000C974000000060DFEA47C00000000000805DC000000000
310
001197400C00000013000000320400003C000000060000000200000000000060DFEA47C000000000008059C0000000000011974000000060DFEA47C00000000000805DC000000000001197400C000000130000003A0400003C000000060000000200000000000000006048C000000000008059C000000000A9149740000000
310
60DFEA47C00000000000805DC000000000001197400C00000013000000420400003C000000060000000200000000000000006048C000000000008059C000000000A914974000000060DFEA47C000000000008059C000000000001197400C000000130000004A0400003C000000060000000200000000000060DFEA47C00000
310
000000805DC0000000000011974000000000006048C00000000000805DC000000000A91497400C00000013000000520400003C000000060000000200000000000000006048C000000000008059C000000000A914974000000000006048C00000000000805DC000000000A91497400C000000130000005A0400003C00000006
310
0000000200000000000000000049C000000000008059C0000000000016974000000000006048C00000000000805DC000000000A91497400C00000013000000620400003C000000060000000200000000000000000049C000000000008059C0000000000016974000000000006048C000000000008059C000000000A9149740
310
0C000000130000006A0400003C000000060000000200000000000000006048C00000000000805DC000000000A914974000000000000049C00000000000805DC000000000001697400C00000013000000720400003C000000060000000200000000000000000049C000000000008059C0000000000016974000000000000049
310
C00000000000805DC000000000001697400C000000130000007A0400003C00000006000000020000000000000000A049C000000000008059C000000000A914974000000000000049C00000000000805DC000000000001697400C00000013000000820400003C00000006000000020000000000000000A049C0000000000080
310
59C000000000A914974000000000000049C000000000008059C000000000001697400C000000130000008A0400003C000000060000000200000000000000000049C00000000000805DC000000000001697400000000000A049C00000000000805DC000000000A91497400C00000013000000920400003C0000000600000002
310
0000000000000000A049C000000000008059C000000000A91497400000000000A049C00000000000805DC000000000A91497400C000000130000009A0400003C0000000600000002000000000000C020154AC000000000008059C000000000001197400000000000A049C00000000000805DC000000000A91497400C000000
310
13000000A20400003C0000000600000002000000000000C020154AC000000000008059C000000000001197400000000000A049C000000000008059C000000000A91497400C00000013000000AA0400003C00000006000000020000000000000000A049C00000000000805DC000000000A9149740000000C020154AC0000000
310
0000805DC000000000001197400C00000013000000B20400003C0000000600000002000000000000C020154AC000000000008059C00000000000119740000000C020154AC00000000000805DC000000000001197400C00000013000000BA0400003C00000006000000020000000000000000404AC000000000008059C00000
310
0000000C9740000000C020154AC00000000000805DC000000000001197400C00000013000000C20400003C00000006000000020000000000000000404AC000000000008059C000000000000C9740000000C020154AC000000000008059C000000000001197400C00000013000000CA0400003C000000060000000200000000
310
0000C020154AC00000000000805DC000000000001197400000000000404AC00000000000805DC000000000000C97400C00000013000000D20400003C00000006000000020000000000000000404AC000000000008059C000000000000C97400000000000404AC00000000000805DC000000000000C97400C00000013000000
310
DA0400003C0000000600000002000000000000C020154AC000000000008059C000000000000797400000000000404AC00000000000805DC000000000000C97400C00000013000000E20400003C0000000600000002000000000000C020154AC000000000008059C000000000000797400000000000404AC000000000008059
310
C000000000000C97400C00000013000000EA0400003C00000006000000020000000000000000404AC00000000000805DC000000000000C9740000000C020154AC00000000000805DC000000000000797400C00000013000000F20400003C0000000600000002000000000000C020154AC000000000008059C0000000000007
310
9740000000C020154AC00000000000805DC000000000000797400C00000013000000FA0400003C00000006000000020000000000000000A049C000000000008059C00000000057039740000000C020154AC00000000000805DC000000000000797400C00000013000000020500003C00000006000000020000000000000000
310
A049C000000000008059C00000000057039740000000C020154AC000000000008059C000000000000797400C000000130000000A0500003C0000000600000002000000000000C020154AC00000000000805DC000000000000797400000000000A049C00000000000805DC000000000570397400C0000001300000012050000
310
3C00000006000000020000000000000000A049C000000000008059C000000000579398400000000000A049C00000000000805DC000000000579398400C000000130000001A0500003C000000060000000200000000000000000049C000000000008059C000000000009298400000000000A049C00000000000805DC0000000
310
00579398400C00000013000000220500003C000000060000000200000000000000000049C000000000008059C000000000009298400000000000A049C000000000008059C000000000579398400C000000130000002A0500003C000000060000000200000000000000000049C00000000000805DC000000000009298400000
310
000000A049C00000000000805DC000000000579398400C00000013000000320500003C000000060000000200000000000000000049C000000000008059C0000000000092984000000000000049C00000000000805DC000000000009298400C000000130000003A0500003C000000060000000200000000000000006048C000
310
000000008059C0000000005793984000000000000049C00000000000805DC000000000009298400C00000013000000420500003C000000060000000200000000000000000049C000000000008059C0000000000092984000000000006048C000000000008059C000000000579398400C000000130000004A0500003C000000
310
060000000200000000000000000049C00000000000805DC0000000000092984000000000006048C00000000000805DC000000000579398400C00000013000000520500003C000000060000000200000000000000006048C000000000008059C0000000005793984000000000006048C00000000000805DC000000000579398
310
400C000000130000005A0500003C000000060000000200000000000060DFEA47C000000000008059C0000000000097984000000000006048C00000000000805DC000000000579398400C00000013000000620500003C000000060000000200000000000060DFEA47C000000000008059C00000000000979840000000000060
310
48C000000000008059C000000000579398400C000000130000006A0500003C000000060000000200000000000000006048C00000000000805DC0000000005793984000000060DFEA47C00000000000805DC000000000009798400C00000013000000720500003C000000060000000200000000000060DFEA47C00000000000
310
8059C0000000000097984000000060DFEA47C00000000000805DC000000000009798400C000000130000007A0500003C00000006000000020000000000000000C047C000000000008059C000000000009C984000000060DFEA47C00000000000805DC000000000009798400C00000013000000820500003C00000006000000
310
020000000000000000C047C000000000008059C000000000009C984000000060DFEA47C000000000008059C000000000009798400C000000130000008A0500003C000000060000000200000000000060DFEA47C00000000000805DC000000000009798400000000000C047C00000000000805DC000000000009C98400C0000
310
0013000000920500003C00000006000000020000000000000000C047C000000000008059C000000000009C98400000000000C047C00000000000805DC000000000009C98400C000000130000009A0500003C000000060000000200000000000060DFEA47C000000000008059C00000000000A198400000000000C047C00000
310
000000805DC000000000009C98400C00000013000000A20500003C000000060000000200000000000060DFEA47C000000000008059C00000000000A198400000000000C047C000000000008059C000000000009C98400C00000013000000AA0500003C00000006000000020000000000000000C047C00000000000805DC000
310
000000009C984000000060DFEA47C00000000000805DC00000000000A198400C00000013000000B20500003C000000060000000200000000000060DFEA47C000000000008059C00000000000A1984000000060DFEA47C00000000000805DC00000000000A198400C00000013000000BA0500003C0000000600000002000000
310
00000000006048C000000000008059C000000000A9A4984000000060DFEA47C00000000000805DC00000000000A198400C00000013000000C20500003C000000060000000200000000000000006048C000000000008059C000000000A9A4984000000060DFEA47C000000000008059C00000000000A198400C000000130000
310
00CA0500003C000000060000000200000000000060DFEA47C00000000000805DC00000000000A1984000000000006048C00000000000805DC000000000A9A498400C00000013000000D20500003C000000060000000200000000000000006048C000000000008059C000000000A9A4984000000000006048C0000000000080
310
5DC000000000A9A498400C00000013000000DA0500003C000000060000000200000000000000000049C000000000008059C00000000000A6984000000000006048C00000000000805DC000000000A9A498400C00000013000000E20500003C000000060000000200000000000000000049C000000000008059C00000000000
310
A6984000000000006048C000000000008059C000000000A9A498400C00000013000000EA0500003C000000060000000200000000000000006048C00000000000805DC000000000A9A4984000000000000049C00000000000805DC00000000000A698400C00000013000000F20500003C000000060000000200000000000000
310
000049C000000000008059C00000000000A6984000000000000049C00000000000805DC00000000000A698400C00000013000000FA0500003C00000006000000020000000000000000A049C000000000008059C000000000A9A4984000000000000049C00000000000805DC00000000000A698400C00000013000000020600
310
003C00000006000000020000000000000000A049C000000000008059C000000000A9A4984000000000000049C000000000008059C00000000000A698400C000000130000000A0600003C000000060000000200000000000000000049C00000000000805DC00000000000A698400000000000A049C00000000000805DC00000
310
0000A9A498400C00000013000000120600003C00000006000000020000000000000000A049C000000000008059C000000000A9A498400000000000A049C00000000000805DC000000000A9A498400C000000130000001A0600003C0000000600000002000000000000C020154AC000000000008059C00000000000A1984000
310
00000000A049C00000000000805DC000000000A9A498400C00000013000000220600003C0000000600000002000000000000C020154AC000000000008059C00000000000A198400000000000A049C000000000008059C000000000A9A498400C000000130000002A0600003C00000006000000020000000000000000A049C0
310
0000000000805DC000000000A9A49840000000C020154AC00000000000805DC00000000000A198400C00000013000000320600003C0000000600000002000000000000C020154AC000000000008059C00000000000A19840000000C020154AC00000000000805DC00000000000A198400C000000130000003A0600003C0000
310
0006000000020000000000000000404AC000000000008059C000000000009C9840000000C020154AC00000000000805DC00000000000A198400C00000013000000420600003C00000006000000020000000000000000404AC000000000008059C000000000009C9840000000C020154AC000000000008059C00000000000A1
310
98400C000000130000004A0600003C0000000600000002000000000000C020154AC00000000000805DC00000000000A198400000000000404AC00000000000805DC000000000009C98400C00000013000000520600003C00000006000000020000000000000000404AC000000000008059C000000000009C98400000000000
310
404AC00000000000805DC000000000009C98400C000000130000005A0600003C0000000600000002000000000000C020154AC000000000008059C000000000009798400000000000404AC00000000000805DC000000000009C98400C00000013000000620600003C0000000600000002000000000000C020154AC000000000
310
008059C000000000009798400000000000404AC000000000008059C000000000009C98400C000000130000006A0600003C00000006000000020000000000000000404AC00000000000805DC000000000009C9840000000C020154AC00000000000805DC000000000009798400C00000013000000720600003C000000060000
310
0002000000000000C020154AC000000000008059C00000000000979840000000C020154AC00000000000805DC000000000009798400C000000130000007A0600003C00000006000000020000000000000000A049C000000000008059C00000000057939840000000C020154AC00000000000805DC000000000009798400C00
310
000013000000820600003C00000006000000020000000000000000A049C000000000008059C00000000057939840000000C020154AC000000000008059C000000000009798400C000000130000008A0600003C0000000600000002000000000000C020154AC00000000000805DC000000000009798400000000000A049C000
310
00000000805DC000000000579398400C00000013000000920600003C000000060000000200000000000000006043C000000000008059C0000000005761984000000000006043C00000000000805DC000000000576198400C000000130000009A0600003C00000006000000020000000000000000C042C000000000008059C0
310
000000000060984000000000006043C00000000000805DC000000000576198400C00000013000000A20600003C00000006000000020000000000000000C042C000000000008059C0000000000060984000000000006043C000000000008059C000000000576198400C00000013000000AA0600003C00000006000000020000
310
000000000000C042C00000000000805DC0000000000060984000000000006043C00000000000805DC000000000576198400C00000013000000B20600003C00000006000000020000000000000000C042C000000000008059C000000000006098400000000000C042C00000000000805DC000000000006098400C0000001300
310
0000BA0600003C000000060000000200000000000000002042C000000000008059C000000000576198400000000000C042C00000000000805DC000000000006098400C00000013000000C20600003C00000006000000020000000000000000C042C000000000008059C0000000000060984000000000002042C00000000000
310
8059C000000000576198400C00000013000000CA0600003C00000006000000020000000000000000C042C00000000000805DC0000000000060984000000000002042C00000000000805DC000000000576198400C00000013000000D20600003C000000060000000200000000000000002042C000000000008059C000000000
310
5761984000000000002042C00000000000805DC000000000576198400C00000013000000DA0600003C000000060000000200000000000040DFAA41C000000000008059C0000000000065984000000000002042C00000000000805DC000000000576198400C00000013000000E20600003C0000000600000002000000000000
310
40DFAA41C000000000008059C0000000000065984000000000002042C000000000008059C000000000576198400C00000013000000EA0600003C000000060000000200000000000000002042C00000000000805DC0000000005761984000000040DFAA41C00000000000805DC000000000006598400C00000013000000F206
310
00003C000000060000000200000000000040DFAA41C000000000008059C0000000000065984000000040DFAA41C00000000000805DC000000000006598400C00000013000000FA0600003C000000060000000200000000000000008041C000000000008059C000000000006A984000000040DFAA41C00000000000805DC000
310
000000006598400C00000013000000020700003C000000060000000200000000000000008041C000000000008059C000000000006A984000000040DFAA41C000000000008059C000000000006598400C000000130000000A0700003C000000060000000200000000000040DFAA41C00000000000805DC00000000000659840
310
00000000008041C00000000000805DC000000000006A98400C00000013000000120700003C000000060000000200000000000000008041C000000000008059C000000000006A984000000000008041C00000000000805DC000000000006A98400C000000130000001A0700003C000000060000000200000000000040DFAA41
310
C000000000008059C000000000006F984000000000008041C00000000000805DC000000000006A98400C00000013000000220700003C000000060000000200000000000040DFAA41C000000000008059C000000000006F984000000000008041C000000000008059C000000000006A98400C000000130000002A0700003C00
310
0000060000000200000000000000008041C00000000000805DC000000000006A984000000040DFAA41C00000000000805DC000000000006F98400C00000013000000320700003C000000060000000200000000000040DFAA41C000000000008059C000000000006F984000000040DFAA41C00000000000805DC00000000000
310
6F98400C000000130000003A0700003C000000060000000200000000000000002042C000000000008059C000000000A972984000000040DFAA41C00000000000805DC000000000006F98400C00000013000000420700003C000000060000000200000000000000002042C000000000008059C000000000A972984000000040
310
DFAA41C000000000008059C000000000006F98400C000000130000004A0700003C000000060000000200000000000040DFAA41C00000000000805DC000000000006F984000000000002042C00000000000805DC000000000A97298400C00000013000000520700003C000000060000000200000000000000002042C0000000
310
00008059C000000000A972984000000000002042C00000000000805DC000000000A97298400C000000130000005A0700003C00000006000000020000000000000000C042C000000000008059C0000000000074984000000000002042C00000000000805DC000000000A97298400C00000013000000620700003C0000000600
310
0000020000000000000000C042C000000000008059C0000000000074984000000000002042C000000000008059C000000000A97298400C000000130000006A0700003C000000060000000200000000000000002042C00000000000805DC000000000A97298400000000000C042C00000000000805DC000000000007498400C
310
00000013000000720700003C00000006000000020000000000000000C042C000000000008059C000000000007498400000000000C042C00000000000805DC000000000007498400C000000130000007A0700003C000000060000000200000000000000006043C000000000008059C000000000A97298400000000000C042C0
310
0000000000805DC000000000007498400C00000013000000820700003C000000060000000200000000000000006043C000000000008059C000000000A97298400000000000C042C000000000008059C000000000007498400C000000130000008A0700003C00000006000000020000000000000000C042C00000000000805D
310
C0000000000074984000000000006043C00000000000805DC000000000A97298400C00000013000000920700003C000000060000000200000000000000006043C000000000008059C000000000A972984000000000006043C00000000000805DC000000000A97298400C000000130000009A0700003C000000060000000200
310
0000000000C020D543C000000000008059C000000000006F984000000000006043C00000000000805DC000000000A97298400C00000013000000A20700003C0000000600000002000000000000C020D543C000000000008059C000000000006F984000000000006043C000000000008059C000000000A97298400C00000013
310
000000AA0700003C000000060000000200000000000000006043C00000000000805DC000000000A9729840000000C020D543C00000000000805DC000000000006F98400C00000013000000B20700003C0000000600000002000000000000C020D543C000000000008059C000000000006F9840000000C020D543C000000000
310
00805DC000000000006F98400C00000013000000BA0700003C000000060000000200000000000000000044C000000000008059C000000000006A9840000000C020D543C00000000000805DC000000000006F98400C00000013000000C20700003C000000060000000200000000000000000044C000000000008059C0000000
310
00006A9840000000C020D543C000000000008059C000000000006F98400C00000013000000CA0700003C0000000600000002000000000000C020D543C00000000000805DC000000000006F984000000000000044C00000000000805DC000000000006A98400C00000013000000D20700003C00000006000000020000000000
310
0000000044C000000000008059C000000000006A984000000000000044C00000000000805DC000000000006A98400C00000013000000DA0700003C0000000600000002000000000000C020D543C000000000008059C0000000000065984000000000000044C00000000000805DC000000000006A98400C00000013000000E2
310
0700003C0000000600000002000000000000C020D543C000000000008059C0000000000065984000000000000044C000000000008059C000000000006A98400C00000013000000EA0700003C000000060000000200000000000000000044C00000000000805DC000000000006A9840000000C020D543C00000000000805DC0
310
00000000006598400C00000013000000F20700003C0000000600000002000000000000C020D543C000000000008059C00000000000659840000000C020D543C00000000000805DC000000000006598400C00000013000000FA0700003C000000060000000200000000000000006043C000000000008059C000000000576198
310
40000000C020D543C00000000000805DC000000000006598400C00000013000000020800003C000000060000000200000000000000006043C000000000008059C00000000057619840000000C020D543C000000000008059C000000000006598400C000000130000000A0800003C0000000600000002000000000000C020D5
310
43C00000000000805DC0000000000065984000000000006043C00000000000805DC000000000576198400C00000013000000120800003C000000060000000200000000000000006043C000000000008059C0000000005735974000000000006043C00000000000805DC000000000573597400C000000130000001A0800003C
310
00000006000000020000000000000000C042C000000000008059C0000000000034974000000000006043C00000000000805DC000000000573597400C00000013000000220800003C00000006000000020000000000000000C042C000000000008059C0000000000034974000000000006043C000000000008059C000000000
310
573597400C000000130000002A0800003C00000006000000020000000000000000C042C00000000000805DC0000000000034974000000000006043C00000000000805DC000000000573597400C00000013000000320800003C00000006000000020000000000000000C042C000000000008059C00000000000349740000000
310
0000C042C00000000000805DC000000000003497400C000000130000003A0800003C000000060000000200000000000000002042C000000000008059C000000000573597400000000000C042C00000000000805DC000000000003497400C00000013000000420800003C00000006000000020000000000000000C042C00000
310
0000008059C0000000000034974000000000002042C000000000008059C000000000573597400C000000130000004A0800003C00000006000000020000000000000000C042C00000000000805DC0000000000034974000000000002042C00000000000805DC000000000573597400C00000013000000520800003C00000006
310
0000000200000000000000002042C000000000008059C0000000005735974000000000002042C00000000000805DC000000000573597400C000000130000005A0800003C000000060000000200000000000040DFAA41C000000000008059C0000000000039974000000000002042C00000000000805DC00000000057359740
310
0C00000013000000620800003C000000060000000200000000000040DFAA41C000000000008059C0000000000039974000000000002042C000000000008059C000000000573597400C000000130000006A0800003C000000060000000200000000000000002042C00000000000805DC0000000005735974000000040DFAA41
310
C00000000000805DC000000000003997400C00000013000000720800003C000000060000000200000000000040DFAA41C000000000008059C0000000000039974000000040DFAA41C00000000000805DC000000000003997400C000000130000007A0800003C000000060000000200000000000000008041C0000000000080
310
59C000000000003E974000000040DFAA41C00000000000805DC000000000003997400C00000013000000820800003C000000060000000200000000000000008041C000000000008059C000000000003E974000000040DFAA41C000000000008059C000000000003997400C000000130000008A0800003C0000000600000002
310
00000000000040DFAA41C00000000000805DC0000000000039974000000000008041C00000000000805DC000000000003E97400C00000013000000920800003C000000060000000200000000000000008041C000000000008059C000000000003E974000000000008041C00000000000805DC000000000003E97400C000000
310
130000009A0800003C000000060000000200000000000040DFAA41C000000000008059C0000000000043974000000000008041C00000000000805DC000000000003E97400C00000013000000A20800003C000000060000000200000000000040DFAA41C000000000008059C0000000000043974000000000008041C0000000
310
00008059C000000000003E97400C00000013000000AA0800003C000000060000000200000000000000008041C00000000000805DC000000000003E974000000040DFAA41C00000000000805DC000000000004397400C00000013000000B20800003C000000060000000200000000000040DFAA41C000000000008059C00000
310
00000043974000000040DFAA41C00000000000805DC000000000004397400C00000013000000BA0800003C000000060000000200000000000000002042C000000000008059C000000000A946974000000040DFAA41C00000000000805DC000000000004397400C00000013000000C20800003C000000060000000200000000
310
000000002042C000000000008059C000000000A946974000000040DFAA41C000000000008059C000000000004397400C00000013000000CA0800003C000000060000000200000000000040DFAA41C00000000000805DC0000000000043974000000000002042C00000000000805DC000000000A94697400C00000013000000
310
D20800003C000000060000000200000000000000002042C000000000008059C000000000A946974000000000002042C00000000000805DC000000000A94697400C00000013000000DA0800003C00000006000000020000000000000000C042C000000000008059C0000000000048974000000000002042C00000000000805D
310
C000000000A94697400C00000013000000E20800003C00000006000000020000000000000000C042C000000000008059C0000000000048974000000000002042C000000000008059C000000000A94697400C00000013000000EA0800003C000000060000000200000000000000002042C00000000000805DC000000000A946
310
97400000000000C042C00000000000805DC000000000004897400C00000013000000F20800003C00000006000000020000000000000000C042C000000000008059C000000000004897400000000000C042C00000000000805DC000000000004897400C00000013000000FA0800003C00000006000000020000000000000000
310
6043C000000000008059C000000000A94697400000000000C042C00000000000805DC000000000004897400C00000013000000020900003C000000060000000200000000000000006043C000000000008059C000000000A94697400000000000C042C000000000008059C000000000004897400C000000130000000A090000
310
3C00000006000000020000000000000000C042C00000000000805DC0000000000048974000000000006043C00000000000805DC000000000A94697400C00000013000000120900003C000000060000000200000000000000006043C000000000008059C000000000A946974000000000006043C00000000000805DC0000000
310
00A94697400C000000130000001A0900003C0000000600000002000000000000C020D543C000000000008059C0000000000043974000000000006043C00000000000805DC000000000A94697400C00000013000000220900003C0000000600000002000000000000C020D543C000000000008059C000000000004397400000
310
0000006043C000000000008059C000000000A94697400C000000130000002A0900003C000000060000000200000000000000006043C00000000000805DC000000000A9469740000000C020D543C00000000000805DC000000000004397400C00000013000000320900003C0000000600000002000000000000C020D543C000
310
000000008059C00000000000439740000000C020D543C00000000000805DC000000000004397400C000000130000003A0900003C000000060000000200000000000000000044C000000000008059C000000000003E9740000000C020D543C00000000000805DC000000000004397400C00000013000000420900003C000000
310
060000000200000000000000000044C000000000008059C000000000003E9740000000C020D543C000000000008059C000000000004397400C000000130000004A0900003C0000000600000002000000000000C020D543C00000000000805DC0000000000043974000000000000044C00000000000805DC000000000003E97
310
400C00000013000000520900003C000000060000000200000000000000000044C000000000008059C000000000003E974000000000000044C00000000000805DC000000000003E97400C000000130000005A0900003C0000000600000002000000000000C020D543C000000000008059C00000000000399740000000000000
310
44C00000000000805DC000000000003E97400C00000013000000620900003C0000000600000002000000000000C020D543C000000000008059C0000000000039974000000000000044C000000000008059C000000000003E97400C000000130000006A0900003C000000060000000200000000000000000044C00000000000
310
805DC000000000003E9740000000C020D543C00000000000805DC000000000003997400C00000013000000720900003C0000000600000002000000000000C020D543C000000000008059C00000000000399740000000C020D543C00000000000805DC000000000003997400C000000130000007A0900003C00000006000000
310
0200000000000000006043C000000000008059C00000000057359740000000C020D543C00000000000805DC000000000003997400C00000013000000820900003C000000060000000200000000000000006043C000000000008059C00000000057359740000000C020D543C000000000008059C000000000003997400C0000
310
00130000008A0900003C0000000600000002000000000000C020D543C00000000000805DC0000000000039974000000000006043C00000000000805DC000000000573597400C00000013000000920900003C0000000600000002000000000000000020424000000000008059C0000000005735974000000000002042400000
310
000000805DC000000000573597400C000000130000009A0900003C00000006000000020000000000000000C0424000000000008059C0000000000034974000000000002042400000000000805DC000000000573597400C00000013000000A20900003C00000006000000020000000000000000C0424000000000008059C000
310
00000000349740000000000020424000000000008059C000000000573597400C00000013000000AA0900003C00000006000000020000000000000000C042400000000000805DC0000000000034974000000000002042400000000000805DC000000000573597400C00000013000000B20900003C0000000600000002000000
310
0000000000C0424000000000008059C000000000003497400000000000C042400000000000805DC000000000003497400C00000013000000BA0900003C0000000600000002000000000000000060434000000000008059C000000000573597400000000000C042400000000000805DC000000000003497400C000000130000
310
00C20900003C00000006000000020000000000000000C0424000000000008059C00000000000349740000000000060434000000000008059C000000000573597400C00000013000000CA0900003C00000006000000020000000000000000C042400000000000805DC000000000003497400000000000604340000000000080
310
5DC000000000573597400C00000013000000D20900003C0000000600000002000000000000000060434000000000008059C0000000005735974000000000006043400000000000805DC000000000573597400C00000013000000DA0900003C0000000600000002000000000000C020D5434000000000008059C00000000000
310
39974000000000006043400000000000805DC000000000573597400C00000013000000E20900003C0000000600000002000000000000C020D5434000000000008059C00000000000399740000000000060434000000000008059C000000000573597400C00000013000000EA0900003C000000060000000200000000000000
310
006043400000000000805DC00000000057359740000000C020D543400000000000805DC000000000003997400C00000013000000F20900003C0000000600000002000000000000C020D5434000000000008059C00000000000399740000000C020D543400000000000805DC000000000003997400C00000013000000FA0900
310
003C0000000600000002000000000000000000444000000000008059C000000000003E9740000000C020D543400000000000805DC000000000003997400C00000013000000020A00003C0000000600000002000000000000000000444000000000008059C000000000003E9740000000C020D5434000000000008059C00000
310
0000003997400C000000130000000A0A00003C0000000600000002000000000000C020D543400000000000805DC0000000000039974000000000000044400000000000805DC000000000003E97400C00000013000000120A00003C0000000600000002000000000000000000444000000000008059C000000000003E974000
310
000000000044400000000000805DC000000000003E97400C000000130000001A0A00003C0000000600000002000000000000C020D5434000000000008059C0000000000043974000000000000044400000000000805DC000000000003E97400C00000013000000220A00003C0000000600000002000000000000C020D54340
310
00000000008059C00000000000439740000000000000444000000000008059C000000000003E97400C000000130000002A0A00003C000000060000000200000000000000000044400000000000805DC000000000003E9740000000C020D543400000000000805DC000000000004397400C00000013000000320A00003C0000
310
000600000002000000000000C020D5434000000000008059C00000000000439740000000C020D543400000000000805DC000000000004397400C000000130000003A0A00003C0000000600000002000000000000000060434000000000008059C000000000A9469740000000C020D543400000000000805DC0000000000043
310
97400C00000013000000420A00003C0000000600000002000000000000000060434000000000008059C000000000A9469740000000C020D5434000000000008059C000000000004397400C000000130000004A0A00003C0000000600000002000000000000C020D543400000000000805DC000000000004397400000000000
310
6043400000000000805DC000000000A94697400C00000013000000520A00003C0000000600000002000000000000000060434000000000008059C000000000A946974000000000006043400000000000805DC000000000A94697400C000000130000005A0A00003C00000006000000020000000000000000C0424000000000
310
008059C0000000000048974000000000006043400000000000805DC000000000A94697400C00000013000000620A00003C00000006000000020000000000000000C0424000000000008059C00000000000489740000000000060434000000000008059C000000000A94697400C000000130000006A0A00003C000000060000
310
000200000000000000006043400000000000805DC000000000A94697400000000000C042400000000000805DC000000000004897400C00000013000000720A00003C00000006000000020000000000000000C0424000000000008059C000000000004897400000000000C042400000000000805DC000000000004897400C00
310
0000130000007A0A00003C0000000600000002000000000000000020424000000000008059C000000000A94697400000000000C042400000000000805DC000000000004897400C00000013000000820A00003C0000000600000002000000000000000020424000000000008059C000000000A94697400000000000C0424000
310
000000008059C000000000004897400C000000130000008A0A00003C00000006000000020000000000000000C042400000000000805DC0000000000048974000000000002042400000000000805DC000000000A94697400C00000013000000920A00003C0000000600000002000000000000000020424000000000008059C0
310
00000000A946974000000000002042400000000000805DC000000000A94697400C000000130000009A0A00003C000000060000000200000000000040DFAA414000000000008059C0000000000043974000000000002042400000000000805DC000000000A94697400C00000013000000A20A00003C00000006000000020000
310
0000000040DFAA414000000000008059C00000000000439740000000000020424000000000008059C000000000A94697400C00000013000000AA0A00003C000000060000000200000000000000002042400000000000805DC000000000A946974000000040DFAA41400000000000805DC000000000004397400C0000001300
310
0000B20A00003C000000060000000200000000000040DFAA414000000000008059C0000000000043974000000040DFAA41400000000000805DC000000000004397400C00000013000000BA0A00003C0000000600000002000000000000000080414000000000008059C000000000003E974000000040DFAA41400000000000
310
805DC000000000004397400C00000013000000C20A00003C0000000600000002000000000000000080414000000000008059C000000000003E974000000040DFAA414000000000008059C000000000004397400C00000013000000CA0A00003C000000060000000200000000000040DFAA41400000000000805DC000000000
310
0043974000000000008041400000000000805DC000000000003E97400C00000013000000D20A00003C0000000600000002000000000000000080414000000000008059C000000000003E974000000000008041400000000000805DC000000000003E97400C00000013000000DA0A00003C0000000600000002000000000000
310
40DFAA414000000000008059C0000000000039974000000000008041400000000000805DC000000000003E97400C00000013000000E20A00003C000000060000000200000000000040DFAA414000000000008059C00000000000399740000000000080414000000000008059C000000000003E97400C00000013000000EA0A
310
00003C000000060000000200000000000000008041400000000000805DC000000000003E974000000040DFAA41400000000000805DC000000000003997400C00000013000000F20A00003C000000060000000200000000000040DFAA414000000000008059C0000000000039974000000040DFAA41400000000000805DC000
310
000000003997400C00000013000000FA0A00003C0000000600000002000000000000000020424000000000008059C0000000005735974000000040DFAA41400000000000805DC000000000003997400C00000013000000020B00003C0000000600000002000000000000000020424000000000008059C00000000057359740
310
00000040DFAA414000000000008059C000000000003997400C000000130000000A0B00003C000000060000000200000000000040DFAA41400000000000805DC0000000000039974000000000002042400000000000805DC000000000573597400C00000013000000120B00003C000000060000000200000000000000006048
310
4000000000008059C0000000005793984000000000006048400000000000805DC000000000579398400C000000130000001A0B00003C0000000600000002000000000000000000494000000000008059C0000000000092984000000000006048400000000000805DC000000000579398400C00000013000000220B00003C00
310
00000600000002000000000000000000494000000000008059C00000000000929840000000000060484000000000008059C000000000579398400C000000130000002A0B00003C000000060000000200000000000000000049400000000000805DC0000000000092984000000000006048400000000000805DC00000000057
310
9398400C00000013000000320B00003C0000000600000002000000000000000000494000000000008059C0000000000092984000000000000049400000000000805DC000000000009298400C000000130000003A0B00003C00000006000000020000000000000000A0494000000000008059C0000000005793984000000000
310
000049400000000000805DC000000000009298400C00000013000000420B00003C0000000600000002000000000000000000494000000000008059C000000000009298400000000000A0494000000000008059C000000000579398400C000000130000004A0B00003C00000006000000020000000000000000004940000000
310
0000805DC000000000009298400000000000A049400000000000805DC000000000579398400C00000013000000520B00003C00000006000000020000000000000000A0494000000000008059C000000000579398400000000000A049400000000000805DC000000000579398400C000000130000005A0B00003C0000000600
310
000002000000000000C020154A4000000000008059C000000000009798400000000000A049400000000000805DC000000000579398400C00000013000000620B00003C0000000600000002000000000000C020154A4000000000008059C000000000009798400000000000A0494000000000008059C000000000579398400C
310
000000130000006A0B00003C00000006000000020000000000000000A049400000000000805DC00000000057939840000000C020154A400000000000805DC000000000009798400C00000013000000720B00003C0000000600000002000000000000C020154A4000000000008059C00000000000979840000000C020154A40
310
0000000000805DC000000000009798400C000000130000007A0B00003C00000006000000020000000000000000404A4000000000008059C000000000009C9840000000C020154A400000000000805DC000000000009798400C00000013000000820B00003C00000006000000020000000000000000404A4000000000008059
310
C000000000009C9840000000C020154A4000000000008059C000000000009798400C000000130000008A0B00003C0000000600000002000000000000C020154A400000000000805DC000000000009798400000000000404A400000000000805DC000000000009C98400C00000013000000920B00003C000000060000000200
310
00000000000000404A4000000000008059C000000000009C98400000000000404A400000000000805DC000000000009C98400C000000130000009A0B00003C0000000600000002000000000000C020154A4000000000008059C00000000000A198400000000000404A400000000000805DC000000000009C98400C00000013
310
000000A20B00003C0000000600000002000000000000C020154A4000000000008059C00000000000A198400000000000404A4000000000008059C000000000009C98400C00000013000000AA0B00003C00000006000000020000000000000000404A400000000000805DC000000000009C9840000000C020154A4000000000
310
00805DC00000000000A198400C00000013000000B20B00003C0000000600000002000000000000C020154A4000000000008059C00000000000A19840000000C020154A400000000000805DC00000000000A198400C00000013000000BA0B00003C00000006000000020000000000000000A0494000000000008059C0000000
310
00A9A49840000000C020154A400000000000805DC00000000000A198400C00000013000000C20B00003C00000006000000020000000000000000A0494000000000008059C000000000A9A49840000000C020154A4000000000008059C00000000000A198400C00000013000000CA0B00003C00000006000000020000000000
310
00C020154A400000000000805DC00000000000A198400000000000A049400000000000805DC000000000A9A498400C00000013000000D20B00003C00000006000000020000000000000000A0494000000000008059C000000000A9A498400000000000A049400000000000805DC000000000A9A498400C00000013000000DA
310
0B00003C0000000600000002000000000000000000494000000000008059C00000000000A698400000000000A049400000000000805DC000000000A9A498400C00000013000000E20B00003C0000000600000002000000000000000000494000000000008059C00000000000A698400000000000A0494000000000008059C0
310
00000000A9A498400C00000013000000EA0B00003C00000006000000020000000000000000A049400000000000805DC000000000A9A4984000000000000049400000000000805DC00000000000A698400C00000013000000F20B00003C0000000600000002000000000000000000494000000000008059C00000000000A698
310
4000000000000049400000000000805DC00000000000A698400C00000013000000FA0B00003C0000000600000002000000000000000060484000000000008059C000000000A9A4984000000000000049400000000000805DC00000000000A698400C00000013000000020C00003C0000000600000002000000000000000060
310
484000000000008059C000000000A9A49840000000000000494000000000008059C00000000000A698400C000000130000000A0C00003C000000060000000200000000000000000049400000000000805DC00000000000A6984000000000006048400000000000805DC000000000A9A498400C00000013000000120C00003C
310
0000000600000002000000000000000060484000000000008059C000000000A9A4984000000000006048400000000000805DC000000000A9A498400C000000130000001A0C00003C000000060000000200000000000060DFEA474000000000008059C00000000000A1984000000000006048400000000000805DC000000000
310
A9A498400C00000013000000220C00003C000000060000000200000000000060DFEA474000000000008059C00000000000A19840000000000060484000000000008059C000000000A9A498400C000000130000002A0C00003C000000060000000200000000000000006048400000000000805DC000000000A9A49840000000
310
60DFEA47400000000000805DC00000000000A198400C00000013000000320C00003C000000060000000200000000000060DFEA474000000000008059C00000000000A1984000000060DFEA47400000000000805DC00000000000A198400C000000130000003A0C00003C00000006000000020000000000000000C047400000
310
0000008059C000000000009C984000000060DFEA47400000000000805DC00000000000A198400C00000013000000420C00003C00000006000000020000000000000000C0474000000000008059C000000000009C984000000060DFEA474000000000008059C00000000000A198400C000000130000004A0C00003C00000006
310
0000000200000000000060DFEA47400000000000805DC00000000000A198400000000000C047400000000000805DC000000000009C98400C00000013000000520C00003C00000006000000020000000000000000C0474000000000008059C000000000009C98400000000000C047400000000000805DC000000000009C9840
310
0C000000130000005A0C00003C000000060000000200000000000060DFEA474000000000008059C000000000009798400000000000C047400000000000805DC000000000009C98400C00000013000000620C00003C000000060000000200000000000060DFEA474000000000008059C000000000009798400000000000C047
310
4000000000008059C000000000009C98400C000000130000006A0C00003C00000006000000020000000000000000C047400000000000805DC000000000009C984000000060DFEA47400000000000805DC000000000009798400C00000013000000720C00003C000000060000000200000000000060DFEA4740000000000080
310
59C0000000000097984000000060DFEA47400000000000805DC000000000009798400C000000130000007A0C00003C0000000600000002000000000000000060484000000000008059C0000000005793984000000060DFEA47400000000000805DC000000000009798400C00000013000000820C00003C0000000600000002
310
000000000000000060484000000000008059C0000000005793984000000060DFEA474000000000008059C000000000009798400C000000130000008A0C00003C000000060000000200000000000060DFEA47400000000000805DC0000000000097984000000000006048400000000000805DC000000000579398400C000000
310
13000000920C00003C0000000600000002000000000000000060434000000000008059C00000000057619840000000000060434000000000008059C000000000A94697400C000000130000009A0C00003C00000006000000020000000000000000C0424000000000008059C000000000006098400000000000604340000000
310
00008059C000000000A94697400C00000013000000A20C00003C00000006000000020000000000000000C0424000000000008059C000000000006098400000000000C0424000000000008059C000000000004897400C00000013000000AA0C00003C00000006000000020000000000000000C0424000000000008059C00000
310
000000609840000000000020424000000000008059C000000000A94697400C00000013000000B20C00003C0000000600000002000000000000000060434000000000008059C00000000057619840000000C020D5434000000000008059C000000000004397400C00000013000000BA0C00003C000000060000000200000000
310
0000C020D5434000000000008059C00000000000659840000000C020D5434000000000008059C000000000004397400C00000013000000C20C00003C0000000600000002000000000000C020D5434000000000008059C000000000006598400000000000A0494000000000008059C000000000A91497400C00000013000000
310
CA0C00003C00000006000000020000000000000000A0494000000000008059C000000000A9149740000000C020D5434000000000008059C000000000004397400C00000013000000D20C00003C0000000600000002000000000000C020D5434000000000008059C000000000006598400000000000A0494000000000008059
310
C000000000579398400C00000013000000DA0C00003C00000006000000020000000000000000A0494000000000008059C000000000A91497400000000000A0494000000000008059C000000000579398400C00000013000000E20C00003C0000000600000002000000000000C020154A4000000000008059C0000000000011
310
97400000000000A0494000000000008059C000000000579398400C00000013000000EA0C00003C0000000600000002000000000000C020154A4000000000008059C00000000000119740000000C020154A4000000000008059C000000000009798400C00000013000000F20C00003C0000000600000002000000000000C020
310
154A4000000000008059C000000000009798400000000000004E4000000000008059C00000000000E496400C00000013000000FA0C00003C0000000600000002000000000000C020154A4000000000008059C000000000001197400000000000004E4000000000008059C00000000000E496400C00000013000000020D0000
310
3C0000000600000002000000000000C020154A4000000000008059C000000000009798400000000000004E4000000000008059C00000000000C498400C000000130000000A0D00003C00000006000000020000000000000000004E4000000000008059C00000000000C498400000000000004E4000000000008059C0000000
310
0000E496400C00000013000000120D00003C00000006000000020000000000000000404A4000000000008059C000000000009C98400000000000004E4000000000008059C00000000000C498400C000000130000001A0D00003C0000000600000002000000000000C020154A4000000000008059C00000000000A198400000
310
000000004E4000000000008059C00000000000C498400C00000013000000220D00003C0000000600000002000000000000000000444000000000008059C000000000006A98400000000000A0494000000000008059C000000000579398400C000000130000002A0D00003C0000000600000002000000000000000000444000
310
000000008059C000000000006A9840000000000000494000000000008059C000000000009298400C00000013000000320D00003C0000000600000002000000000000C020D5434000000000008059C000000000006F9840000000000000494000000000008059C000000000009298400C000000130000003A0D00003C000000
310
0600000002000000000000C020D5434000000000008059C000000000006F9840000000000060484000000000008059C000000000579398400C00000013000000420D00003C0000000600000002000000000000000060434000000000008059C000000000A9729840000000000060484000000000008059C000000000579398
310
400C000000130000004A0D00003C0000000600000002000000000000000060434000000000008059C000000000A972984000000060DFEA474000000000008059C000000000009798400C00000013000000520D00003C00000006000000020000000000000000C0424000000000008059C0000000000074984000000060DFEA
310
474000000000008059C000000000009798400C000000130000005A0D00003C00000006000000020000000000000000C0424000000000008059C000000000007498400000000000C0474000000000008059C000000000009C98400C00000013000000620D00003C000000060000000200000000000000002042400000000000
310
8059C000000000A97298400000000000C0474000000000008059C000000000009C98400C000000130000006A0D00003C0000000600000002000000000000000020424000000000008059C000000000A972984000000060DFEA474000000000008059C00000000000A198400C00000013000000720D00003C00000006000000
310
02000000000000000020424000000000008059C000000000A972984000000000002042C000000000008059C000000000A97298400C000000130000007A0D00003C000000060000000200000000000000002042C000000000008059C000000000A972984000000060DFEA474000000000008059C00000000000A198400C0000
310
0013000000820D00003C000000060000000200000000000060DFEA47C000000000008059C00000000000A1984000000000002042C000000000008059C000000000A97298400C000000130000008A0D00003C000000060000000200000000000060DFEA47C000000000008059C00000000000A1984000000060DFEA47400000
310
0000008059C00000000000A198400C00000013000000920D00003C00000006000000020000000000000000C047C000000000008059C000000000009C984000000000002042C000000000008059C000000000A97298400C000000130000009A0D00003C00000006000000020000000000000000C047C000000000008059C000
310
000000009C98400000000000C042C000000000008059C000000000007498400C00000013000000A20D00003C000000060000000200000000000060DFEA47C000000000008059C000000000009798400000000000C042C000000000008059C000000000007498400C00000013000000AA0D00003C0000000600000002000000
310
00000060DFEA47C000000000008059C0000000000097984000000000006043C000000000008059C000000000A97298400C00000013000000B20D00003C000000060000000200000000000000006048C000000000008059C0000000005793984000000000006043C000000000008059C000000000A97298400C000000130000
310
00BA0D00003C000000060000000200000000000000006048C000000000008059C00000000057939840000000C020D543C000000000008059C000000000006F98400C00000013000000C20D00003C000000060000000200000000000000000049C000000000008059C00000000000929840000000C020D543C0000000000080
310
59C000000000006F98400C00000013000000CA0D00003C000000060000000200000000000000000049C000000000008059C0000000000092984000000000000044C000000000008059C000000000006A98400C00000013000000D20D00003C00000006000000020000000000000000A049C000000000008059C00000000057
310
93984000000000000044C000000000008059C000000000006A98400C00000013000000DA0D00003C00000006000000020000000000000000A049C000000000008059C00000000057939840000000C020D543C000000000008059C000000000006598400C00000013000000E20D00003C000000060000000200000000000000
310
00A049C000000000008059C000000000A9149740000000C020D543C000000000008059C000000000006598400C00000013000000EA0D00003C00000006000000020000000000000000A049C000000000008059C000000000A91497400000000000A049C000000000008059C000000000579398400C00000013000000F20D00
310
003C0000000600000002000000000000C020D543C000000000008059C00000000000659840000000C020D543C000000000008059C000000000004397400C00000013000000FA0D00003C00000006000000020000000000000000A049C000000000008059C000000000A9149740000000C020D543C000000000008059C00000
310
0000004397400C00000013000000020E00003C00000006000000020000000000000000A049C000000000008059C000000000A914974000000000000044C000000000008059C000000000003E97400C000000130000000A0E00003C0000000600000002000000000000000020424000000000008059C000000000A972984000
310
000040DFAA41C000000000008059C000000000006F98400C00000013000000120E00003C000000060000000200000000000040DFAA414000000000008059C000000000006F984000000040DFAA41C000000000008059C000000000006F98400C000000130000001A0E00003C000000060000000200000000000040DFAA4140
310
00000000008059C000000000006F984000000000008041C000000000008059C000000000006A98400C00000013000000220E00003C0000000600000002000000000000000080414000000000008059C000000000006A984000000000008041C000000000008059C000000000006A98400C000000130000002A0E00003C0000
310
000600000002000000000000000080414000000000008059C000000000006A984000000040DFAA41C000000000008059C000000000006598400C00000013000000320E00003C000000060000000200000000000040DFAA414000000000008059C0000000000065984000000040DFAA41C000000000008059C0000000000065
310
98400C000000130000003A0E00003C000000060000000200000000000040DFAA414000000000008059C0000000000065984000000000002042C000000000008059C000000000576198400C00000013000000420E00003C000000060000000200000000000040DFAA414000000000008059C000000000006598400000000000
310
2042C000000000008059C000000000A94697400C000000130000004A0E00003C000000060000000200000000000000002042C000000000008059C0000000005761984000000000002042C000000000008059C000000000A94697400C00000013000000520E00003C00000006000000020000000000000000C042C000000000
310
008059C0000000000060984000000000002042C000000000008059C000000000A94697400C000000130000005A0E00003C00000006000000020000000000000000C042C000000000008059C000000000006098400000000000C042C000000000008059C000000000004897400C00000013000000620E00003C000000060000
310
00020000000000000000C042C000000000008059C0000000000060984000000000006043C000000000008059C000000000A94697400C000000130000006A0E00003C0000000600000002000000000000000020424000000000008059C0000000005761984000000000002042C000000000008059C000000000A94697400C00
310
000013000000720E00003C0000000600000002000000000000000020424000000000008059C0000000005761984000000040DFAA41C000000000008059C000000000004397400C000000130000007A0E00003C0000000600000002000000000000000020424000000000008059C00000000057619840000000000020424000
310
000000008059C000000000A94697400C00000013000000820E00003C000000060000000200000000000040DFAA41C000000000008059C00000000000439740000000000020424000000000008059C000000000A94697400C000000130000008A0E00003C000000060000000200000000000040DFAA41C000000000008059C0
310
000000000043974000000040DFAA414000000000008059C000000000004397400C00000013000000920E00003C0000000600000002000000000000000000494000000000008059C000000000000297400000000000004E4000000000008059C00000000000E496400C000000130000009A0E00003C00000006000000020000
310
00000000000060484000000000008059C000000000570397400000000000004E4000000000008059C00000000000E496400C00000013000000A20E00003C00000006000000020000000000000000A0494000000000008059C000000000570397400000000000004E4000000000008059C00000000000E496400C0000001300
310
0000AA0E00003C0000000600000002000000000000C020154A4000000000008059C000000000000797400000000000004E4000000000008059C00000000000E496400C00000013000000B20E00003C00000006000000020000000000000000404A4000000000008059C000000000000C97400000000000004E400000000000
310
8059C00000000000E496400C00000013000000BA0E00003C00000006000000020000000000000000A0494000000000008059C000000000A9149740000000000000444000000000008059C000000000003E97400C00000013000000C20E00003C0000000600000002000000000000000000494000000000008059C000000000
310
00169740000000000000444000000000008059C000000000003E97400C00000013000000CA0E00003C0000000600000002000000000000000000494000000000008059C00000000000169740000000C020D5434000000000008059C000000000003997400C00000013000000D20E00003C0000000600000002000000000000
310
000060484000000000008059C000000000A9149740000000C020D5434000000000008059C000000000003997400C00000013000000DA0E00003C0000000600000002000000000000000060484000000000008059C000000000A9149740000000000060434000000000008059C000000000573597400C00000013000000E20E
310
00003C000000060000000200000000000060DFEA474000000000008059C00000000000119740000000000060434000000000008059C000000000573597400C00000013000000EA0E00003C000000060000000200000000000060DFEA474000000000008059C000000000001197400000000000C0424000000000008059C000
310
000000003497400C00000013000000F20E00003C00000006000000020000000000000000C0474000000000008059C000000000000C97400000000000C0424000000000008059C000000000003497400C00000013000000FA0E00003C000000060000000200000000000060DFEA474000000000008059C00000000000079740
310
0000000000C0424000000000008059C000000000003497400C00000013000000020F00003C0000000600000002000000000000000060484000000000008059C0000000005703974000000000006048C000000000008059C000000000570397400C000000130000000A0F00003C000000060000000200000000000060DFEA47
310
4000000000008059C0000000000007974000000000006048C000000000008059C000000000570397400C00000013000000120F00003C000000060000000200000000000060DFEA474000000000008059C0000000000007974000000060DFEA47C000000000008059C000000000000797400C000000130000001A0F00003C00
310
0000060000000200000000000060DFEA47C000000000008059C00000000000079740000000000020424000000000008059C000000000573597400C00000013000000220F00003C000000060000000200000000000060DFEA474000000000008059C00000000000079740000000000020424000000000008059C00000000057
310
3597400C000000130000002A0F00003C000000060000000200000000000060DFEA47C000000000008059C0000000000007974000000000002042C000000000008059C000000000573597400C00000013000000320F00003C000000060000000200000000000000002042C000000000008059C0000000005735974000000000
310
0020424000000000008059C000000000573597400C000000130000003A0F00003C000000060000000200000000000000002042C000000000008059C0000000005735974000000040DFAA414000000000008059C000000000003997400C00000013000000420F00003C000000060000000200000000000040DFAA41C0000000
310
00008059C0000000000039974000000040DFAA414000000000008059C000000000003997400C000000130000004A0F00003C000000060000000200000000000040DFAA41C000000000008059C00000000000399740000000000080414000000000008059C000000000003E97400C00000013000000520F00003C0000000600
310
00000200000000000000008041C000000000008059C000000000003E9740000000000080414000000000008059C000000000003E97400C000000130000005A0F00003C000000060000000200000000000000008041C000000000008059C000000000003E974000000040DFAA414000000000008059C000000000004397400C
310
00000013000000620F00003C000000060000000200000000000000000049C000000000008059C000000000000297400000000000004EC000000000008059C00000000000E496400C000000130000006A0F00003C00000006000000020000000000000000A049C000000000008059C000000000570397400000000000004EC0
310
00000000008059C00000000000E496400C00000013000000720F00003C000000060000000200000000000000006048C000000000008059C000000000570397400000000000004EC000000000008059C00000000000E496400C000000130000007A0F00003C0000000600000002000000000000000060484000000000008059
310
C000000000570397400000000000004EC000000000008059C00000000000E496400C00000013000000820F00003C000000060000000200000000000060DFEA47C000000000008059C000000000000797400000000000C042C000000000008059C000000000003497400C000000130000008A0F00003C000000060000000200
310
00000000000000C047C000000000008059C000000000000C97400000000000C042C000000000008059C000000000003497400C00000013000000920F00003C000000060000000200000000000060DFEA47C000000000008059C000000000001197400000000000C042C000000000008059C000000000003497400C00000013
310
0000009A0F00003C000000060000000200000000000060DFEA47C000000000008059C0000000000011974000000000006043C000000000008059C000000000573597400C00000013000000A20F00003C000000060000000200000000000000006048C000000000008059C000000000A914974000000000006043C000000000
310
008059C000000000573597400C00000013000000AA0F00003C000000060000000200000000000000006048C000000000008059C000000000A9149740000000C020D543C000000000008059C000000000003997400C00000013000000B20F00003C000000060000000200000000000000000049C000000000008059C0000000
310
0000169740000000C020D543C000000000008059C000000000003997400C00000013000000BA0F00003C000000060000000200000000000000000049C000000000008059C0000000000016974000000000000044C000000000008059C000000000003E97400C00000013000000C20F00003C00000006000000020000000000
310
00C020154AC000000000008059C000000000001197400000000000A049C000000000008059C000000000579398400C00000013000000CA0F00003C0000000600000002000000000000C020154AC000000000008059C00000000000119740000000C020154AC000000000008059C000000000009798400C00000013000000D2
310
0F00003C0000000600000002000000000000C020154AC000000000008059C000000000001197400000000000004EC000000000008059C00000000000E496400C00000013000000DA0F00003C0000000600000002000000000000C020154AC000000000008059C000000000009798400000000000004EC000000000008059C0
310
0000000000E496400C00000013000000E20F00003C00000006000000020000000000000000004EC000000000008059C00000000000E496400000000000004EC000000000008059C00000000000C498400C00000013000000EA0F00003C0000000600000002000000000000C020154AC000000000008059C000000000009798
310
400000000000004EC000000000008059C00000000000C498400C00000013000000F20F00003C00000006000000020000000000000000404AC000000000008059C000000000000C97400000000000004EC000000000008059C00000000000E496400C00000013000000FA0F00003C0000000600000002000000000000C02015
310
4AC000000000008059C000000000000797400000000000004EC000000000008059C00000000000E496400C00000013000000021000003C000000060000000200000000000060DFEA47C000000000008059C00000000000A19840000000000060484000000000008059C000000000A9A498400C000000130000000A1000003C
310
000000060000000200000000000000006048C000000000008059C000000000A9A49840000000000060484000000000008059C000000000A9A498400C00000013000000121000003C000000060000000200000000000000006048C000000000008059C000000000A9A498400000000000004E4000000000008059C000000000
310
00C498400C000000130000001A1000003C0000000600000002000000000000000060484000000000008059C000000000A9A498400000000000004E4000000000008059C00000000000C498400C00000013000000221000003C000000060000000200000000000000006048C000000000008059C000000000A9A49840000000
310
0000004EC000000000008059C00000000000C498400C000000130000002A1000003C00000006000000020000000000000000004E4000000000008059C00000000000C498400000000000004EC000000000008059C00000000000C498400C00000013000000321000003C000000060000000200000000000000000049C00000
310
0000008059C00000000000A698400000000000004EC000000000008059C00000000000C498400C000000130000003A1000003C00000006000000020000000000000000A049C000000000008059C000000000A9A498400000000000004EC000000000008059C00000000000C498400C00000013000000421000003C00000006
310
00000002000000000000C020154AC000000000008059C00000000000A198400000000000004EC000000000008059C00000000000C498400C000000130000004A1000003C00000006000000020000000000000000404AC000000000008059C000000000009C98400000000000004EC000000000008059C00000000000C49840
310
0C00000013000000521000003C000000060000000200000000000000006043C000000000008059C00000000057619840000000C020D543C000000000008059C000000000004397400C000000130000005A1000003C000000060000000200000000000000006043C000000000008059C0000000005761984000000000006043
310
C000000000008059C000000000A94697400C00000013000000621000003C00000006000000020000000000000000A0494000000000008059C000000000A9A498400000000000004E4000000000008059C00000000000C498400C000000130000006A1000003C00000006000000020000000000000000004940000000000080
310
59C00000000000A698400000000000004E4000000000008059C00000000000C498400C00000013000000721000003C00000006000000020000000000000000004E4000000000008059C00000000000E496400000000000004EC000000000008059C00000000000E496400C000000130000007A1000003C0000000600000002
310
00000000000000002042400000000000805DC0000000005761984000000000002042400000000000805DC000000000A94697400C00000013000000821000003C00000006000000020000000000000000C042400000000000805DC0000000000060984000000000002042400000000000805DC000000000A94697400C000000
310
130000008A1000003C00000006000000020000000000000000C042400000000000805DC000000000006098400000000000C042400000000000805DC000000000004897400C00000013000000921000003C00000006000000020000000000000000C042400000000000805DC000000000006098400000000000604340000000
310
0000805DC000000000A94697400C000000130000009A1000003C000000060000000200000000000000002042400000000000805DC0000000005761984000000040DFAA41C00000000000805DC000000000006598400C00000013000000A21000003C000000060000000200000000000040DFAA41C00000000000805DC00000
310
00000065984000000000002042400000000000805DC000000000A94697400C00000013000000AA1000003C000000060000000200000000000040DFAA41400000000000805DC0000000000065984000000040DFAA41C00000000000805DC000000000006598400C00000013000000B21000003C000000060000000200000000
310
000040DFAA41400000000000805DC0000000000065984000000000008041C00000000000805DC000000000006A98400C00000013000000BA1000003C000000060000000200000000000000008041400000000000805DC000000000006A984000000000008041C00000000000805DC000000000006A98400C00000013000000
310
C21000003C000000060000000200000000000000008041400000000000805DC000000000006A984000000040DFAA41C00000000000805DC000000000006F98400C00000013000000CA1000003C000000060000000200000000000040DFAA41400000000000805DC000000000006F984000000040DFAA41C00000000000805D
310
C000000000006F98400C00000013000000D21000003C000000060000000200000000000040DFAA41400000000000805DC000000000006F984000000000002042C00000000000805DC000000000A97298400C00000013000000DA1000003C000000060000000200000000000000002042400000000000805DC000000000A972
310
984000000000002042C00000000000805DC000000000A97298400C00000013000000E21000003C000000060000000200000000000000002042400000000000805DC000000000A972984000000060DFEA47C00000000000805DC00000000000A198400C00000013000000EA1000003C000000060000000200000000000060DF
310
EA47C00000000000805DC00000000000A1984000000000002042C00000000000805DC000000000A97298400C00000013000000F21000003C000000060000000200000000000000002042400000000000805DC000000000A972984000000060DFEA47400000000000805DC00000000000A198400C00000013000000FA100000
310
3C000000060000000200000000000060DFEA47C00000000000805DC00000000000A1984000000060DFEA47400000000000805DC00000000000A198400C00000013000000021100003C000000060000000200000000000000006048C00000000000805DC000000000A9A4984000000060DFEA47400000000000805DC0000000
310
0000A198400C000000130000000A1100003C000000060000000200000000000000006048C00000000000805DC000000000A9A4984000000000006048400000000000805DC000000000A9A498400C00000013000000121100003C000000060000000200000000000000006048400000000000805DC000000000A9A498400000
310
000000004EC00000000000805DC00000000000C498400C000000130000001A1100003C000000060000000200000000000000006048C00000000000805DC000000000A9A498400000000000004EC00000000000805DC00000000000C498400C00000013000000221100003C0000000600000002000000000000000060484000
310
00000000805DC000000000A9A498400000000000004E400000000000805DC00000000000C498400C000000130000002A1100003C00000006000000020000000000000000004E400000000000805DC00000000000C498400000000000004EC00000000000805DC00000000000C498400C00000013000000321100003C000000
310
060000000200000000000000000049400000000000805DC00000000000A698400000000000004E400000000000805DC00000000000C498400C000000130000003A1100003C00000006000000020000000000000000A049400000000000805DC000000000A9A498400000000000004E400000000000805DC00000000000C498
310
400C00000013000000421100003C000000060000000200000000000000002042400000000000805DC000000000A97298400000000000C047400000000000805DC000000000009C98400C000000130000004A1100003C00000006000000020000000000000000C042400000000000805DC000000000007498400000000000C0
310
47400000000000805DC000000000009C98400C00000013000000521100003C00000006000000020000000000000000C042400000000000805DC0000000000074984000000060DFEA47400000000000805DC000000000009798400C000000130000005A1100003C000000060000000200000000000000006043400000000000
310
805DC000000000A972984000000060DFEA47400000000000805DC000000000009798400C00000013000000621100003C000000060000000200000000000000006043400000000000805DC000000000A972984000000000006048400000000000805DC000000000579398400C000000130000006A1100003C00000006000000
310
02000000000000C020D543400000000000805DC000000000006F984000000000006048400000000000805DC000000000579398400C00000013000000721100003C0000000600000002000000000000C020D543400000000000805DC000000000006F984000000000000049400000000000805DC000000000009298400C0000
310
00130000007A1100003C000000060000000200000000000000000044400000000000805DC000000000006A984000000000000049400000000000805DC000000000009298400C00000013000000821100003C000000060000000200000000000000000044400000000000805DC000000000006A98400000000000A049400000
310
000000805DC000000000579398400C000000130000008A1100003C0000000600000002000000000000C020D543400000000000805DC000000000006598400000000000A049400000000000805DC000000000579398400C00000013000000921100003C0000000600000002000000000000C020D543400000000000805DC000
310
000000006598400000000000A049400000000000805DC000000000A91497400C000000130000009A1100003C00000006000000020000000000000000A049400000000000805DC000000000A91497400000000000A049400000000000805DC000000000579398400C00000013000000A21100003C0000000600000002000000
310
000000C020D543400000000000805DC00000000000659840000000C020D543400000000000805DC000000000004397400C00000013000000AA1100003C00000006000000020000000000000000A049400000000000805DC000000000A9149740000000C020D543400000000000805DC000000000004397400C000000130000
310
00B21100003C00000006000000020000000000000000A049400000000000805DC000000000A914974000000000000044400000000000805DC000000000003E97400C00000013000000BA1100003C000000060000000200000000000000006043400000000000805DC00000000057619840000000C020D54340000000000080
310
5DC000000000004397400C00000013000000C21100003C000000060000000200000000000000006043400000000000805DC0000000005761984000000000006043400000000000805DC000000000A94697400C00000013000000CA1100003C000000060000000200000000000000000049400000000000805DC00000000000
310
0297400000000000004E400000000000805DC00000000000E496400C00000013000000D21100003C00000006000000020000000000000000A049400000000000805DC000000000570397400000000000004E400000000000805DC00000000000E496400C00000013000000DA1100003C000000060000000200000000000000
310
006048400000000000805DC000000000570397400000000000004E400000000000805DC00000000000E496400C00000013000000E21100003C000000060000000200000000000000006048400000000000805DC0000000005703974000000000006048C00000000000805DC000000000570397400C00000013000000EA1100
310
003C000000060000000200000000000000006048C00000000000805DC000000000570397400000000000004E400000000000805DC00000000000E496400C00000013000000F21100003C000000060000000200000000000000006048400000000000805DC0000000005703974000000060DFEA47C00000000000805DC00000
310
0000000797400C00000013000000FA1100003C000000060000000200000000000060DFEA47400000000000805DC0000000000007974000000060DFEA47C00000000000805DC000000000000797400C00000013000000021200003C000000060000000200000000000060DFEA47400000000000805DC0000000000007974000
310
000000002042C00000000000805DC000000000573597400C000000130000000A1200003C000000060000000200000000000060DFEA47C00000000000805DC0000000000007974000000000002042C00000000000805DC000000000573597400C00000013000000121200003C000000060000000200000000000060DFEA4740
310
0000000000805DC0000000000007974000000000002042400000000000805DC000000000573597400C000000130000001A1200003C000000060000000200000000000000002042C00000000000805DC0000000005735974000000000002042400000000000805DC000000000573597400C00000013000000221200003C0000
310
00060000000200000000000040DFAA41C00000000000805DC0000000000039974000000000002042400000000000805DC000000000573597400C000000130000002A1200003C000000060000000200000000000040DFAA41C00000000000805DC0000000000039974000000040DFAA41400000000000805DC0000000000039
310
97400C00000013000000321200003C000000060000000200000000000000008041C00000000000805DC000000000003E974000000040DFAA41400000000000805DC000000000003997400C000000130000003A1200003C000000060000000200000000000000008041C00000000000805DC000000000003E97400000000000
310
8041400000000000805DC000000000003E97400C00000013000000421200003C000000060000000200000000000040DFAA41C00000000000805DC0000000000043974000000000008041400000000000805DC000000000003E97400C000000130000004A1200003C000000060000000200000000000040DFAA41C000000000
310
00805DC0000000000043974000000040DFAA41400000000000805DC000000000004397400C00000013000000521200003C000000060000000200000000000000002042C00000000000805DC000000000A946974000000040DFAA41400000000000805DC000000000004397400C000000130000005A1200003C000000060000
310
000200000000000000002042C00000000000805DC0000000005761984000000040DFAA41400000000000805DC000000000004397400C00000013000000621200003C000000060000000200000000000000002042C00000000000805DC0000000005761984000000000002042C00000000000805DC000000000A94697400C00
310
0000130000006A1200003C00000006000000020000000000000000C042C00000000000805DC0000000000060984000000000002042C00000000000805DC000000000A94697400C00000013000000721200003C000000060000000200000000000060DFEA47400000000000805DC000000000000797400000000000C0424000
310
00000000805DC000000000003497400C000000130000007A1200003C00000006000000020000000000000000C047400000000000805DC000000000000C97400000000000C042400000000000805DC000000000003497400C00000013000000821200003C000000060000000200000000000060DFEA47400000000000805DC0
310
00000000001197400000000000C042400000000000805DC000000000003497400C000000130000008A1200003C000000060000000200000000000060DFEA47400000000000805DC0000000000011974000000000006043400000000000805DC000000000573597400C00000013000000921200003C00000006000000020000
310
0000000000006048400000000000805DC000000000A914974000000000006043400000000000805DC000000000573597400C000000130000009A1200003C000000060000000200000000000000006048400000000000805DC000000000A9149740000000C020D543400000000000805DC000000000003997400C0000001300
310
0000A21200003C000000060000000200000000000000000049400000000000805DC00000000000169740000000C020D543400000000000805DC000000000003997400C00000013000000AA1200003C000000060000000200000000000000000049400000000000805DC0000000000016974000000000000044400000000000
310
805DC000000000003E97400C00000013000000B21200003C0000000600000002000000000000C020154A400000000000805DC000000000001197400000000000A049400000000000805DC000000000579398400C00000013000000BA1200003C0000000600000002000000000000C020154A400000000000805DC000000000
310
00119740000000C020154A400000000000805DC000000000009798400C00000013000000C21200003C0000000600000002000000000000C020154A400000000000805DC000000000001197400000000000004E400000000000805DC00000000000E496400C00000013000000CA1200003C0000000600000002000000000000
310
C020154A400000000000805DC000000000009798400000000000004E400000000000805DC00000000000E496400C00000013000000D21200003C00000006000000020000000000000000004E400000000000805DC00000000000E496400000000000004E400000000000805DC00000000000C498400C00000013000000DA12
310
00003C0000000600000002000000000000C020154A400000000000805DC000000000009798400000000000004E400000000000805DC00000000000C498400C00000013000000E21200003C00000006000000020000000000000000404A400000000000805DC000000000000C97400000000000004E400000000000805DC000
310
00000000E496400C00000013000000EA1200003C0000000600000002000000000000C020154A400000000000805DC000000000000797400000000000004E400000000000805DC00000000000E496400C00000013000000F21200003C000000060000000200000000000000000049C00000000000805DC00000000000029740
310
0000000000004EC00000000000805DC00000000000E496400C00000013000000FA1200003C000000060000000200000000000000006048C00000000000805DC000000000570397400000000000004EC00000000000805DC00000000000E496400C00000013000000021300003C00000006000000020000000000000000A049
310
C00000000000805DC000000000570397400000000000004EC00000000000805DC00000000000E496400C000000130000000A1300003C0000000600000002000000000000C020154AC00000000000805DC000000000000797400000000000004EC00000000000805DC00000000000E496400C00000013000000121300003C00
310
000006000000020000000000000000404AC00000000000805DC000000000000C97400000000000004EC00000000000805DC00000000000E496400C000000130000001A1300003C0000000600000002000000000000C020154AC00000000000805DC000000000001197400000000000004EC00000000000805DC00000000000
310
E496400C00000013000000221300003C0000000600000002000000000000C020154AC00000000000805DC00000000000119740000000C020154AC00000000000805DC000000000009798400C000000130000002A1300003C0000000600000002000000000000C020154AC00000000000805DC0000000000097984000000000
310
00004EC00000000000805DC00000000000E496400C00000013000000321300003C0000000600000002000000000000C020154AC00000000000805DC000000000001197400000000000A049C00000000000805DC000000000579398400C000000130000003A1300003C00000006000000020000000000000000A049C0000000
310
0000805DC000000000A91497400000000000A049C00000000000805DC000000000579398400C00000013000000421300003C00000006000000020000000000000000A049C00000000000805DC000000000A9149740000000C020D543C00000000000805DC000000000006598400C000000130000004A1300003C0000000600
310
0000020000000000000000A049C00000000000805DC00000000057939840000000C020D543C00000000000805DC000000000006598400C00000013000000521300003C00000006000000020000000000000000A049C00000000000805DC000000000A9149740000000C020D543C00000000000805DC000000000004397400C
310
000000130000005A1300003C0000000600000002000000000000C020D543C00000000000805DC00000000000659840000000C020D543C00000000000805DC000000000004397400C00000013000000621300003C000000060000000200000000000000006043C00000000000805DC00000000057619840000000C020D543C0
310
0000000000805DC000000000004397400C000000130000006A1300003C000000060000000200000000000000006043C00000000000805DC0000000005761984000000000006043C00000000000805DC000000000A94697400C00000013000000721300003C00000006000000020000000000000000C042C00000000000805D
310
C0000000000060984000000000006043C00000000000805DC000000000A94697400C000000130000007A1300003C00000006000000020000000000000000C042C00000000000805DC000000000006098400000000000C042C00000000000805DC000000000004897400C00000013000000821300003C000000060000000200
310
00000000000000A049C00000000000805DC000000000A914974000000000000044C00000000000805DC000000000003E97400C000000130000008A1300003C000000060000000200000000000000000049C00000000000805DC0000000000016974000000000000044C00000000000805DC000000000003E97400C00000013
310
000000921300003C000000060000000200000000000000000049C00000000000805DC00000000000169740000000C020D543C00000000000805DC000000000003997400C000000130000009A1300003C000000060000000200000000000000006048C00000000000805DC000000000A9149740000000C020D543C000000000
310
00805DC000000000003997400C00000013000000A21300003C000000060000000200000000000000006048C00000000000805DC000000000A914974000000000006043C00000000000805DC000000000573597400C00000013000000AA1300003C000000060000000200000000000060DFEA47C00000000000805DC0000000
310
000011974000000000006043C00000000000805DC000000000573597400C00000013000000B21300003C000000060000000200000000000060DFEA47C00000000000805DC000000000001197400000000000C042C00000000000805DC000000000003497400C00000013000000BA1300003C00000006000000020000000000
310
000000C047C00000000000805DC000000000000C97400000000000C042C00000000000805DC000000000003497400C00000013000000C21300003C000000060000000200000000000060DFEA47C00000000000805DC000000000000797400000000000C042C00000000000805DC000000000003497400C00000013000000CA
310
1300003C00000006000000020000000000000000004E400000000000805DC00000000000E496400000000000004EC00000000000805DC00000000000E496400C00000013000000D21300003C00000006000000020000000000000000A049C00000000000805DC0000000005793984000000000000044C00000000000805DC0
310
00000000006A98400C00000013000000DA1300003C000000060000000200000000000000000049C00000000000805DC0000000000092984000000000000044C00000000000805DC000000000006A98400C00000013000000E21300003C000000060000000200000000000000000049C00000000000805DC000000000009298
310
40000000C020D543C00000000000805DC000000000006F98400C00000013000000EA1300003C000000060000000200000000000000006048C00000000000805DC00000000057939840000000C020D543C00000000000805DC000000000006F98400C00000013000000F21300003C0000000600000002000000000000000060
310
48C00000000000805DC0000000005793984000000000006043C00000000000805DC000000000A97298400C00000013000000FA1300003C000000060000000200000000000060DFEA47C00000000000805DC0000000000097984000000000006043C00000000000805DC000000000A97298400C00000013000000021400003C
310
000000060000000200000000000060DFEA47C00000000000805DC000000000009798400000000000C042C00000000000805DC000000000007498400C000000130000000A1400003C00000006000000020000000000000000C047C00000000000805DC000000000009C98400000000000C042C00000000000805DC000000000
310
007498400C00000013000000121400003C00000006000000020000000000000000C047C00000000000805DC000000000009C984000000000002042C00000000000805DC000000000A97298400C000000130000001A1400003C0000000600000002000000000000C020154AC00000000000805DC00000000000979840000000
310
0000004EC00000000000805DC00000000000C498400C00000013000000221400003C00000006000000020000000000000000004EC00000000000805DC00000000000C498400000000000004EC00000000000805DC00000000000E496400C000000130000002A1400003C00000006000000020000000000000000404AC00000
310
000000805DC000000000009C98400000000000004EC00000000000805DC00000000000C498400C00000013000000321400003C0000000600000002000000000000C020154AC00000000000805DC00000000000A198400000000000004EC00000000000805DC00000000000C498400C000000130000003A1400003C00000006
310
000000020000000000000000A049C00000000000805DC000000000A9A498400000000000004EC00000000000805DC00000000000C498400C00000013000000421400003C000000060000000200000000000000000049C00000000000805DC00000000000A698400000000000004EC00000000000805DC00000000000C49840
310
0C000000130000004A1400003C000000060000000200000000000000002042C00000000000805DC0000000005761984000000000002042400000000000805DC000000000A94697400C00000013000000521400003C0000000600000002000000000000C020154A400000000000805DC00000000000A198400000000000004E
310
400000000000805DC00000000000C498400C000000130000005A1400003C00000006000000020000000000000000404A400000000000805DC000000000009C98400000000000004E400000000000805DC00000000000C498400C00000013000000621400003C00000006000000020000000000000000004EC0000000000080
310
59C00000000000E496400000000000004EC00000000000805DC00000000000E496400C000000130000006A1400003C00000006000000020000000000000000004EC000000000008059C00000000000E496400000000000004E400000000000805DC00000000000E496400C00000013000000721400003C0000000600000002
310
0000000000000000004E4000000000008059C00000000000E496400000000000004E400000000000805DC00000000000E496400C000000130000007A1400003C00000006000000020000000000000000004EC000000000008059C00000000000C498400000000000004EC00000000000805DC00000000000C498400C000000
310
13000000821400003C00000006000000020000000000000000004EC000000000008059C00000000000C498400000000000004EC00000000000805DC00000000000E496400C000000130000008A1400003C00000006000000020000000000000000004E4000000000008059C00000000000C498400000000000004E40000000
310
0000805DC00000000000C498400C00000013000000921400003C00000006000000020000000000000000004E4000000000008059C00000000000C498400000000000004EC00000000000805DC00000000000C498400C000000130000009A1400003C00000006000000020000000000000000004E4000000000008059C00000
310
000000E496400000000000004E400000000000805DC00000000000C49840
100
AcDbSubDMesh
 71
     2
 72
     0
 91
        0
 92
      208
 10
-8.0
 20
-40.0
 30
1550.0
 10
8.0
 20
-40.0
 30
1550.0
 10
8.0
 20
-40.0
 30
1500.0
 10
-8.0
 20
-40.0
 30
1500.0
 10
8.0
 20
-102.0
 30
1550.0
 10
-8.0
 20
-102.0
 30
1550.0
 10
-8.0
 20
-102.0
 30
1500.0
 10
8.0
 20
-102.0
 30
1500.0
 10
37.5
 20
-102.0
 30
1560.0
 10
36.25
 20
-102.0
 30
1560.3349609375
 10
35.33493804931641
 20
-102.0
 30
1561.25
 10
35.0
 20
-102.0
 30
1562.5
 10
35.33493804931641
 20
-102.0
 30
1563.75
 10
36.25
 20
-102.0
 30
1564.6650390625
 10
37.5
 20
-102.0
 30
1565.0
 10
38.75
 20
-102.0
 30
1564.6650390625
 10
39.6650619506836
 20
-102.0
 30
1563.75
 10
40.0
 20
-102.0
 30
1562.5
 10
39.6650619506836
 20
-102.0
 30
1561.25
 10
38.75
 20
-102.0
 30
1560.3349609375
 10
37.5
 20
-118.0
 30
1560.0
 10
38.75
 20
-118.0
 30
1560.3349609375
 10
39.6650619506836
 20
-118.0
 30
1561.25
 10
40.0
 20
-118.0
 30
1562.5
 10
39.6650619506836
 20
-118.0
 30
1563.75
 10
38.75
 20
-118.0
 30
1564.6650390625
 10
37.5
 20
-118.0
 30
1565.0
 10
36.25
 20
-118.0
 30
1564.6650390625
 10
35.33493804931641
 20
-118.0
 30
1563.75
 10
35.0
 20
-118.0
 30
1562.5
 10
35.33493804931641
 20
-118.0
 30
1561.25
 10
36.25
 20
-118.0
 30
1560.3349609375
 10
50.0
 20
-102.0
 30
1472.5
 10
48.75
 20
-102.0
 30
1472.8349609375
 10
47.83494186401367
 20
-102.0
 30
1473.75
 10
47.5
 20
-102.0
 30
1475.0
 10
47.83494186401367
 20
-102.0
 30
1476.25
 10
48.75
 20
-102.0
 30
1477.1650390625
 10
50.0
 20
-102.0
 30
1477.5
 10
51.25
 20
-102.0
 30
1477.1650390625
 10
52.16506195068359
 20
-102.0
 30
1476.25
 10
52.5
 20
-102.0
 30
1475.0
 10
52.16506195068359
 20
-102.0
 30
1473.75
 10
51.25
 20
-102.0
 30
1472.8349609375
 10
50.0
 20
-118.0
 30
1472.5
 10
51.25
 20
-118.0
 30
1472.8349609375
 10
52.16506195068359
 20
-118.0
 30
1473.75
 10
52.5
 20
-118.0
 30
1475.0
 10
52.16506195068359
 20
-118.0
 30
1476.25
 10
51.25
 20
-118.0
 30
1477.1650390625
 10
50.0
 20
-118.0
 30
1477.5
 10
48.75
 20
-118.0
 30
1477.1650390625
 10
47.83494186401367
 20
-118.0
 30
1476.25
 10
47.5
 20
-118.0
 30
1475.0
 10
47.83494186401367
 20
-118.0
 30
1473.75
 10
48.75
 20
-118.0
 30
1472.8349609375
 10
-50.0
 20
-102.0
 30
1472.5
 10
-51.25
 20
-102.0
 30
1472.8349609375
 10
-52.16506195068359
 20
-102.0
 30
1473.75
 10
-52.5
 20
-102.0
 30
1475.0
 10
-52.16506195068359
 20
-102.0
 30
1476.25
 10
-51.25
 20
-102.0
 30
1477.1650390625
 10
-50.0
 20
-102.0
 30
1477.5
 10
-48.75
 20
-102.0
 30
1477.1650390625
 10
-47.83494186401367
 20
-102.0
 30
1476.25
 10
-47.5
 20
-102.0
 30
1475.0
 10
-47.83494186401367
 20
-102.0
 30
1473.75
 10
-48.75
 20
-102.0
 30
1472.8349609375
 10
-50.0
 20
-118.0
 30
1472.5
 10
-48.75
 20
-118.0
 30
1472.8349609375
 10
-47.83494186401367
 20
-118.0
 30
1473.75
 10
-47.5
 20
-118.0
 30
1475.0
 10
-47.83494186401367
 20
-118.0
 30
1476.25
 10
-48.75
 20
-118.0
 30
1477.1650390625
 10
-50.0
 20
-118.0
 30
1477.5
 10
-51.25
 20
-118.0
 30
1477.1650390625
 10
-52.16506195068359
 20
-118.0
 30
1476.25
 10
-52.5
 20
-118.0
 30
1475.0
 10
-52.16506195068359
 20
-118.0
 30
1473.75
 10
-51.25
 20
-118.0
 30
1472.8349609375
 10
-50.0
 20
-102.0
 30
1572.5
 10
-51.25
 20
-102.0
 30
1572.8349609375
 10
-52.16506195068359
 20
-102.0
 30
1573.75
 10
-52.5
 20
-102.0
 30
1575.0
 10
-52.16506195068359
 20
-102.0
 30
1576.25
 10
-51.25
 20
-102.0
 30
1577.1650390625
 10
-50.0
 20
-102.0
 30
1577.5
 10
-48.75
 20
-102.0
 30
1577.1650390625
 10
-47.83494186401367
 20
-102.0
 30
1576.25
 10
-47.5
 20
-102.0
 30
1575.0
 10
-47.83494186401367
 20
-102.0
 30
1573.75
 10
-48.75
 20
-102.0
 30
1572.8349609375
 10
-50.0
 20
-118.0
 30
1572.5
 10
-48.75
 20
-118.0
 30
1572.8349609375
 10
-47.83494186401367
 20
-118.0
 30
1573.75
 10
-47.5
 20
-118.0
 30
1575.0
 10
-47.83494186401367
 20
-118.0
 30
1576.25
 10
-48.75
 20
-118.0
 30
1577.1650390625
 10
-50.0
 20
-118.0
 30
1577.5
 10
-51.25
 20
-118.0
 30
1577.1650390625
 10
-52.16506195068359
 20
-118.0
 30
1576.25
 10
-52.5
 20
-118.0
 30
1575.0
 10
-52.16506195068359
 20
-118.0
 30
1573.75
 10
-51.25
 20
-118.0
 30
1572.8349609375
 10
-37.5
 20
-102.0
 30
1560.0
 10
-38.75
 20
-102.0
 30
1560.3349609375
 10
-39.6650619506836
 20
-102.0
 30
1561.25
 10
-40.0
 20
-102.0
 30
1562.5
 10
-39.6650619506836
 20
-102.0
 30
1563.75
 10
-38.75
 20
-102.0
 30
1564.6650390625
 10
-37.5
 20
-102.0
 30
1565.0
 10
-36.25
 20
-102.0
 30
1564.6650390625
 10
-35.33493804931641
 20
-102.0
 30
1563.75
 10
-35.0
 20
-102.0
 30
1562.5
 10
-35.33493804931641
 20
-102.0
 30
1561.25
 10
-36.25
 20
-102.0
 30
1560.3349609375
 10
-37.5
 20
-118.0
 30
1560.0
 10
-36.25
 20
-118.0
 30
1560.3349609375
 10
-35.33493804931641
 20
-118.0
 30
1561.25
 10
-35.0
 20
-118.0
 30
1562.5
 10
-35.33493804931641
 20
-118.0
 30
1563.75
 10
-36.25
 20
-118.0
 30
1564.6650390625
 10
-37.5
 20
-118.0
 30
1565.0
 10
-38.75
 20
-118.0
 30
1564.6650390625
 10
-39.6650619506836
 20
-118.0
 30
1563.75
 10
-40.0
 20
-118.0
 30
1562.5
 10
-39.6650619506836
 20
-118.0
 30
1561.25
 10
-38.75
 20
-118.0
 30
1560.3349609375
 10
-37.5
 20
-102.0
 30
1485.0
 10
-38.75
 20
-102.0
 30
1485.3349609375
 10
-39.6650619506836
 20
-102.0
 30
1486.25
 10
-40.0
 20
-102.0
 30
1487.5
 10
-39.6650619506836
 20
-102.0
 30
1488.75
 10
-38.75
 20
-102.0
 30
1489.6650390625
 10
-37.5
 20
-102.0
 30
1490.0
 10
-36.25
 20
-102.0
 30
1489.6650390625
 10
-35.33493804931641
 20
-102.0
 30
1488.75
 10
-35.0
 20
-102.0
 30
1487.5
 10
-35.33493804931641
 20
-102.0
 30
1486.25
 10
-36.25
 20
-102.0
 30
1485.3349609375
 10
-37.5
 20
-118.0
 30
1485.0
 10
-36.25
 20
-118.0
 30
1485.3349609375
 10
-35.33493804931641
 20
-118.0
 30
1486.25
 10
-35.0
 20
-118.0
 30
1487.5
 10
-35.33493804931641
 20
-118.0
 30
1488.75
 10
-36.25
 20
-118.0
 30
1489.6650390625
 10
-37.5
 20
-118.0
 30
1490.0
 10
-38.75
 20
-118.0
 30
1489.6650390625
 10
-39.6650619506836
 20
-118.0
 30
1488.75
 10
-40.0
 20
-118.0
 30
1487.5
 10
-39.6650619506836
 20
-118.0
 30
1486.25
 10
-38.75
 20
-118.0
 30
1485.3349609375
 10
37.5
 20
-102.0
 30
1485.0
 10
36.25
 20
-102.0
 30
1485.3349609375
 10
35.33493804931641
 20
-102.0
 30
1486.25
 10
35.0
 20
-102.0
 30
1487.5
 10
35.33493804931641
 20
-102.0
 30
1488.75
 10
36.25
 20
-102.0
 30
1489.6650390625
 10
37.5
 20
-102.0
 30
1490.0
 10
38.75
 20
-102.0
 30
1489.6650390625
 10
39.6650619506836
 20
-102.0
 30
1488.75
 10
40.0
 20
-102.0
 30
1487.5
 10
39.6650619506836
 20
-102.0
 30
1486.25
 10
38.75
 20
-102.0
 30
1485.3349609375
 10
37.5
 20
-118.0
 30
1485.0
 10
38.75
 20
-118.0
 30
1485.3349609375
 10
39.6650619506836
 20
-118.0
 30
1486.25
 10
40.0
 20
-118.0
 30
1487.5
 10
39.6650619506836
 20
-118.0
 30
1488.75
 10
38.75
 20
-118.0
 30
1489.6650390625
 10
37.5
 20
-118.0
 30
1490.0
 10
36.25
 20
-118.0
 30
1489.6650390625
 10
35.33493804931641
 20
-118.0
 30
1488.75
 10
35.0
 20
-118.0
 30
1487.5
 10
35.33493804931641
 20
-118.0
 30
1486.25
 10
36.25
 20
-118.0
 30
1485.3349609375
 10
50.0
 20
-102.0
 30
1572.5
 10
48.75
 20
-102.0
 30
1572.8349609375
 10
47.83494186401367
 20
-102.0
 30
1573.75
 10
47.5
 20
-102.0
 30
1575.0
 10
47.83494186401367
 20
-102.0
 30
1576.25
 10
48.75
 20
-102.0
 30
1577.1650390625
 10
50.0
 20
-102.0
 30
1577.5
 10
51.25
 20
-102.0
 30
1577.1650390625
 10
52.16506195068359
 20
-102.0
 30
1576.25
 10
52.5
 20
-102.0
 30
1575.0
 10
52.16506195068359
 20
-102.0
 30
1573.75
 10
51.25
 20
-102.0
 30
1572.8349609375
 10
50.0
 20
-118.0
 30
1572.5
 10
51.25
 20
-118.0
 30
1572.8349609375
 10
52.16506195068359
 20
-118.0
 30
1573.75
 10
52.5
 20
-118.0
 30
1575.0
 10
52.16506195068359
 20
-118.0
 30
1576.25
 10
51.25
 20
-118.0
 30
1577.1650390625
 10
50.0
 20
-118.0
 30
1577.5
 10
48.75
 20
-118.0
 30
1577.1650390625
 10
47.83494186401367
 20
-118.0
 30
1576.25
 10
47.5
 20
-118.0
 30
1575.0
 10
47.83494186401367
 20
-118.0
 30
1573.75
 10
48.75
 20
-118.0
 30
1572.8349609375
 10
60.0
 20
-102.0
 30
1585.0
 10
60.0
 20
-102.0
 30
1465.0
 10
-60.0
 20
-102.0
 30
1465.0
 10
-60.0
 20
-102.0
 30
1585.0
 10
60.0
 20
-118.0
 30
1465.0
 10
60.0
 20
-118.0
 30
1585.0
 10
-60.0
 20
-118.0
 30
1585.0
 10
-60.0
 20
-118.0
 30
1465.0
 93
     1760
 90
        3
 90
        1
 90
        2
 90
        0
 90
        3
 90
        0
 90
        2
 90
        3
 90
        3
 90
        5
 90
        6
 90
        4
 90
        3
 90
        4
 90
        6
 90
        7
 90
        3
 90
        3
 90
        6
 90
        0
 90
        3
 90
        0
 90
        6
 90
        5
 90
        3
 90
        2
 90
        7
 90
        3
 90
        3
 90
        3
 90
        7
 90
        6
 90
        3
 90
        1
 90
        4
 90
        2
 90
        3
 90
        2
 90
        4
 90
        7
 90
        3
 90
        0
 90
        5
 90
        1
 90
        3
 90
        1
 90
        5
 90
        4
 90
        3
 90
        9
 90
       31
 90
        8
 90
        3
 90
        8
 90
       31
 90
       20
 90
        3
 90
        8
 90
       20
 90
       19
 90
        3
 90
       19
 90
       20
 90
       21
 90
        3
 90
       19
 90
       21
 90
       18
 90
        3
 90
       18
 90
       21
 90
       22
 90
        3
 90
       18
 90
       22
 90
       17
 90
        3
 90
       17
 90
       22
 90
       23
 90
        3
 90
       17
 90
       23
 90
       16
 90
        3
 90
       16
 90
       23
 90
       24
 90
        3
 90
       16
 90
       24
 90
       15
 90
        3
 90
       15
 90
       24
 90
       25
 90
        3
 90
       15
 90
       25
 90
       14
 90
        3
 90
       14
 90
       25
 90
       26
 90
        3
 90
       14
 90
       26
 90
       13
 90
        3
 90
       13
 90
       26
 90
       27
 90
        3
 90
       13
 90
       27
 90
       12
 90
        3
 90
       12
 90
       27
 90
       28
 90
        3
 90
       12
 90
       28
 90
       11
 90
        3
 90
       11
 90
       28
 90
       29
 90
        3
 90
       11
 90
       29
 90
       10
 90
        3
 90
       10
 90
       29
 90
       30
 90
        3
 90
       10
 90
       30
 90
        9
 90
        3
 90
        9
 90
       30
 90
       31
 90
        3
 90
       33
 90
       55
 90
       32
 90
        3
 90
       32
 90
       55
 90
       44
 90
        3
 90
       32
 90
       44
 90
       43
 90
        3
 90
       43
 90
       44
 90
       45
 90
        3
 90
       43
 90
       45
 90
       42
 90
        3
 90
       42
 90
       45
 90
       46
 90
        3
 90
       42
 90
       46
 90
       41
 90
        3
 90
       41
 90
       46
 90
       47
 90
        3
 90
       41
 90
       47
 90
       40
 90
        3
 90
       40
 90
       47
 90
       48
 90
        3
 90
       40
 90
       48
 90
       39
 90
        3
 90
       39
 90
       48
 90
       49
 90
        3
 90
       39
 90
       49
 90
       38
 90
        3
 90
       38
 90
       49
 90
       50
 90
        3
 90
       38
 90
       50
 90
       37
 90
        3
 90
       37
 90
       50
 90
       51
 90
        3
 90
       37
 90
       51
 90
       36
 90
        3
 90
       36
 90
       51
 90
       52
 90
        3
 90
       36
 90
       52
 90
       35
 90
        3
 90
       35
 90
       52
 90
       53
 90
        3
 90
       35
 90
       53
 90
       34
 90
        3
 90
       34
 90
       53
 90
       54
 90
        3
 90
       34
 90
       54
 90
       33
 90
        3
 90
       33
 90
       54
 90
       55
 90
        3
 90
       57
 90
       79
 90
       56
 90
        3
 90
       56
 90
       79
 90
       68
 90
        3
 90
       56
 90
       68
 90
       67
 90
        3
 90
       67
 90
       68
 90
       69
 90
        3
 90
       67
 90
       69
 90
       66
 90
        3
 90
       66
 90
       69
 90
       70
 90
        3
 90
       66
 90
       70
 90
       65
 90
        3
 90
       65
 90
       70
 90
       71
 90
        3
 90
       65
 90
       71
 90
       64
 90
        3
 90
       64
 90
       71
 90
       72
 90
        3
 90
       64
 90
       72
 90
       63
 90
        3
 90
       63
 90
       72
 90
       73
 90
        3
 90
       63
 90
       73
 90
       62
 90
        3
 90
       62
 90
       73
 90
       74
 90
        3
 90
       62
 90
       74
 90
       61
 90
        3
 90
       61
 90
       74
 90
       75
 90
        3
 90
       61
 90
       75
 90
       60
 90
        3
 90
       60
 90
       75
 90
       76
 90
        3
 90
       60
 90
       76
 90
       59
 90
        3
 90
       59
 90
       76
 90
       77
 90
        3
 90
       59
 90
       77
 90
       58
 90
        3
 90
       58
 90
       77
 90
       78
 90
        3
 90
       58
 90
       78
 90
       57
 90
        3
 90
       57
 90
       78
 90
       79
 90
        3
 90
       81
 90
      103
 90
       80
 90
        3
 90
       80
 90
      103
 90
       92
 90
        3
 90
       80
 90
       92
 90
       91
 90
        3
 90
       91
 90
       92
 90
       93
 90
        3
 90
       91
 90
       93
 90
       90
 90
        3
 90
       90
 90
       93
 90
       94
 90
        3
 90
       90
 90
       94
 90
       89
 90
        3
 90
       89
 90
       94
 90
       95
 90
        3
 90
       89
 90
       95
 90
       88
 90
        3
 90
       88
 90
       95
 90
       96
 90
        3
 90
       88
 90
       96
 90
       87
 90
        3
 90
       87
 90
       96
 90
       97
 90
        3
 90
       87
 90
       97
 90
       86
 90
        3
 90
       86
 90
       97
 90
       98
 90
        3
 90
       86
 90
       98
 90
       85
 90
        3
 90
       85
 90
       98
 90
       99
 90
        3
 90
       85
 90
       99
 90
       84
 90
        3
 90
       84
 90
       99
 90
      100
 90
        3
 90
       84
 90
      100
 90
       83
 90
        3
 90
       83
 90
      100
 90
      101
 90
        3
 90
       83
 90
      101
 90
       82
 90
        3
 90
       82
 90
      101
 90
      102
 90
        3
 90
       82
 90
      102
 90
       81
 90
        3
 90
       81
 90
      102
 90
      103
 90
        3
 90
      105
 90
      127
 90
      104
 90
        3
 90
      104
 90
      127
 90
      116
 90
        3
 90
      104
 90
      116
 90
      115
 90
        3
 90
      115
 90
      116
 90
      117
 90
        3
 90
      115
 90
      117
 90
      114
 90
        3
 90
      114
 90
      117
 90
      118
 90
        3
 90
      114
 90
      118
 90
      113
 90
        3
 90
      113
 90
      118
 90
      119
 90
        3
 90
      113
 90
      119
 90
      112
 90
        3
 90
      112
 90
      119
 90
      120
 90
        3
 90
      112
 90
      120
 90
      111
 90
        3
 90
      111
 90
      120
 90
      121
 90
        3
 90
      111
 90
      121
 90
      110
 90
        3
 90
      110
 90
      121
 90
      122
 90
        3
 90
      110
 90
      122
 90
      109
 90
        3
 90
      109
 90
      122
 90
      123
 90
        3
 90
      109
 90
      123
 90
      108
 90
        3
 90
      108
 90
      123
 90
      124
 90
        3
 90
      108
 90
      124
 90
      107
 90
        3
 90
      107
 90
      124
 90
      125
 90
        3
 90
      107
 90
      125
 90
      106
 90
        3
 90
      106
 90
      125
 90
      126
 90
        3
 90
      106
 90
      126
 90
      105
 90
        3
 90
      105
 90
      126
 90
      127
 90
        3
 90
      129
 90
      151
 90
      128
 90
        3
 90
      128
 90
      151
 90
      140
 90
        3
 90
      128
 90
      140
 90
      139
 90
        3
 90
      139
 90
      140
 90
      141
 90
        3
 90
      139
 90
      141
 90
      138
 90
        3
 90
      138
 90
      141
 90
      142
 90
        3
 90
      138
 90
      142
 90
      137
 90
        3
 90
      137
 90
      142
 90
      143
 90
        3
 90
      137
 90
      143
 90
      136
 90
        3
 90
      136
 90
      143
 90
      144
 90
        3
 90
      136
 90
      144
 90
      135
 90
        3
 90
      135
 90
      144
 90
      145
 90
        3
 90
      135
 90
      145
 90
      134
 90
        3
 90
      134
 90
      145
 90
      146
 90
        3
 90
      134
 90
      146
 90
      133
 90
        3
 90
      133
 90
      146
 90
      147
 90
        3
 90
      133
 90
      147
 90
      132
 90
        3
 90
      132
 90
      147
 90
      148
 90
        3
 90
      132
 90
      148
 90
      131
 90
        3
 90
      131
 90
      148
 90
      149
 90
        3
 90
      131
 90
      149
 90
      130
 90
        3
 90
      130
 90
      149
 90
      150
 90
        3
 90
      130
 90
      150
 90
      129
 90
        3
 90
      129
 90
      150
 90
      151
 90
        3
 90
      153
 90
      175
 90
      152
 90
        3
 90
      152
 90
      175
 90
      164
 90
        3
 90
      152
 90
      164
 90
      163
 90
        3
 90
      163
 90
      164
 90
      165
 90
        3
 90
      163
 90
      165
 90
      162
 90
        3
 90
      162
 90
      165
 90
      166
 90
        3
 90
      162
 90
      166
 90
      161
 90
        3
 90
      161
 90
      166
 90
      167
 90
        3
 90
      161
 90
      167
 90
      160
 90
        3
 90
      160
 90
      167
 90
      168
 90
        3
 90
      160
 90
      168
 90
      159
 90
        3
 90
      159
 90
      168
 90
      169
 90
        3
 90
      159
 90
      169
 90
      158
 90
        3
 90
      158
 90
      169
 90
      170
 90
        3
 90
      158
 90
      170
 90
      157
 90
        3
 90
      157
 90
      170
 90
      171
 90
        3
 90
      157
 90
      171
 90
      156
 90
        3
 90
      156
 90
      171
 90
      172
 90
        3
 90
      156
 90
      172
 90
      155
 90
        3
 90
      155
 90
      172
 90
      173
 90
        3
 90
      155
 90
      173
 90
      154
 90
        3
 90
      154
 90
      173
 90
      174
 90
        3
 90
      154
 90
      174
 90
      153
 90
        3
 90
      153
 90
      174
 90
      175
 90
        3
 90
      177
 90
      199
 90
      176
 90
        3
 90
      176
 90
      199
 90
      188
 90
        3
 90
      176
 90
      188
 90
      187
 90
        3
 90
      187
 90
      188
 90
      189
 90
        3
 90
      187
 90
      189
 90
      186
 90
        3
 90
      186
 90
      189
 90
      190
 90
        3
 90
      186
 90
      190
 90
      185
 90
        3
 90
      185
 90
      190
 90
      191
 90
        3
 90
      185
 90
      191
 90
      184
 90
        3
 90
      184
 90
      191
 90
      192
 90
        3
 90
      184
 90
      192
 90
      183
 90
        3
 90
      183
 90
      192
 90
      193
 90
        3
 90
      183
 90
      193
 90
      182
 90
        3
 90
      182
 90
      193
 90
      194
 90
        3
 90
      182
 90
      194
 90
      181
 90
        3
 90
      181
 90
      194
 90
      195
 90
        3
 90
      181
 90
      195
 90
      180
 90
        3
 90
      180
 90
      195
 90
      196
 90
        3
 90
      180
 90
      196
 90
      179
 90
        3
 90
      179
 90
      196
 90
      197
 90
        3
 90
      179
 90
      197
 90
      178
 90
        3
 90
      178
 90
      197
 90
      198
 90
        3
 90
      178
 90
      198
 90
      177
 90
        3
 90
      177
 90
      198
 90
      199
 90
        3
 90
       19
 90
      159
 90
        8
 90
        3
 90
        8
 90
      159
 90
      158
 90
        3
 90
        8
 90
      158
 90
      157
 90
        3
 90
      159
 90
       19
 90
      160
 90
        3
 90
      160
 90
       19
 90
       18
 90
        3
 90
      160
 90
       18
 90
       39
 90
        3
 90
       39
 90
       18
 90
      187
 90
        3
 90
       39
 90
      187
 90
       40
 90
        3
 90
       40
 90
      187
 90
      186
 90
        3
 90
       40
 90
      186
 90
      201
 90
        3
 90
      201
 90
      186
 90
      200
 90
        3
 90
      200
 90
      186
 90
      185
 90
        3
 90
      200
 90
      185
 90
      184
 90
        3
 90
       18
 90
       17
 90
      187
 90
        3
 90
      187
 90
       17
 90
      176
 90
        3
 90
      176
 90
       17
 90
       16
 90
        3
 90
      176
 90
       16
 90
      177
 90
        3
 90
      177
 90
       16
 90
       15
 90
        3
 90
      177
 90
       15
 90
      178
 90
        3
 90
      178
 90
       15
 90
       14
 90
        3
 90
      178
 90
       14
 90
      179
 90
        3
 90
      179
 90
       14
 90
       13
 90
        3
 90
      179
 90
       13
 90
      180
 90
        3
 90
      180
 90
       13
 90
      111
 90
        3
 90
      180
 90
      111
 90
       88
 90
        3
 90
       88
 90
      111
 90
       89
 90
        3
 90
       89
 90
      111
 90
      110
 90
        3
 90
       89
 90
      110
 90
       90
 90
        3
 90
       90
 90
      110
 90
      109
 90
        3
 90
       90
 90
      109
 90
       91
 90
        3
 90
       91
 90
      109
 90
      108
 90
        3
 90
       91
 90
      108
 90
       80
 90
        3
 90
       80
 90
      108
 90
      107
 90
        3
 90
       80
 90
      107
 90
       81
 90
        3
 90
       81
 90
      107
 90
      106
 90
        3
 90
       81
 90
      106
 90
       61
 90
        3
 90
       61
 90
      106
 90
      132
 90
        3
 90
       61
 90
      132
 90
      131
 90
        3
 90
      111
 90
       13
 90
      112
 90
        3
 90
      112
 90
       13
 90
       12
 90
        3
 90
      112
 90
       12
 90
      113
 90
        3
 90
      113
 90
       12
 90
       11
 90
        3
 90
      113
 90
       11
 90
      114
 90
        3
 90
      114
 90
       11
 90
       10
 90
        3
 90
      114
 90
       10
 90
      115
 90
        3
 90
      115
 90
       10
 90
      135
 90
        3
 90
      115
 90
      135
 90
      104
 90
        3
 90
      104
 90
      135
 90
      134
 90
        3
 90
      104
 90
      134
 90
      133
 90
        3
 90
       10
 90
        9
 90
      135
 90
        3
 90
      135
 90
        9
 90
      136
 90
        3
 90
      136
 90
        9
 90
      157
 90
        3
 90
      136
 90
      157
 90
      156
 90
        3
 90
        9
 90
        8
 90
      157
 90
        3
 90
       33
 90
       32
 90
      201
 90
        3
 90
      201
 90
       32
 90
       43
 90
        3
 90
      201
 90
       43
 90
       42
 90
        3
 90
       42
 90
       41
 90
      201
 90
        3
 90
      201
 90
       41
 90
       40
 90
        3
 90
      160
 90
       39
 90
      161
 90
        3
 90
      161
 90
       39
 90
       38
 90
        3
 90
      161
 90
       38
 90
      162
 90
        3
 90
      162
 90
       38
 90
       37
 90
        3
 90
      162
 90
       37
 90
      163
 90
        3
 90
      163
 90
       37
 90
       36
 90
        3
 90
      163
 90
       36
 90
      152
 90
        3
 90
      152
 90
       36
 90
       35
 90
        3
 90
      152
 90
       35
 90
       34
 90
        3
 90
       33
 90
       67
 90
       34
 90
        3
 90
       34
 90
       67
 90
       66
 90
        3
 90
       34
 90
       66
 90
      153
 90
        3
 90
      153
 90
       66
 90
      139
 90
        3
 90
      153
 90
      139
 90
      154
 90
        3
 90
      154
 90
      139
 90
      138
 90
        3
 90
      154
 90
      138
 90
      155
 90
        3
 90
      155
 90
      138
 90
      137
 90
        3
 90
      155
 90
      137
 90
      156
 90
        3
 90
      156
 90
      137
 90
      136
 90
        3
 90
       57
 90
       56
 90
      202
 90
        3
 90
      202
 90
       56
 90
       67
 90
        3
 90
      202
 90
       67
 90
       33
 90
        3
 90
      139
 90
       66
 90
      128
 90
        3
 90
      128
 90
       66
 90
       65
 90
        3
 90
      128
 90
       65
 90
       64
 90
        3
 90
      128
 90
       64
 90
      129
 90
        3
 90
      129
 90
       64
 90
       63
 90
        3
 90
      129
 90
       63
 90
      130
 90
        3
 90
      130
 90
       63
 90
       62
 90
        3
 90
      130
 90
       62
 90
      131
 90
        3
 90
      131
 90
       62
 90
       61
 90
        3
 90
       61
 90
       60
 90
       81
 90
        3
 90
       81
 90
       60
 90
       82
 90
        3
 90
       82
 90
       60
 90
      202
 90
        3
 90
       82
 90
      202
 90
      203
 90
        3
 90
       60
 90
       59
 90
      202
 90
        3
 90
      202
 90
       59
 90
       58
 90
        3
 90
      202
 90
       58
 90
       57
 90
        3
 90
      180
 90
       88
 90
      181
 90
        3
 90
      181
 90
       88
 90
       87
 90
        3
 90
      181
 90
       87
 90
      200
 90
        3
 90
      200
 90
       87
 90
      203
 90
        3
 90
      203
 90
       87
 90
       86
 90
        3
 90
      203
 90
       86
 90
       85
 90
        3
 90
       85
 90
       84
 90
      203
 90
        3
 90
      203
 90
       84
 90
       83
 90
        3
 90
      203
 90
       83
 90
       82
 90
        3
 90
      106
 90
      105
 90
      132
 90
        3
 90
      132
 90
      105
 90
      133
 90
        3
 90
      133
 90
      105
 90
      104
 90
        3
 90
      153
 90
      152
 90
       34
 90
        3
 90
      184
 90
      183
 90
      200
 90
        3
 90
      200
 90
      183
 90
      182
 90
        3
 90
      200
 90
      182
 90
      181
 90
        3
 90
      201
 90
      202
 90
       33
 90
        3
 90
       31
 90
      171
 90
       20
 90
        3
 90
       20
 90
      171
 90
      170
 90
        3
 90
       20
 90
      170
 90
      169
 90
        3
 90
      171
 90
       31
 90
      118
 90
        3
 90
      118
 90
       31
 90
       30
 90
        3
 90
      118
 90
       30
 90
      119
 90
        3
 90
      119
 90
       30
 90
       29
 90
        3
 90
      119
 90
       29
 90
      120
 90
        3
 90
      120
 90
       29
 90
       28
 90
        3
 90
      120
 90
       28
 90
      121
 90
        3
 90
      121
 90
       28
 90
       27
 90
        3
 90
      121
 90
       27
 90
       96
 90
        3
 90
       96
 90
       27
 90
      196
 90
        3
 90
       96
 90
      196
 90
       97
 90
        3
 90
       97
 90
      196
 90
      195
 90
        3
 90
       97
 90
      195
 90
      206
 90
        3
 90
      206
 90
      195
 90
      205
 90
        3
 90
      205
 90
      195
 90
      194
 90
        3
 90
      205
 90
      194
 90
      193
 90
        3
 90
      196
 90
       27
 90
      197
 90
        3
 90
      197
 90
       27
 90
       26
 90
        3
 90
      197
 90
       26
 90
      198
 90
        3
 90
      198
 90
       26
 90
       25
 90
        3
 90
      198
 90
       25
 90
      199
 90
        3
 90
      199
 90
       25
 90
       24
 90
        3
 90
      199
 90
       24
 90
      188
 90
        3
 90
      188
 90
       24
 90
       23
 90
        3
 90
      188
 90
       23
 90
      189
 90
        3
 90
      189
 90
       23
 90
       22
 90
        3
 90
      189
 90
       22
 90
       49
 90
        3
 90
       49
 90
       22
 90
      168
 90
        3
 90
       49
 90
      168
 90
      167
 90
        3
 90
       22
 90
       21
 90
      168
 90
        3
 90
      168
 90
       21
 90
      169
 90
        3
 90
      169
 90
       21
 90
       20
 90
        3
 90
       45
 90
       44
 90
      204
 90
        3
 90
      204
 90
       44
 90
       55
 90
        3
 90
      204
 90
       55
 90
       69
 90
        3
 90
       69
 90
       55
 90
       70
 90
        3
 90
       70
 90
       55
 90
       54
 90
        3
 90
       70
 90
       54
 90
      141
 90
        3
 90
      141
 90
       54
 90
      175
 90
        3
 90
      141
 90
      175
 90
      142
 90
        3
 90
      142
 90
      175
 90
      174
 90
        3
 90
      142
 90
      174
 90
      143
 90
        3
 90
      143
 90
      174
 90
      173
 90
        3
 90
      143
 90
      173
 90
      144
 90
        3
 90
      144
 90
      173
 90
      172
 90
        3
 90
      144
 90
      172
 90
      145
 90
        3
 90
      145
 90
      172
 90
      117
 90
        3
 90
      145
 90
      117
 90
      116
 90
        3
 90
      175
 90
       54
 90
      164
 90
        3
 90
      164
 90
       54
 90
       53
 90
        3
 90
      164
 90
       53
 90
       52
 90
        3
 90
      164
 90
       52
 90
      165
 90
        3
 90
      165
 90
       52
 90
       51
 90
        3
 90
      165
 90
       51
 90
      166
 90
        3
 90
      166
 90
       51
 90
       50
 90
        3
 90
      166
 90
       50
 90
      167
 90
        3
 90
      167
 90
       50
 90
       49
 90
        3
 90
       49
 90
       48
 90
      189
 90
        3
 90
      189
 90
       48
 90
      190
 90
        3
 90
      190
 90
       48
 90
      204
 90
        3
 90
      190
 90
      204
 90
      205
 90
        3
 90
       48
 90
       47
 90
      204
 90
        3
 90
      204
 90
       47
 90
       46
 90
        3
 90
      204
 90
       46
 90
       45
 90
        3
 90
       69
 90
       68
 90
      207
 90
        3
 90
      207
 90
       68
 90
       79
 90
        3
 90
      207
 90
       79
 90
       78
 90
        3
 90
       78
 90
       77
 90
      207
 90
        3
 90
      207
 90
       77
 90
       76
 90
        3
 90
      207
 90
       76
 90
      102
 90
        3
 90
      102
 90
       76
 90
      103
 90
        3
 90
      103
 90
       76
 90
       75
 90
        3
 90
      103
 90
       75
 90
      126
 90
        3
 90
      126
 90
       75
 90
      148
 90
        3
 90
      126
 90
      148
 90
      127
 90
        3
 90
      127
 90
      148
 90
      147
 90
        3
 90
      127
 90
      147
 90
      116
 90
        3
 90
      116
 90
      147
 90
      146
 90
        3
 90
      116
 90
      146
 90
      145
 90
        3
 90
      148
 90
       75
 90
      149
 90
        3
 90
      149
 90
       75
 90
       74
 90
        3
 90
      149
 90
       74
 90
      150
 90
        3
 90
      150
 90
       74
 90
       73
 90
        3
 90
      150
 90
       73
 90
      151
 90
        3
 90
      151
 90
       73
 90
       72
 90
        3
 90
      151
 90
       72
 90
      140
 90
        3
 90
      140
 90
       72
 90
       71
 90
        3
 90
      140
 90
       71
 90
       70
 90
        3
 90
      204
 90
       69
 90
      207
 90
        3
 90
      103
 90
      125
 90
       92
 90
        3
 90
       92
 90
      125
 90
      124
 90
        3
 90
       92
 90
      124
 90
       93
 90
        3
 90
       93
 90
      124
 90
      123
 90
        3
 90
       93
 90
      123
 90
       94
 90
        3
 90
       94
 90
      123
 90
      122
 90
        3
 90
       94
 90
      122
 90
       95
 90
        3
 90
       95
 90
      122
 90
      121
 90
        3
 90
       95
 90
      121
 90
       96
 90
        3
 90
      207
 90
      102
 90
      206
 90
        3
 90
      206
 90
      102
 90
      101
 90
        3
 90
      206
 90
      101
 90
      100
 90
        3
 90
      100
 90
       99
 90
      206
 90
        3
 90
      206
 90
       99
 90
       98
 90
        3
 90
      206
 90
       98
 90
       97
 90
        3
 90
      126
 90
      125
 90
      103
 90
        3
 90
      118
 90
      117
 90
      171
 90
        3
 90
      171
 90
      117
 90
      172
 90
        3
 90
      141
 90
      140
 90
       70
 90
        3
 90
      193
 90
      192
 90
      205
 90
        3
 90
      205
 90
      192
 90
      191
 90
        3
 90
      205
 90
      191
 90
      190
 90
        3
 90
      207
 90
      202
 90
      204
 90
        3
 90
      204
 90
      202
 90
      201
 90
        3
 90
      206
 90
      203
 90
      207
 90
        3
 90
      207
 90
      203
 90
      202
 90
        3
 90
      205
 90
      200
 90
      206
 90
        3
 90
      206
 90
      200
 90
      203
 90
        3
 90
      204
 90
      201
 90
      205
 90
        3
 90
      205
 90
      201
 90
      200
 94
      660
 90
        1
 90
        2
 90
        0
 90
        2
 90
        0
 90
        1
 90
        2
 90
        3
 90
        0
 90
        3
 90
        5
 90
        6
 90
        4
 90
        6
 90
        4
 90
        5
 90
        6
 90
        7
 90
        4
 90
        7
 90
        3
 90
        6
 90
        0
 90
        6
 90
        0
 90
        5
 90
        2
 90
        7
 90
        3
 90
        7
 90
        1
 90
        4
 90
        2
 90
        4
 90
        1
 90
        5
 90
        9
 90
       31
 90
        8
 90
       31
 90
        8
 90
        9
 90
       20
 90
       31
 90
        8
 90
       20
 90
       19
 90
       20
 90
        8
 90
       19
 90
       20
 90
       21
 90
       19
 90
       21
 90
       18
 90
       21
 90
       18
 90
       19
 90
       21
 90
       22
 90
       18
 90
       22
 90
       17
 90
       22
 90
       17
 90
       18
 90
       22
 90
       23
 90
       17
 90
       23
 90
       16
 90
       23
 90
       16
 90
       17
 90
       23
 90
       24
 90
       16
 90
       24
 90
       15
 90
       24
 90
       15
 90
       16
 90
       24
 90
       25
 90
       15
 90
       25
 90
       14
 90
       25
 90
       14
 90
       15
 90
       25
 90
       26
 90
       14
 90
       26
 90
       13
 90
       26
 90
       13
 90
       14
 90
       26
 90
       27
 90
       13
 90
       27
 90
       12
 90
       27
 90
       12
 90
       13
 90
       27
 90
       28
 90
       12
 90
       28
 90
       11
 90
       28
 90
       11
 90
       12
 90
       28
 90
       29
 90
       11
 90
       29
 90
       10
 90
       29
 90
       10
 90
       11
 90
       29
 90
       30
 90
       10
 90
       30
 90
        9
 90
       30
 90
        9
 90
       10
 90
       30
 90
       31
 90
       33
 90
       55
 90
       32
 90
       55
 90
       32
 90
       33
 90
       44
 90
       55
 90
       32
 90
       44
 90
       43
 90
       44
 90
       32
 90
       43
 90
       44
 90
       45
 90
       43
 90
       45
 90
       42
 90
       45
 90
       42
 90
       43
 90
       45
 90
       46
 90
       42
 90
       46
 90
       41
 90
       46
 90
       41
 90
       42
 90
       46
 90
       47
 90
       41
 90
       47
 90
       40
 90
       47
 90
       40
 90
       41
 90
       47
 90
       48
 90
       40
 90
       48
 90
       39
 90
       48
 90
       39
 90
       40
 90
       48
 90
       49
 90
       39
 90
       49
 90
       38
 90
       49
 90
       38
 90
       39
 90
       49
 90
       50
 90
       38
 90
       50
 90
       37
 90
       50
 90
       37
 90
       38
 90
       50
 90
       51
 90
       37
 90
       51
 90
       36
 90
       51
 90
       36
 90
       37
 90
       51
 90
       52
 90
       36
 90
       52
 90
       35
 90
       52
 90
       35
 90
       36
 90
       52
 90
       53
 90
       35
 90
       53
 90
       34
 90
       53
 90
       34
 90
       35
 90
       53
 90
       54
 90
       34
 90
       54
 90
       33
 90
       54
 90
       33
 90
       34
 90
       54
 90
       55
 90
       57
 90
       79
 90
       56
 90
       79
 90
       56
 90
       57
 90
       68
 90
       79
 90
       56
 90
       68
 90
       67
 90
       68
 90
       56
 90
       67
 90
       68
 90
       69
 90
       67
 90
       69
 90
       66
 90
       69
 90
       66
 90
       67
 90
       69
 90
       70
 90
       66
 90
       70
 90
       65
 90
       70
 90
       65
 90
       66
 90
       70
 90
       71
 90
       65
 90
       71
 90
       64
 90
       71
 90
       64
 90
       65
 90
       71
 90
       72
 90
       64
 90
       72
 90
       63
 90
       72
 90
       63
 90
       64
 90
       72
 90
       73
 90
       63
 90
       73
 90
       62
 90
       73
 90
       62
 90
       63
 90
       73
 90
       74
 90
       62
 90
       74
 90
       61
 90
       74
 90
       61
 90
       62
 90
       74
 90
       75
 90
       61
 90
       75
 90
       60
 90
       75
 90
       60
 90
       61
 90
       75
 90
       76
 90
       60
 90
       76
 90
       59
 90
       76
 90
       59
 90
       60
 90
       76
 90
       77
 90
       59
 90
       77
 90
       58
 90
       77
 90
       58
 90
       59
 90
       77
 90
       78
 90
       58
 90
       78
 90
       57
 90
       78
 90
       57
 90
       58
 90
       78
 90
       79
 90
       81
 90
      103
 90
       80
 90
      103
 90
       80
 90
       81
 90
       92
 90
      103
 90
       80
 90
       92
 90
       91
 90
       92
 90
       80
 90
       91
 90
       92
 90
       93
 90
       91
 90
       93
 90
       90
 90
       93
 90
       90
 90
       91
 90
       93
 90
       94
 90
       90
 90
       94
 90
       89
 90
       94
 90
       89
 90
       90
 90
       94
 90
       95
 90
       89
 90
       95
 90
       88
 90
       95
 90
       88
 90
       89
 90
       95
 90
       96
 90
       88
 90
       96
 90
       87
 90
       96
 90
       87
 90
       88
 90
       96
 90
       97
 90
       87
 90
       97
 90
       86
 90
       97
 90
       86
 90
       87
 90
       97
 90
       98
 90
       86
 90
       98
 90
       85
 90
       98
 90
       85
 90
       86
 90
       98
 90
       99
 90
       85
 90
       99
 90
       84
 90
       99
 90
       84
 90
       85
 90
       99
 90
      100
 90
       84
 90
      100
 90
       83
 90
      100
 90
       83
 90
       84
 90
      100
 90
      101
 90
       83
 90
      101
 90
       82
 90
      101
 90
       82
 90
       83
 90
      101
 90
      102
 90
       82
 90
      102
 90
       81
 90
      102
 90
       81
 90
       82
 90
      102
 90
      103
 90
      105
 90
      127
 90
      104
 90
      127
 90
      104
 90
      105
 90
      116
 90
      127
 90
      104
 90
      116
 90
      115
 90
      116
 90
      104
 90
      115
 90
      116
 90
      117
 90
      115
 90
      117
 90
      114
 90
      117
 90
      114
 90
      115
 90
      117
 90
      118
 90
      114
 90
      118
 90
      113
 90
      118
 90
      113
 90
      114
 90
      118
 90
      119
 90
      113
 90
      119
 90
      112
 90
      119
 90
      112
 90
      113
 90
      119
 90
      120
 90
      112
 90
      120
 90
      111
 90
      120
 90
      111
 90
      112
 90
      120
 90
      121
 90
      111
 90
      121
 90
      110
 90
      121
 90
      110
 90
      111
 90
      121
 90
      122
 90
      110
 90
      122
 90
      109
 90
      122
 90
      109
 90
      110
 90
      122
 90
      123
 90
      109
 90
      123
 90
      108
 90
      123
 90
      108
 90
      109
 90
      123
 90
      124
 90
      108
 90
      124
 90
      107
 90
      124
 90
      107
 90
      108
 90
      124
 90
      125
 90
      107
 90
      125
 90
      106
 90
      125
 90
      106
 90
      107
 90
      125
 90
      126
 90
      106
 90
      126
 90
      105
 90
      126
 90
      105
 90
      106
 90
      126
 90
      127
 90
      129
 90
      151
 90
      128
 90
      151
 90
      128
 90
      129
 90
      140
 90
      151
 90
      128
 90
      140
 90
      139
 90
      140
 90
      128
 90
      139
 90
      140
 90
      141
 90
      139
 90
      141
 90
      138
 90
      141
 90
      138
 90
      139
 90
      141
 90
      142
 90
      138
 90
      142
 90
      137
 90
      142
 90
      137
 90
      138
 90
      142
 90
      143
 90
      137
 90
      143
 90
      136
 90
      143
 90
      136
 90
      137
 90
      143
 90
      144
 90
      136
 90
      144
 90
      135
 90
      144
 90
      135
 90
      136
 90
      144
 90
      145
 90
      135
 90
      145
 90
      134
 90
      145
 90
      134
 90
      135
 90
      145
 90
      146
 90
      134
 90
      146
 90
      133
 90
      146
 90
      133
 90
      134
 90
      146
 90
      147
 90
      133
 90
      147
 90
      132
 90
      147
 90
      132
 90
      133
 90
      147
 90
      148
 90
      132
 90
      148
 90
      131
 90
      148
 90
      131
 90
      132
 90
      148
 90
      149
 90
      131
 90
      149
 90
      130
 90
      149
 90
      130
 90
      131
 90
      149
 90
      150
 90
      130
 90
      150
 90
      129
 90
      150
 90
      129
 90
      130
 90
      150
 90
      151
 90
      153
 90
      175
 90
      152
 90
      175
 90
      152
 90
      153
 90
      164
 90
      175
 90
      152
 90
      164
 90
      163
 90
      164
 90
      152
 90
      163
 90
      164
 90
      165
 90
      163
 90
      165
 90
      162
 90
      165
 90
      162
 90
      163
 90
      165
 90
      166
 90
      162
 90
      166
 90
      161
 90
      166
 90
      161
 90
      162
 90
      166
 90
      167
 90
      161
 90
      167
 90
      160
 90
      167
 90
      160
 90
      161
 90
      167
 90
      168
 90
      160
 90
      168
 90
      159
 90
      168
 90
      159
 90
      160
 90
      168
 90
      169
 90
      159
 90
      169
 90
      158
 90
      169
 90
      158
 90
      159
 90
      169
 90
      170
 90
      158
 90
      170
 90
      157
 90
      170
 90
      157
 90
      158
 90
      170
 90
      171
 90
      157
 90
      171
 90
      156
 90
      171
 90
      156
 90
      157
 90
      171
 90
      172
 90
      156
 90
      172
 90
      155
 90
      172
 90
      155
 90
      156
 90
      172
 90
      173
 90
      155
 90
      173
 90
      154
 90
      173
 90
      154
 90
      155
 90
      173
 90
      174
 90
      154
 90
      174
 90
      153
 90
      174
 90
      153
 90
      154
 90
      174
 90
      175
 90
      177
 90
      199
 90
      176
 90
      199
 90
      176
 90
      177
 90
      188
 90
      199
 90
      176
 90
      188
 90
      187
 90
      188
 90
      176
 90
      187
 90
      188
 90
      189
 90
      187
 90
      189
 90
      186
 90
      189
 90
      186
 90
      187
 90
      189
 90
      190
 90
      186
 90
      190
 90
      185
 90
      190
 90
      185
 90
      186
 90
      190
 90
      191
 90
      185
 90
      191
 90
      184
 90
      191
 90
      184
 90
      185
 90
      191
 90
      192
 90
      184
 90
      192
 90
      183
 90
      192
 90
      183
 90
      184
 90
      192
 90
      193
 90
      183
 90
      193
 90
      182
 90
      193
 90
      182
 90
      183
 90
      193
 90
      194
 90
      182
 90
      194
 90
      181
 90
      194
 90
      181
 90
      182
 90
      194
 90
      195
 90
      181
 90
      195
 90
      180
 90
      195
 90
      180
 90
      181
 90
      195
 90
      196
 90
      180
 90
      196
 90
      179
 90
      196
 90
      179
 90
      180
 90
      196
 90
      197
 90
      179
 90
      197
 90
      178
 90
      197
 90
      178
 90
      179
 90
      197
 90
      198
 90
      178
 90
      198
 90
      177
 90
      198
 90
      177
 90
      178
 90
      198
 90
      199
 90
       19
 90
      159
 90
        8
 90
      159
 90
        8
 90
      158
 90
        8
 90
      157
 90
       19
 90
      160
 90
       18
 90
      160
 90
       18
 90
       39
 90
       39
 90
      160
 90
       18
 90
      187
 90
       39
 90
      187
 90
       40
 90
      187
 90
       40
 90
      186
 90
      186
 90
      201
 90
       40
 90
      201
 90
      186
 90
      200
 90
      200
 90
      201
 90
      185
 90
      200
 90
      184
 90
      200
 90
       17
 90
      187
 90
       17
 90
      176
 90
       16
 90
      176
 90
       16
 90
      177
 90
       15
 90
      177
 90
       15
 90
      178
 90
       14
 90
      178
 90
       14
 90
      179
 90
       13
 90
      179
 90
       13
 90
      180
 90
       13
 90
      111
 90
      111
 90
      180
 90
       88
 90
      111
 90
       88
 90
      180
 90
       89
 90
      111
 90
       89
 90
      110
 90
       90
 90
      110
 90
       90
 90
      109
 90
       91
 90
      109
 90
       91
 90
      108
 90
       80
 90
      108
 90
       80
 90
      107
 90
       81
 90
      107
 90
       81
 90
      106
 90
       61
 90
      106
 90
       61
 90
       81
 90
      106
 90
      132
 90
       61
 90
      132
 90
       61
 90
      131
 90
       13
 90
      112
 90
       12
 90
      112
 90
       12
 90
      113
 90
       11
 90
      113
 90
       11
 90
      114
 90
       10
 90
      114
 90
       10
 90
      115
 90
       10
 90
      135
 90
      115
 90
      135
 90
      104
 90
      135
 90
      104
 90
      134
 90
      104
 90
      133
 90
        9
 90
      135
 90
        9
 90
      136
 90
        9
 90
      157
 90
      136
 90
      157
 90
      136
 90
      156
 90
       32
 90
      201
 90
       33
 90
      201
 90
       43
 90
      201
 90
       42
 90
      201
 90
       41
 90
      201
 90
       39
 90
      161
 90
       38
 90
      161
 90
       38
 90
      162
 90
       37
 90
      162
 90
       37
 90
      163
 90
       36
 90
      163
 90
       36
 90
      152
 90
       35
 90
      152
 90
       34
 90
      152
 90
       33
 90
       67
 90
       34
 90
       67
 90
       34
 90
       66
 90
       66
 90
      153
 90
       34
 90
      153
 90
       66
 90
      139
 90
      139
 90
      153
 90
      139
 90
      154
 90
      138
 90
      154
 90
      138
 90
      155
 90
      137
 90
      155
 90
      137
 90
      156
 90
       56
 90
      202
 90
       57
 90
      202
 90
       67
 90
      202
 90
       33
 90
      202
 90
       66
 90
      128
 90
       65
 90
      128
 90
       64
 90
      128
 90
       64
 90
      129
 90
       63
 90
      129
 90
       63
 90
      130
 90
       62
 90
      130
 90
       62
 90
      131
 90
       60
 90
       81
 90
       60
 90
       82
 90
       60
 90
      202
 90
       82
 90
      202
 90
      202
 90
      203
 90
       82
 90
      203
 90
       59
 90
      202
 90
       58
 90
      202
 90
       88
 90
      181
 90
       87
 90
      181
 90
       87
 90
      200
 90
      181
 90
      200
 90
       87
 90
      203
 90
      200
 90
      203
 90
       86
 90
      203
 90
       85
 90
      203
 90
       84
 90
      203
 90
       83
 90
      203
 90
      105
 90
      132
 90
      105
 90
      133
 90
      183
 90
      200
 90
      182
 90
      200
 90
      201
 90
      202
 90
       31
 90
      171
 90
       20
 90
      171
 90
       20
 90
      170
 90
       20
 90
      169
 90
       31
 90
      118
 90
      118
 90
      171
 90
       30
 90
      118
 90
       30
 90
      119
 90
       29
 90
      119
 90
       29
 90
      120
 90
       28
 90
      120
 90
       28
 90
      121
 90
       27
 90
      121
 90
       27
 90
       96
 90
       96
 90
      121
 90
       27
 90
      196
 90
       96
 90
      196
 90
       97
 90
      196
 90
       97
 90
      195
 90
      195
 90
      206
 90
       97
 90
      206
 90
      195
 90
      205
 90
      205
 90
      206
 90
      194
 90
      205
 90
      193
 90
      205
 90
       27
 90
      197
 90
       26
 90
      197
 90
       26
 90
      198
 90
       25
 90
      198
 90
       25
 90
      199
 90
       24
 90
      199
 90
       24
 90
      188
 90
       23
 90
      188
 90
       23
 90
      189
 90
       22
 90
      189
 90
       22
 90
       49
 90
       49
 90
      189
 90
       22
 90
      168
 90
       49
 90
      168
 90
       49
 90
      167
 90
       21
 90
      168
 90
       21
 90
      169
 90
       44
 90
      204
 90
       45
 90
      204
 90
       55
 90
      204
 90
       55
 90
       69
 90
       69
 90
      204
 90
       55
 90
       70
 90
       54
 90
       70
 90
       54
 90
      141
 90
       70
 90
      141
 90
       54
 90
      175
 90
      141
 90
      175
 90
      142
 90
      175
 90
      142
 90
      174
 90
      143
 90
      174
 90
      143
 90
      173
 90
      144
 90
      173
 90
      144
 90
      172
 90
      145
 90
      172
 90
      117
 90
      172
 90
      117
 90
      145
 90
      116
 90
      145
 90
       54
 90
      164
 90
       53
 90
      164
 90
       52
 90
      164
 90
       52
 90
      165
 90
       51
 90
      165
 90
       51
 90
      166
 90
       50
 90
      166
 90
       50
 90
      167
 90
       48
 90
      189
 90
       48
 90
      190
 90
       48
 90
      204
 90
      190
 90
      204
 90
      204
 90
      205
 90
      190
 90
      205
 90
       47
 90
      204
 90
       46
 90
      204
 90
       68
 90
      207
 90
       69
 90
      207
 90
       79
 90
      207
 90
       78
 90
      207
 90
       77
 90
      207
 90
       76
 90
      207
 90
       76
 90
      102
 90
      102
 90
      207
 90
       76
 90
      103
 90
       75
 90
      103
 90
       75
 90
      126
 90
      103
 90
      126
 90
       75
 90
      148
 90
      126
 90
      148
 90
      127
 90
      148
 90
      127
 90
      147
 90
      116
 90
      147
 90
      116
 90
      146
 90
       75
 90
      149
 90
       74
 90
      149
 90
       74
 90
      150
 90
       73
 90
      150
 90
       73
 90
      151
 90
       72
 90
      151
 90
       72
 90
      140
 90
       71
 90
      140
 90
       70
 90
      140
 90
      204
 90
      207
 90
      103
 90
      125
 90
       92
 90
      125
 90
       92
 90
      124
 90
       93
 90
      124
 90
       93
 90
      123
 90
       94
 90
      123
 90
       94
 90
      122
 90
       95
 90
      122
 90
       95
 90
      121
 90
      102
 90
      206
 90
      206
 90
      207
 90
      101
 90
      206
 90
      100
 90
      206
 90
       99
 90
      206
 90
       98
 90
      206
 90
      117
 90
      171
 90
      192
 90
      205
 90
      191
 90
      205
 90
      202
 90
      207
 90
      202
 90
      204
 90
      201
 90
      204
 90
      203
 90
      206
 90
      203
 90
      207
 90
      200
 90
      205
 90
      200
 90
      206
 90
      201
 90
      205
 95
      660
140
0.0
140
0.0
140
0.0
140
0.0
140
0.0
140
0.0
140
0.0
140
0.0
140
0.0
140
0.0
140
0.0
140
0.0
140
0.0
140
0.0
140
0.0
140
0.0
140
0.0
140
0.0
140
0.0
140
0.0
140
0.0
140
0.0
140
0.0
140
0.0
140
0.0
140
0.0
140
0.0
140
0.0
140
0.0
140
0.0
140
0.0
140
0.0
140
0.0
140
0.0
140
0.0
140
0.0
140
0.0
140
0.0
140
0.0
140
0.0
140
0.0
140
0.0
140
0.0
140
0.0
140
0.0
140
0.0
140
0.0
140
0.0
140
0.0
140
0.0
140
0.0
140
0.0
140
0.0
140
0.0
140
0.0
140
0.0
140
0.0
140
0.0
140
0.0
140
0.0
140
0.0
140
0.0
140
0.0
140
0.0
140
0.0
140
0.0
140
0.0
140
0.0
140
0.0
140
0.0
140
0.0
140
0.0
140
0.0
140
0.0
140
0.0
140
0.0
140
0.0
140
0.0
140
0.0
140
0.0
140
0.0
140
0.0
140
0.0
140
0.0
140
0.0
140
0.0
140
0.0
140
0.0
140
0.0
140
0.0
140
0.0
140
0.0
140
0.0
140
0.0
140
0.0
140
0.0
140
0.0
140
0.0
140
0.0
140
0.0
140
0.0
140
0.0
140
0.0
140
0.0
140
0.0
140
0.0
140
0.0
140
0.0
140
0.0
140
0.0
140
0.0
140
0.0
140
0.0
140
0.0
140
0.0
140
0.0
140
0.0
140
0.0
140
0.0
140
0.0
140
0.0
140
0.0
140
0.0
140
0.0
140
0.0
140
0.0
140
0.0
140
0.0
140
0.0
140
0.0
140
0.0
140
0.0
140
0.0
140
0.0
140
0.0
140
0.0
140
0.0
140
0.0
140
0.0
140
0.0
140
0.0
140
0.0
140
0.0
140
0.0
140
0.0
140
0.0
140
0.0
140
0.0
140
0.0
140
0.0
140
0.0
140
0.0
140
0.0
140
0.0
140
0.0
140
0.0
140
0.0
140
0.0
140
0.0
140
0.0
140
0.0
140
0.0
140
0.0
140
0.0
140
0.0
140
0.0
140
0.0
140
0.0
140
0.0
140
0.0
140
0.0
140
0.0
140
0.0
140
0.0
140
0.0
140
0.0
140
0.0
140
0.0
140
0.0
140
0.0
140
0.0
140
0.0
140
0.0
140
0.0
140
0.0
140
0.0
140
0.0
140
0.0
140
0.0
140
0.0
140
0.0
140
0.0
140
0.0
140
0.0
140
0.0
140
0.0
140
0.0
140
0.0
140
0.0
140
0.0
140
0.0
140
0.0
140
0.0
140
0.0
140
0.0
140
0.0
140
0.0
140
0.0
140
0.0
140
0.0
140
0.0
140
0.0
140
0.0
140
0.0
140
0.0
140
0.0
140
0.0
140
0.0
140
0.0
140
0.0
140
0.0
140
0.0
140
0.0
140
0.0
140
0.0
140
0.0
140
0.0
140
0.0
140
0.0
140
0.0
140
0.0
140
0.0
140
0.0
140
0.0
140
0.0
140
0.0
140
0.0
140
0.0
140
0.0
140
0.0
140
0.0
140
0.0
140
0.0
140
0.0
140
0.0
140
0.0
140
0.0
140
0.0
140
0.0
140
0.0
140
0.0
140
0.0
140
0.0
140
0.0
140
0.0
140
0.0
140
0.0
140
0.0
140
0.0
140
0.0
140
0.0
140
0.0
140
0.0
140
0.0
140
0.0
140
0.0
140
0.0
140
0.0
140
0.0
140
0.0
140
0.0
140
0.0
140
0.0
140
0.0
140
0.0
140
0.0
140
0.0
140
0.0
140
0.0
140
0.0
140
0.0
140
0.0
140
0.0
140
0.0
140
0.0
140
0.0
140
0.0
140
0.0
140
0.0
140
0.0
140
0.0
140
0.0
140
0.0
140
0.0
140
0.0
140
0.0
140
0.0
140
0.0
140
0.0
140
0.0
140
0.0
140
0.0
140
0.0
140
0.0
140
0.0
140
0.0
140
0.0
140
0.0
140
0.0
140
0.0
140
0.0
140
0.0
140
0.0
140
0.0
140
0.0
140
0.0
140
0.0
140
0.0
140
0.0
140
0.0
140
0.0
140
0.0
140
0.0
140
0.0
140
0.0
140
0.0
140
0.0
140
0.0
140
0.0
140
0.0
140
0.0
140
0.0
140
0.0
140
0.0
140
0.0
140
0.0
140
0.0
140
0.0
140
0.0
140
0.0
140
0.0
140
0.0
140
0.0
140
0.0
140
0.0
140
0.0
140
0.0
140
0.0
140
0.0
140
0.0
140
0.0
140
0.0
140
0.0
140
0.0
140
0.0
140
0.0
140
0.0
140
0.0
140
0.0
140
0.0
140
0.0
140
0.0
140
0.0
140
0.0
140
0.0
140
0.0
140
0.0
140
0.0
140
0.0
140
0.0
140
0.0
140
0.0
140
0.0
140
0.0
140
0.0
140
0.0
140
0.0
140
0.0
140
0.0
140
0.0
140
0.0
140
0.0
140
0.0
140
0.0
140
0.0
140
0.0
140
0.0
140
0.0
140
0.0
140
0.0
140
0.0
140
0.0
140
0.0
140
0.0
140
0.0
140
0.0
140
0.0
140
0.0
140
0.0
140
0.0
140
0.0
140
0.0
140
0.0
140
0.0
140
0.0
140
0.0
140
0.0
140
0.0
140
0.0
140
0.0
140
0.0
140
0.0
140
0.0
140
0.0
140
0.0
140
0.0
140
0.0
140
0.0
140
0.0
140
0.0
140
0.0
140
0.0
140
0.0
140
0.0
140
0.0
140
0.0
140
0.0
140
0.0
140
0.0
140
0.0
140
0.0
140
0.0
140
0.0
140
0.0
140
0.0
140
0.0
140
0.0
140
0.0
140
0.0
140
0.0
140
0.0
140
0.0
140
0.0
140
0.0
140
0.0
140
0.0
140
0.0
140
0.0
140
0.0
140
0.0
140
0.0
140
0.0
140
0.0
140
0.0
140
0.0
140
0.0
140
0.0
140
0.0
140
0.0
140
0.0
140
0.0
140
0.0
140
0.0
140
0.0
140
0.0
140
0.0
140
0.0
140
0.0
140
0.0
140
0.0
140
0.0
140
0.0
140
0.0
140
0.0
140
0.0
140
0.0
140
0.0
140
0.0
140
0.0
140
0.0
140
0.0
140
0.0
140
0.0
140
0.0
140
0.0
140
0.0
140
0.0
140
0.0
140
0.0
140
0.0
140
0.0
140
0.0
140
0.0
140
0.0
140
0.0
140
0.0
140
0.0
140
0.0
140
0.0
140
0.0
140
0.0
140
0.0
140
0.0
140
0.0
140
0.0
140
0.0
140
0.0
140
0.0
140
0.0
140
0.0
140
0.0
140
0.0
140
0.0
140
0.0
140
0.0
140
0.0
140
0.0
140
0.0
140
0.0
140
0.0
140
0.0
140
0.0
140
0.0
140
0.0
140
0.0
140
0.0
140
0.0
140
0.0
140
0.0
140
0.0
140
0.0
140
0.0
140
0.0
140
0.0
140
0.0
140
0.0
140
0.0
140
0.0
140
0.0
140
0.0
140
0.0
140
0.0
140
0.0
140
0.0
140
0.0
140
0.0
140
0.0
140
0.0
140
0.0
140
0.0
140
0.0
140
0.0
140
0.0
140
0.0
140
0.0
140
0.0
140
0.0
140
0.0
140
0.0
140
0.0
140
0.0
140
0.0
140
0.0
140
0.0
140
0.0
140
0.0
140
0.0
140
0.0
140
0.0
140
0.0
140
0.0
140
0.0
140
0.0
140
0.0
140
0.0
140
0.0
140
0.0
140
0.0
140
0.0
140
0.0
140
0.0
140
0.0
140
0.0
140
0.0
140
0.0
140
0.0
140
0.0
140
0.0
140
0.0
140
0.0
140
0.0
140
0.0
140
0.0
140
0.0
140
0.0
140
0.0
140
0.0
140
0.0
140
0.0
140
0.0
140
0.0
140
0.0
140
0.0
140
0.0
140
0.0
140
0.0
140
0.0
140
0.0
140
0.0
140
0.0
140
0.0
140
0.0
140
0.0
140
0.0
140
0.0
140
0.0
140
0.0
140
0.0
140
0.0
140
0.0
140
0.0
140
0.0
140
0.0
140
0.0
140
0.0
140
0.0
140
0.0
140
0.0
140
0.0
140
0.0
140
0.0
140
0.0
140
0.0
140
0.0
140
0.0
140
0.0
140
0.0
140
0.0
140
0.0
140
0.0
140
0.0
140
0.0
140
0.0
140
0.0
140
0.0
140
0.0
140
0.0
140
0.0
140
0.0
140
0.0
140
0.0
140
0.0
140
0.0
140
0.0
140
0.0
140
0.0
140
0.0
140
0.0
140
0.0
140
0.0
 90
        0
  0
ENDSEC
  0
SECTION
  2
OBJECTS
  0
DICTIONARY
  5
C
330
0
100
AcDbDictionary
281
     1
  3
ACAD_COLOR
350
DC
  3
ACAD_DETAILVIEWSTYLE
350
F5
  3
ACAD_GROUP
350
D
  3
ACAD_LAYOUT
350
1A
  3
ACAD_MATERIAL
350
AA
  3
ACAD_MLEADERSTYLE
350
F1
  3
ACAD_MLINESTYLE
350
17
  3
ACAD_PLOTSETTINGS
350
19
  3
ACAD_PLOTSTYLENAME
350
E
  3
ACAD_SCALELIST
350
DF
  3
ACAD_SECTIONVIEWSTYLE
350
F3
  3
ACAD_TABLESTYLE
350
DD
  3
ACAD_VISUALSTYLE
350
C3
  3
ACDB_RECOMPOSE_DATA
350
18A
  3
AcDbVariableDictionary
350
17E
  0
DICTIONARY
  5
DC
102
{ACAD_REACTORS
330
C
102
}
330
C
100
AcDbDictionary
281
     1
  0
DICTIONARY
  5
F5
102
{ACAD_REACTORS
330
C
102
}
330
C
100
AcDbDictionary
281
     1
  3
Imperial24
350
F6
  0
DICTIONARY
  5
D
102
{ACAD_REACTORS
330
C
102
}
330
C
100
AcDbDictionary
281
     1
  0
DICTIONARY
  5
1A
102
{ACAD_REACTORS
330
C
102
}
330
C
100
AcDbDictionary
281
     1
  3
Layout1
350
1E
  3
Layout2
350
26
  3
Model
350
22
  0
DICTIONARY
  5
AA
102
{ACAD_REACTORS
330
C
102
}
330
C
100
AcDbDictionary
281
     1
  3
ByBlock
350
B3
  3
ByLayer
350
AB
  3
Global
350
BB
  0
DICTIONARY
  5
F1
102
{ACAD_REACTORS
330
C
102
}
330
C
100
AcDbDictionary
281
     1
  3
Standard
350
F2
  0
DICTIONARY
  5
17
102
{ACAD_REACTORS
330
C
102
}
330
C
100
AcDbDictionary
281
     1
  3
Standard
350
18
  0
DICTIONARY
  5
19
102
{ACAD_REACTORS
330
C
102
}
330
C
100
AcDbDictionary
281
     1
  0
ACDBDICTIONARYWDFLT
  5
E
102
{ACAD_REACTORS
330
C
102
}
330
C
100
AcDbDictionary
281
     1
  3
ByLayer
350
2D
  3
Normal
350
F
100
AcDbDictionaryWithDefault
340
F
  0
DICTIONARY
  5
DF
102
{ACAD_REACTORS
330
C
102
}
330
C
100
AcDbDictionary
281
     1
  3
A0
350
E0
  3
A1
350
E1
  3
A2
350
E2
  3
A3
350
E3
  3
A4
350
E4
  3
A5
350
E5
  3
A6
350
E6
  3
A7
350
E7
  3
A8
350
E8
  3
A9
350
E9
  3
B0
350
EA
  3
B1
350
EB
  3
B2
350
EC
  3
B3
350
ED
  3
B4
350
EE
  3
B5
350
EF
  3
B6
350
F0
  0
DICTIONARY
  5
F3
102
{ACAD_REACTORS
330
C
102
}
330
C
100
AcDbDictionary
281
     1
  3
Imperial24
350
F4
  0
DICTIONARY
  5
DD
102
{ACAD_REACTORS
330
C
102
}
330
C
100
AcDbDictionary
281
     1
  3
Standard
350
DE
  0
DICTIONARY
  5
C3
102
{ACAD_REACTORS
330
C
102
}
330
C
100
AcDbDictionary
281
     1
  3
2dWireframe
350
C9
  3
Basic
350
C8
  3
Brighten
350
CF
  3
ColorChange
350
D3
  3
Conceptual
350
CC
  3
Dim
350
CE
  3
EdgeColorOff
350
DB
  3
Facepattern
350
D2
  3
Flat
350
C4
  3
FlatWithEdges
350
C5
  3
Gouraud
350
C6
  3
GouraudWithEdges
350
C7
  3
Hidden
350
CB
  3
JitterOff
350
D9
  3
Linepattern
350
D1
  3
OverhangOff
350
DA
  3
Realistic
350
CD
  3
Shaded
350
D8
  3
Shaded with edges
350
D7
  3
Shades of Gray
350
D4
  3
Sketchy
350
D5
  3
Thicken
350
D0
  3
Wireframe
350
CA
  3
X-Ray
350
D6
  0
XRECORD
  5
18A
102
{ACAD_REACTORS
330
C
102
}
330
C
100
AcDbXrecord
280
     1
 90
        1
330
DE
  0
DICTIONARY
  5
17E
102
{ACAD_REACTORS
330
C
102
}
330
C
100
AcDbDictionary
281
     1
  3
CANNOSCALE
350
184
  3
CMLEADERSTYLE
350
180
  3
CTABLESTYLE
350
17F
  3
CVIEWDETAILSTYLE
350
181
  3
CVIEWSECTIONSTYLE
350
182
  3
LAYEREVAL
350
186
  3
LAYERNOTIFY
350
187
  3
LIGHTINGUNITS
350
185
  3
MSLTSCALE
350
183
  0
ACDBDETAILVIEWSTYLE
  5
F6
102
{ACAD_XDICTIONARY
360
1BF
102
}
102
{ACAD_REACTORS
330
F5
102
}
330
F5
100
AcDbModelDocViewStyle
 70
     0
  3
Imperial24
290
     0
100
AcDbDetailViewStyle
 70
     0
 71
     0
 90
        3
 71
     1
340
11
 62
   256
 40
0.24
340
0
 62
   256
 40
0.24
300

 40
0.36
280
     3
 71
     2
340
16
 90
       25
 62
   256
 71
     3
340
11
 62
   256
 40
0.24
 90
        1
 40
0.75
 90
        1
300
%<\AcVar ViewType \f "%tc1">% %<\AcVar ViewDetailId>%\PSCALE %<\AcVar ViewScale \f "%sn">%
 71
     4
340
16
 90
       25
 62
   256
340
16
 90
       25
 62
   256
280
     0
  0
LAYOUT
  5
1E
102
{ACAD_REACTORS
330
1A
102
}
330
1A
100
AcDbPlotSettings
  1

  2
\\KTXNTBDC\CASF2PN1
  4

  6

 40
0.0
 41
0.0
 42
0.0
 43
0.0
 44
0.0
 45
0.0
 46
0.0
 47
0.0
 48
0.0
 49
0.0
140
0.0
141
0.0
142
1.0
143
1.0
 70
   688
 72
     0
 73
     0
 74
     5
  7

 75
    16
147
1.0
 76
     0
 77
     2
 78
   300
148
0.0
149
0.0
100
AcDbLayout
  1
Layout1
 70
     1
 71
     1
 10
0.0
 20
0.0
 11
12.0
 21
9.0
 12
0.0
 22
0.0
 32
0.0
 14
1.000000000000000E+20
 24
1.000000000000000E+20
 34
1.000000000000000E+20
 15
-1.000000000000000E+20
 25
-1.000000000000000E+20
 35
-1.000000000000000E+20
146
0.0
 13
0.0
 23
0.0
 33
0.0
 16
1.0
 26
0.0
 36
0.0
 17
0.0
 27
1.0
 37
0.0
 76
     0
330
1B
  0
LAYOUT
  5
26
102
{ACAD_REACTORS
330
1A
102
}
330
1A
100
AcDbPlotSettings
  1

  2
\\KTXNTBDC\CASF2PN1
  4

  6

 40
0.0
 41
0.0
 42
0.0
 43
0.0
 44
0.0
 45
0.0
 46
0.0
 47
0.0
 48
0.0
 49
0.0
140
0.0
141
0.0
142
1.0
143
1.0
 70
   688
 72
     0
 73
     0
 74
     5
  7

 75
    16
147
1.0
 76
     0
 77
     2
 78
   300
148
0.0
149
0.0
100
AcDbLayout
  1
Layout2
 70
     1
 71
     2
 10
0.0
 20
0.0
 11
12.0
 21
9.0
 12
0.0
 22
0.0
 32
0.0
 14
0.0
 24
0.0
 34
0.0
 15
0.0
 25
0.0
 35
0.0
146
0.0
 13
0.0
 23
0.0
 33
0.0
 16
1.0
 26
0.0
 36
0.0
 17
0.0
 27
1.0
 37
0.0
 76
     0
330
23
  0
LAYOUT
  5
22
102
{ACAD_REACTORS
330
1A
102
}
330
1A
100
AcDbPlotSettings
  1

  2
\\KTXNTBDC\CASF2PN1
  4

  6

 40
0.0
 41
0.0
 42
0.0
 43
0.0
 44
0.0
 45
0.0
 46
0.0
 47
0.0
 48
0.0
 49
0.0
140
0.0
141
0.0
142
1.0
143
1.0
 70
  1712
 72
     0
 73
     0
 74
     0
  7

 75
     0
147
1.0
 76
     0
 77
     2
 78
   300
148
0.0
149
0.0
100
AcDbLayout
  1
Model
 70
     1
 71
     0
 10
0.0
 20
0.0
 11
12.0
 21
9.0
 12
0.0
 22
0.0
 32
0.0
 14
0.0
 24
0.0
 34
0.0
 15
0.0
 25
0.0
 35
0.0
146
0.0
 13
0.0
 23
0.0
 33
0.0
 16
1.0
 26
0.0
 36
0.0
 17
0.0
 27
1.0
 37
0.0
 76
     0
330
1F
  0
MATERIAL
  5
B3
102
{ACAD_XDICTIONARY
360
B4
102
}
102
{ACAD_REACTORS
330
AA
102
}
330
AA
100
AcDbMaterial
  1
ByBlock
 72
     0
 43
0.0208333333333333
 43
0.0
 43
0.0
 43
0.0
 43
0.0
 43
0.0208333333333333
 43
0.0
 43
0.0
 43
0.0
 43
0.0
 43
1.0
 43
0.0
 43
0.0
 43
0.0
 43
0.0
 43
1.0
 77
     0
 47
0.0208333333333333
 47
0.0
 47
0.0
 47
0.0
 47
0.0
 47
0.0208333333333333
 47
0.0
 47
0.0
 47
0.0
 47
0.0
 47
1.0
 47
0.0
 47
0.0
 47
0.0
 47
0.0
 47
1.0
171
     0
 49
0.0208333333333333
 49
0.0
 49
0.0
 49
0.0
 49
0.0
 49
0.0208333333333333
 49
0.0
 49
0.0
 49
0.0
 49
0.0
 49
1.0
 49
0.0
 49
0.0
 49
0.0
 49
0.0
 49
1.0
175
     0
142
0.0208333333333333
142
0.0
142
0.0
142
0.0
142
0.0
142
0.0208333333333333
142
0.0
142
0.0
142
0.0
142
0.0
142
1.0
142
0.0
142
0.0
142
0.0
142
0.0
142
1.0
179
     0
144
0.0208333333333333
144
0.0
144
0.0
144
0.0
144
0.0
144
0.0208333333333333
144
0.0
144
0.0
144
0.0
144
0.0
144
1.0
144
0.0
144
0.0
144
0.0
144
0.0
144
1.0
147
0.0208333333333333
147
0.0
147
0.0
147
0.0
147
0.0
147
0.0208333333333333
147
0.0
147
0.0
147
0.0
147
0.0
147
1.0
147
0.0
147
0.0
147
0.0
147
0.0
147
1.0
  0
MATERIAL
  5
AB
102
{ACAD_XDICTIONARY
360
AC
102
}
102
{ACAD_REACTORS
330
AA
102
}
330
AA
100
AcDbMaterial
  1
ByLayer
 72
     0
 43
0.0208333333333333
 43
0.0
 43
0.0
 43
0.0
 43
0.0
 43
0.0208333333333333
 43
0.0
 43
0.0
 43
0.0
 43
0.0
 43
1.0
 43
0.0
 43
0.0
 43
0.0
 43
0.0
 43
1.0
 77
     0
 47
0.0208333333333333
 47
0.0
 47
0.0
 47
0.0
 47
0.0
 47
0.0208333333333333
 47
0.0
 47
0.0
 47
0.0
 47
0.0
 47
1.0
 47
0.0
 47
0.0
 47
0.0
 47
0.0
 47
1.0
171
     0
 49
0.0208333333333333
 49
0.0
 49
0.0
 49
0.0
 49
0.0
 49
0.0208333333333333
 49
0.0
 49
0.0
 49
0.0
 49
0.0
 49
1.0
 49
0.0
 49
0.0
 49
0.0
 49
0.0
 49
1.0
175
     0
142
0.0208333333333333
142
0.0
142
0.0
142
0.0
142
0.0
142
0.0208333333333333
142
0.0
142
0.0
142
0.0
142
0.0
142
1.0
142
0.0
142
0.0
142
0.0
142
0.0
142
1.0
179
     0
144
0.0208333333333333
144
0.0
144
0.0
144
0.0
144
0.0
144
0.0208333333333333
144
0.0
144
0.0
144
0.0
144
0.0
144
1.0
144
0.0
144
0.0
144
0.0
144
0.0
144
1.0
147
0.0208333333333333
147
0.0
147
0.0
147
0.0
147
0.0
147
0.0208333333333333
147
0.0
147
0.0
147
0.0
147
0.0
147
1.0
147
0.0
147
0.0
147
0.0
147
0.0
147
1.0
  0
MATERIAL
  5
BB
102
{ACAD_XDICTIONARY
360
BC
102
}
102
{ACAD_REACTORS
330
AA
102
}
330
AA
100
AcDbMaterial
  1
Global
 72
     0
 43
0.0208333333333333
 43
0.0
 43
0.0
 43
0.0
 43
0.0
 43
0.0208333333333333
 43
0.0
 43
0.0
 43
0.0
 43
0.0
 43
1.0
 43
0.0
 43
0.0
 43
0.0
 43
0.0
 43
1.0
 77
     0
 47
0.0208333333333333
 47
0.0
 47
0.0
 47
0.0
 47
0.0
 47
0.0208333333333333
 47
0.0
 47
0.0
 47
0.0
 47
0.0
 47
1.0
 47
0.0
 47
0.0
 47
0.0
 47
0.0
 47
1.0
171
     0
 49
0.0208333333333333
 49
0.0
 49
0.0
 49
0.0
 49
0.0
 49
0.0208333333333333
 49
0.0
 49
0.0
 49
0.0
 49
0.0
 49
1.0
 49
0.0
 49
0.0
 49
0.0
 49
0.0
 49
1.0
175
     0
142
0.0208333333333333
142
0.0
142
0.0
142
0.0
142
0.0
142
0.0208333333333333
142
0.0
142
0.0
142
0.0
142
0.0
142
1.0
142
0.0
142
0.0
142
0.0
142
0.0
142
1.0
179
     0
144
0.0208333333333333
144
0.0
144
0.0
144
0.0
144
0.0
144
0.0208333333333333
144
0.0
144
0.0
144
0.0
144
0.0
144
1.0
144
0.0
144
0.0
144
0.0
144
0.0
144
1.0
147
0.0208333333333333
147
0.0
147
0.0
147
0.0
147
0.0
147
0.0208333333333333
147
0.0
147
0.0
147
0.0
147
0.0
147
1.0
147
0.0
147
0.0
147
0.0
147
0.0
147
1.0
  0
MLEADERSTYLE
  5
F2
102
{ACAD_XDICTIONARY
360
1BB
102
}
102
{ACAD_REACTORS
330
F1
102
}
330
F1
100
AcDbMLeaderStyle
179
     2
170
     2
171
     1
172
     0
 90
        2
 40
0.0
 41
0.0
173
     1
 91
-1056964608
340
14
 92
       -2
290
     1
 42
0.09
291
     1
 43
0.36
  3
Standard
 44
0.18
300

342
11
174
     1
178
     6
175
     1
176
     0
 93
-1056964608
 45
0.18
292
     0
297
     0
 46
0.18
 94
-1056964608
 47
1.0
 49
1.0
140
1.0
293
     1
141
0.0
294
     1
177
     0
142
1.0
295
     0
296
     0
143
0.125
271
     0
272
     9
273
     9
  0
MLINESTYLE
  5
18
102
{ACAD_REACTORS
330
17
102
}
330
17
100
AcDbMlineStyle
  2
STANDARD
 70
     0
  3

 62
   256
 51
90.0
 52
90.0
 71
     2
 49
0.5
 62
   256
  6
BYLAYER
 49
-0.5
 62
   256
  6
BYLAYER
  0
ACDBPLACEHOLDER
  5
2D
102
{ACAD_REACTORS
330
E
102
}
330
E
  0
ACDBPLACEHOLDER
  5
F
102
{ACAD_REACTORS
330
E
102
}
330
E
  0
SCALE
  5
E0
102
{ACAD_REACTORS
330
DF
102
}
330
DF
100
AcDbScale
 70
     0
300
1:1
140
1.0
141
1.0
290
     1
  0
SCALE
  5
E1
102
{ACAD_REACTORS
330
DF
102
}
330
DF
100
AcDbScale
 70
     0
300
1/128" = 1'-0"
140
0.0078125
141
12.0
290
     0
  0
SCALE
  5
E2
102
{ACAD_REACTORS
330
DF
102
}
330
DF
100
AcDbScale
 70
     0
300
1/64" = 1'-0"
140
0.015625
141
12.0
290
     0
  0
SCALE
  5
E3
102
{ACAD_REACTORS
330
DF
102
}
330
DF
100
AcDbScale
 70
     0
300
1/32" = 1'-0"
140
0.03125
141
12.0
290
     0
  0
SCALE
  5
E4
102
{ACAD_REACTORS
330
DF
102
}
330
DF
100
AcDbScale
 70
     0
300
1/16" = 1'-0"
140
0.0625
141
12.0
290
     0
  0
SCALE
  5
E5
102
{ACAD_REACTORS
330
DF
102
}
330
DF
100
AcDbScale
 70
     0
300
3/32" = 1'-0"
140
0.09375
141
12.0
290
     0
  0
SCALE
  5
E6
102
{ACAD_REACTORS
330
DF
102
}
330
DF
100
AcDbScale
 70
     0
300
1/8" = 1'-0"
140
0.125
141
12.0
290
     0
  0
SCALE
  5
E7
102
{ACAD_REACTORS
330
DF
102
}
330
DF
100
AcDbScale
 70
     0
300
3/16" = 1'-0"
140
0.1875
141
12.0
290
     0
  0
SCALE
  5
E8
102
{ACAD_REACTORS
330
DF
102
}
330
DF
100
AcDbScale
 70
     0
300
1/4" = 1'-0"
140
0.25
141
12.0
290
     0
  0
SCALE
  5
E9
102
{ACAD_REACTORS
330
DF
102
}
330
DF
100
AcDbScale
 70
     0
300
3/8" = 1'-0"
140
0.375
141
12.0
290
     0
  0
SCALE
  5
EA
102
{ACAD_REACTORS
330
DF
102
}
330
DF
100
AcDbScale
 70
     0
300
1/2" = 1'-0"
140
0.5
141
12.0
290
     0
  0
SCALE
  5
EB
102
{ACAD_REACTORS
330
DF
102
}
330
DF
100
AcDbScale
 70
     0
300
3/4" = 1'-0"
140
0.75
141
12.0
290
     0
  0
SCALE
  5
EC
102
{ACAD_REACTORS
330
DF
102
}
330
DF
100
AcDbScale
 70
     0
300
1" = 1'-0"
140
1.0
141
12.0
290
     0
  0
SCALE
  5
ED
102
{ACAD_REACTORS
330
DF
102
}
330
DF
100
AcDbScale
 70
     0
300
1-1/2" = 1'-0"
140
1.5
141
12.0
290
     0
  0
SCALE
  5
EE
102
{ACAD_REACTORS
330
DF
102
}
330
DF
100
AcDbScale
 70
     0
300
3" = 1'-0"
140
3.0
141
12.0
290
     0
  0
SCALE
  5
EF
102
{ACAD_REACTORS
330
DF
102
}
330
DF
100
AcDbScale
 70
     0
300
6" = 1'-0"
140
6.0
141
12.0
290
     0
  0
SCALE
  5
F0
102
{ACAD_REACTORS
330
DF
102
}
330
DF
100
AcDbScale
 70
     0
300
1'-0" = 1'-0"
140
12.0
141
12.0
290
     0
  0
ACDBSECTIONVIEWSTYLE
  5
F4
102
{ACAD_XDICTIONARY
360
1BD
102
}
102
{ACAD_REACTORS
330
F3
102
}
330
F3
100
AcDbModelDocViewStyle
 70
     0
  3
Imperial24
290
     0
100
AcDbSectionViewStyle
 70
     0
 71
     0
 90
       78
 71
     1
340
11
 62
   256
 40
0.24
340
0
340
0
 62
   256
 40
0.24
300
I, O, Q, S, X, Z
 40
0.48
 90
        3
 40
0.18
 90
        1
 71
     2
340
16
 90
       25
 62
   256
340
16
 90
       50
 62
   256
 40
0.24
 40
0.0
 40
0.24
 71
     3
340
11
 62
   256
 40
0.24
 90
        1
 40
0.75
 90
        1
300
%<\AcVar ViewType \f "%tc1">% %<\AcVar ViewSectionStartId>%-%<\AcVar ViewSectionEndId>%\PSCALE %<\AcVar ViewScale \f "%sn">%
 71
     4
 62
   256
 62
   257
300
ANSI31
 40
1.0
 90
        0
290
     0
290
     0
 90
        6
 40
0.0
 40
1.570796326794896
 40
0.2617993877991494
 40
1.308996938995747
 40
-0.2617993877991494
 40
1.832595714594046
  0
TABLESTYLE
  5
DE
102
{ACAD_XDICTIONARY
360
188
102
}
102
{ACAD_REACTORS
330
DD
102
}
330
DD
100
AcDbTableStyle
280
     0
  3
Standard
 70
     0
 71
     0
 40
0.06
 41
0.06
280
     0
281
     0
  7
Standard
140
0.18
170
     2
 62
     0
 63
     7
283
     0
 90
      512
 91
        0
  1

274
    -2
284
     1
 64
     0
275
    -2
285
     1
 65
     0
276
    -2
286
     1
 66
     0
277
    -2
287
     1
 67
     0
278
    -2
288
     1
 68
     0
279
    -2
289
     1
 69
     0
  7
Standard
140
0.25
170
     5
 62
     0
 63
     7
283
     0
 90
      512
 91
        0
  1

274
    -2
284
     1
 64
     0
275
    -2
285
     1
 65
     0
276
    -2
286
     1
 66
     0
277
    -2
287
     1
 67
     0
278
    -2
288
     1
 68
     0
279
    -2
289
     1
 69
     0
  7
Standard
140
0.18
170
     5
 62
     0
 63
     7
283
     0
 90
      512
 91
        0
  1

274
    -2
284
     1
 64
     0
275
    -2
285
     1
 65
     0
276
    -2
286
     1
 66
     0
277
    -2
287
     1
 67
     0
278
    -2
288
     1
 68
     0
279
    -2
289
     1
 69
     0
  0
VISUALSTYLE
  5
C9
102
{ACAD_XDICTIONARY
360
195
102
}
102
{ACAD_REACTORS
330
C3
102
}
330
C3
100
AcDbVisualStyle
  2
2dWireframe
 70
     4
177
     2
291
     0
 71
     0
176
     1
 72
     2
176
     1
 73
     0
176
     1
 90
        0
176
     1
 40
0.6
176
     1
 41
30.0
176
     1
 63
     7
421
 16777215
176
     1
 74
     1
176
     1
 91
        4
176
     1
 64
     7
176
     1
 65
   257
176
     1
 75
     1
176
     1
175
     1
176
     1
 42
1.0
176
     1
 92
        0
176
     1
 66
   257
176
     1
 43
1.0
176
     1
 76
     1
176
     1
 77
     6
176
     1
 78
     2
176
     1
 67
     7
176
     1
 79
     5
176
     1
170
     0
176
     1
171
     0
176
     1
290
     0
176
     1
 93
        1
176
     1
 44
0.0
176
     1
173
     0
176
     1
1001
ACAD
1000
AcDbSavedByObjectVersion
1070
     0
  0
VISUALSTYLE
  5
C8
102
{ACAD_XDICTIONARY
360
193
102
}
102
{ACAD_REACTORS
330
C3
102
}
330
C3
100
AcDbVisualStyle
  2
Basic
 70
     7
177
     2
291
     1
 71
     1
176
     1
 72
     0
176
     1
 73
     1
176
     1
 90
        0
176
     1
 40
0.6
176
     1
 41
30.0
176
     1
 63
     7
421
 16777215
176
     1
 74
     0
176
     1
 91
        4
176
     1
 64
     7
176
     1
 65
   257
176
     1
 75
     1
176
     1
175
     1
176
     1
 42
1.0
176
     1
 92
        8
176
     1
 66
     7
176
     1
 43
1.0
176
     1
 76
     1
176
     1
 77
     6
176
     1
 78
     2
176
     1
 67
     7
176
     1
 79
     5
176
     1
170
     0
176
     1
171
     0
176
     1
290
     0
176
     1
 93
        1
176
     1
 44
0.0
176
     1
173
     0
176
     1
1001
ACAD
1000
AcDbSavedByObjectVersion
1070
     0
  0
VISUALSTYLE
  5
CF
102
{ACAD_XDICTIONARY
360
1A1
102
}
102
{ACAD_REACTORS
330
C3
102
}
330
C3
100
AcDbVisualStyle
  2
Brighten
 70
    12
177
     2
291
     1
 71
     2
176
     1
 72
     2
176
     1
 73
     0
176
     1
 90
        0
176
     1
 40
0.6
176
     1
 41
30.0
176
     1
 63
     7
421
 16777215
176
     1
 74
     1
176
     1
 91
        4
176
     1
 64
     7
176
     1
 65
   257
176
     1
 75
     1
176
     1
175
     1
176
     1
 42
1.0
176
     1
 92
        8
176
     1
 66
     7
176
     1
 43
1.0
176
     1
 76
     1
176
     1
 77
     6
176
     1
 78
     2
176
     1
 67
     7
176
     1
 79
     5
176
     1
170
     0
176
     1
171
     0
176
     1
290
     0
176
     1
 93
        1
176
     1
 44
50.0
176
     1
173
     0
176
     1
1001
ACAD
1000
AcDbSavedByObjectVersion
1070
     0
  0
VISUALSTYLE
  5
D3
102
{ACAD_XDICTIONARY
360
1A9
102
}
102
{ACAD_REACTORS
330
C3
102
}
330
C3
100
AcDbVisualStyle
  2
ColorChange
 70
    16
177
     2
291
     1
 71
     2
176
     1
 72
     2
176
     1
 73
     3
176
     1
 90
        0
176
     1
 40
0.6
176
     1
 41
30.0
176
     1
 63
     8
421
  8421504
176
     1
 74
     1
176
     1
 91
        4
176
     1
 64
     7
176
     1
 65
   257
176
     1
 75
     1
176
     1
175
     1
176
     1
 42
1.0
176
     1
 92
        8
176
     1
 66
     8
424
  8421504
176
     1
 43
1.0
176
     1
 76
     1
176
     1
 77
     6
176
     1
 78
     2
176
     1
 67
     7
176
     1
 79
     5
176
     1
170
     0
176
     1
171
     0
176
     1
290
     0
176
     1
 93
        1
176
     1
 44
0.0
176
     1
173
     0
176
     1
1001
ACAD
1000
AcDbSavedByObjectVersion
1070
     0
  0
VISUALSTYLE
  5
CC
102
{ACAD_XDICTIONARY
360
19B
102
}
102
{ACAD_REACTORS
330
C3
102
}
330
C3
100
AcDbVisualStyle
  2
Conceptual
 70
     9
177
     2
291
     0
 71
     3
176
     1
 72
     2
176
     1
 73
     0
176
     1
 90
        0
176
     1
 40
0.6
176
     1
 41
30.0
176
     1
 63
     7
421
 16777215
176
     1
 74
     2
176
     1
 91
        2
176
     1
 64
     7
176
     1
 65
   257
176
     1
 75
     1
176
     1
175
     1
176
     1
 42
179.0
176
     1
 92
        8
176
     1
 66
     7
176
     1
 43
1.0
176
     1
 76
     1
176
     1
 77
     6
176
     1
 78
     2
176
     1
 67
     7
176
     1
 79
     3
176
     1
170
     0
176
     1
171
     0
176
     1
290
     0
176
     1
 93
        1
176
     1
 44
0.0
176
     1
173
     0
176
     1
1001
ACAD
1000
AcDbSavedByObjectVersion
1070
     0
  0
VISUALSTYLE
  5
CE
102
{ACAD_XDICTIONARY
360
19F
102
}
102
{ACAD_REACTORS
330
C3
102
}
330
C3
100
AcDbVisualStyle
  2
Dim
 70
    11
177
     2
291
     1
 71
     2
176
     1
 72
     2
176
     1
 73
     0
176
     1
 90
        0
176
     1
 40
0.6
176
     1
 41
30.0
176
     1
 63
     7
421
 16777215
176
     1
 74
     1
176
     1
 91
        4
176
     1
 64
     7
176
     1
 65
   257
176
     1
 75
     1
176
     1
175
     1
176
     1
 42
1.0
176
     1
 92
        8
176
     1
 66
     7
176
     1
 43
1.0
176
     1
 76
     1
176
     1
 77
     6
176
     1
 78
     2
176
     1
 67
     7
176
     1
 79
     5
176
     1
170
     0
176
     1
171
     0
176
     1
290
     0
176
     1
 93
        1
176
     1
 44
-50.0
176
     1
173
     0
176
     1
1001
ACAD
1000
AcDbSavedByObjectVersion
1070
     0
  0
VISUALSTYLE
  5
DB
102
{ACAD_XDICTIONARY
360
1B9
102
}
102
{ACAD_REACTORS
330
C3
102
}
330
C3
100
AcDbVisualStyle
  2
EdgeColorOff
 70
    22
177
     2
291
     1
 71
     2
176
     0
 72
     2
176
     0
 73
     0
176
     0
 90
        0
176
     0
 40
0.6
176
     0
 41
30.0
176
     0
 63
     7
421
 16777215
176
     0
 74
     1
176
     0
 91
        4
176
     0
 64
     7
176
     0
 65
   257
176
     0
 75
     1
176
     0
175
     1
176
     0
 42
1.0
176
     0
 92
        8
176
     2
 66
     7
176
     0
 43
1.0
176
     0
 76
     1
176
     0
 77
     6
176
     0
 78
     2
176
     0
 67
     7
176
     0
 79
     5
176
     0
170
     0
176
     0
171
     0
176
     0
290
     0
176
     0
 93
        1
176
     0
 44
0.0
176
     0
173
     0
176
     0
1001
ACAD
1000
AcDbSavedByObjectVersion
1070
     0
  0
VISUALSTYLE
  5
D2
102
{ACAD_XDICTIONARY
360
1A7
102
}
102
{ACAD_REACTORS
330
C3
102
}
330
C3
100
AcDbVisualStyle
  2
Facepattern
 70
    15
177
     2
291
     1
 71
     2
176
     1
 72
     2
176
     1
 73
     0
176
     1
 90
        0
176
     1
 40
0.6
176
     1
 41
30.0
176
     1
 63
     7
421
 16777215
176
     1
 74
     1
176
     1
 91
        4
176
     1
 64
     7
176
     1
 65
   257
176
     1
 75
     1
176
     1
175
     1
176
     1
 42
1.0
176
     1
 92
        8
176
     1
 66
     7
176
     1
 43
1.0
176
     1
 76
     1
176
     1
 77
     6
176
     1
 78
     2
176
     1
 67
     7
176
     1
 79
     5
176
     1
170
     0
176
     1
171
     0
176
     1
290
     0
176
     1
 93
        1
176
     1
 44
0.0
176
     1
173
     0
176
     1
1001
ACAD
1000
AcDbSavedByObjectVersion
1070
     0
  0
VISUALSTYLE
  5
C4
102
{ACAD_XDICTIONARY
360
18B
102
}
102
{ACAD_REACTORS
330
C3
102
}
330
C3
100
AcDbVisualStyle
  2
Flat
 70
     0
177
     2
291
     1
 71
     2
176
     1
 72
     1
176
     1
 73
     1
176
     1
 90
        2
176
     1
 40
0.6
176
     1
 41
30.0
176
     1
 63
     7
421
 16777215
176
     1
 74
     0
176
     1
 91
        0
176
     1
 64
     7
176
     1
 65
   257
176
     1
 75
     1
176
     1
175
     1
176
     1
 42
1.0
176
     1
 92
        8
176
     1
 66
     7
176
     1
 43
1.0
176
     1
 76
     1
176
     1
 77
     6
176
     1
 78
     2
176
     1
 67
     7
176
     1
 79
     5
176
     1
170
     0
176
     1
171
     0
176
     1
290
     0
176
     1
 93
       13
176
     1
 44
0.0
176
     1
173
     0
176
     1
1001
ACAD
1000
AcDbSavedByObjectVersion
1070
     0
  0
VISUALSTYLE
  5
C5
102
{ACAD_XDICTIONARY
360
18D
102
}
102
{ACAD_REACTORS
330
C3
102
}
330
C3
100
AcDbVisualStyle
  2
FlatWithEdges
 70
     1
177
     2
291
     1
 71
     2
176
     1
 72
     1
176
     1
 73
     1
176
     1
 90
        2
176
     1
 40
0.6
176
     1
 41
30.0
176
     1
 63
     7
421
 16777215
176
     1
 74
     1
176
     1
 91
        0
176
     1
 64
     7
176
     1
 65
   257
176
     1
 75
     1
176
     1
175
     1
176
     1
 42
1.0
176
     1
 92
        0
176
     1
 66
   257
176
     1
 43
1.0
176
     1
 76
     1
176
     1
 77
     6
176
     1
 78
     2
176
     1
 67
     7
176
     1
 79
     5
176
     1
170
     0
176
     1
171
     0
176
     1
290
     0
176
     1
 93
       13
176
     1
 44
0.0
176
     1
173
     0
176
     1
1001
ACAD
1000
AcDbSavedByObjectVersion
1070
     0
  0
VISUALSTYLE
  5
C6
102
{ACAD_XDICTIONARY
360
18F
102
}
102
{ACAD_REACTORS
330
C3
102
}
330
C3
100
AcDbVisualStyle
  2
Gouraud
 70
     2
177
     2
291
     1
 71
     2
176
     1
 72
     2
176
     1
 73
     1
176
     1
 90
        2
176
     1
 40
0.6
176
     1
 41
30.0
176
     1
 63
     7
421
 16777215
176
     1
 74
     0
176
     1
 91
        0
176
     1
 64
     7
176
     1
 65
   257
176
     1
 75
     1
176
     1
175
     1
176
     1
 42
1.0
176
     1
 92
        0
176
     1
 66
     7
176
     1
 43
1.0
176
     1
 76
     1
176
     1
 77
     6
176
     1
 78
     2
176
     1
 67
     7
176
     1
 79
     5
176
     1
170
     0
176
     1
171
     0
176
     1
290
     0
176
     1
 93
       13
176
     1
 44
0.0
176
     1
173
     0
176
     1
1001
ACAD
1000
AcDbSavedByObjectVersion
1070
     0
  0
VISUALSTYLE
  5
C7
102
{ACAD_XDICTIONARY
360
191
102
}
102
{ACAD_REACTORS
330
C3
102
}
330
C3
100
AcDbVisualStyle
  2
GouraudWithEdges
 70
     3
177
     2
291
     1
 71
     2
176
     1
 72
     2
176
     1
 73
     1
176
     1
 90
        2
176
     1
 40
0.6
176
     1
 41
30.0
176
     1
 63
     7
421
 16777215
176
     1
 74
     1
176
     1
 91
        0
176
     1
 64
     7
176
     1
 65
   257
176
     1
 75
     1
176
     1
175
     1
176
     1
 42
1.0
176
     1
 92
        0
176
     1
 66
   257
176
     1
 43
1.0
176
     1
 76
     1
176
     1
 77
     6
176
     1
 78
     2
176
     1
 67
     7
176
     1
 79
     5
176
     1
170
     0
176
     1
171
     0
176
     1
290
     0
176
     1
 93
       13
176
     1
 44
0.0
176
     1
173
     0
176
     1
1001
ACAD
1000
AcDbSavedByObjectVersion
1070
     0
  0
VISUALSTYLE
  5
CB
102
{ACAD_XDICTIONARY
360
199
102
}
102
{ACAD_REACTORS
330
C3
102
}
330
C3
100
AcDbVisualStyle
  2
Hidden
 70
     6
177
     2
291
     0
 71
     1
176
     1
 72
     2
176
     1
 73
     2
176
     1
 90
        0
176
     1
 40
0.6
176
     1
 41
30.0
176
     1
 63
     7
421
 16777215
176
     1
 74
     2
176
     1
 91
        2
176
     1
 64
     7
176
     1
 65
   257
176
     1
 75
     2
176
     1
175
     1
176
     1
 42
40.0
176
     1
 92
        0
176
     1
 66
   257
176
     1
 43
1.0
176
     1
 76
     1
176
     1
 77
     6
176
     1
 78
     2
176
     1
 67
     7
176
     1
 79
     3
176
     1
170
     0
176
     1
171
     0
176
     1
290
     0
176
     1
 93
        1
176
     1
 44
0.0
176
     1
173
     0
176
     1
1001
ACAD
1000
AcDbSavedByObjectVersion
1070
     0
  0
VISUALSTYLE
  5
D9
102
{ACAD_XDICTIONARY
360
1B5
102
}
102
{ACAD_REACTORS
330
C3
102
}
330
C3
100
AcDbVisualStyle
  2
JitterOff
 70
    20
177
     2
291
     1
 71
     2
176
     0
 72
     2
176
     0
 73
     0
176
     0
 90
        0
176
     0
 40
0.6
176
     0
 41
30.0
176
     0
 63
     7
421
 16777215
176
     0
 74
     1
176
     0
 91
        4
176
     0
 64
     7
176
     0
 65
   257
176
     0
 75
     1
176
     0
175
     1
176
     0
 42
1.0
176
     0
 92
       10
176
     2
 66
     7
176
     0
 43
1.0
176
     0
 76
     1
176
     0
 77
     6
176
     0
 78
     2
176
     0
 67
     7
176
     0
 79
     5
176
     0
170
     0
176
     0
171
     0
176
     0
290
     0
176
     0
 93
        1
176
     0
 44
0.0
176
     0
173
     0
176
     0
1001
ACAD
1000
AcDbSavedByObjectVersion
1070
     0
  0
VISUALSTYLE
  5
D1
102
{ACAD_XDICTIONARY
360
1A5
102
}
102
{ACAD_REACTORS
330
C3
102
}
330
C3
100
AcDbVisualStyle
  2
Linepattern
 70
    14
177
     2
291
     1
 71
     2
176
     1
 72
     2
176
     1
 73
     0
176
     1
 90
        0
176
     1
 40
0.6
176
     1
 41
30.0
176
     1
 63
     7
421
 16777215
176
     1
 74
     1
176
     1
 91
        4
176
     1
 64
     7
176
     1
 65
   257
176
     1
 75
     7
176
     1
175
     7
176
     1
 42
1.0
176
     1
 92
        8
176
     1
 66
     7
176
     1
 43
1.0
176
     1
 76
     1
176
     1
 77
     6
176
     1
 78
     2
176
     1
 67
     7
176
     1
 79
     5
176
     1
170
     0
176
     1
171
     0
176
     1
290
     0
176
     1
 93
        1
176
     1
 44
0.0
176
     1
173
     0
176
     1
1001
ACAD
1000
AcDbSavedByObjectVersion
1070
     0
  0
VISUALSTYLE
  5
DA
102
{ACAD_XDICTIONARY
360
1B7
102
}
102
{ACAD_REACTORS
330
C3
102
}
330
C3
100
AcDbVisualStyle
  2
OverhangOff
 70
    21
177
     2
291
     1
 71
     2
176
     0
 72
     2
176
     0
 73
     0
176
     0
 90
        0
176
     0
 40
0.6
176
     0
 41
30.0
176
     0
 63
     7
421
 16777215
176
     0
 74
     1
176
     0
 91
        4
176
     0
 64
     7
176
     0
 65
   257
176
     0
 75
     1
176
     0
175
     1
176
     0
 42
1.0
176
     0
 92
        9
176
     2
 66
     7
176
     0
 43
1.0
176
     0
 76
     1
176
     0
 77
     6
176
     0
 78
     2
176
     0
 67
     7
176
     0
 79
     5
176
     0
170
     0
176
     0
171
     0
176
     0
290
     0
176
     0
 93
        1
176
     0
 44
0.0
176
     0
173
     0
176
     0
1001
ACAD
1000
AcDbSavedByObjectVersion
1070
     0
  0
VISUALSTYLE
  5
CD
102
{ACAD_XDICTIONARY
360
19D
102
}
102
{ACAD_REACTORS
330
C3
102
}
330
C3
100
AcDbVisualStyle
  2
Realistic
 70
     8
177
     2
291
     0
 71
     2
176
     1
 72
     3
176
     1
 73
     0
176
     1
 90
        2
176
     1
 40
0.6
176
     1
 41
30.0
176
     1
 63
     7
421
 16777215
176
     1
 74
     0
176
     1
 91
        0
176
     1
 64
     7
176
     1
 65
   257
176
     1
 75
     1
176
     1
175
     1
176
     1
 42
1.0
176
     1
 92
        8
176
     1
 66
   257
176
     1
 43
1.0
176
     1
 76
     1
176
     1
 77
     6
176
     1
 78
     2
176
     1
 67
     7
176
     1
 79
     3
176
     1
170
     0
176
     1
171
     0
176
     1
290
     0
176
     1
 93
       13
176
     1
 44
0.0
176
     1
173
     0
176
     1
1001
ACAD
1000
AcDbSavedByObjectVersion
1070
     0
  0
VISUALSTYLE
  5
D8
102
{ACAD_XDICTIONARY
360
1B3
102
}
102
{ACAD_REACTORS
330
C3
102
}
330
C3
100
AcDbVisualStyle
  2
Shaded
 70
    27
177
     2
291
     0
 71
     2
176
     1
 72
     2
176
     1
 73
     1
176
     1
 90
        2
176
     1
 40
0.6
176
     1
 41
30.0
176
     1
 63
     7
421
 16777215
176
     1
 74
     0
176
     1
 91
        4
176
     1
 64
     7
176
     1
 65
   257
176
     1
 75
     1
176
     1
175
     1
176
     1
 42
1.0
176
     1
 92
        8
176
     1
 66
   257
176
     1
 43
1.0
176
     1
 76
     1
176
     1
 77
     6
176
     1
 78
     2
176
     1
 67
     8
425
  7895160
176
     1
 79
     3
176
     1
170
     0
176
     1
171
     0
176
     1
290
     0
176
     1
 93
        5
176
     1
 44
0.0
176
     1
173
     0
176
     1
1001
ACAD
1000
AcDbSavedByObjectVersion
1070
     0
  0
VISUALSTYLE
  5
D7
102
{ACAD_XDICTIONARY
360
1B1
102
}
102
{ACAD_REACTORS
330
C3
102
}
330
C3
100
AcDbVisualStyle
  2
Shaded with edges
 70
    26
177
     2
291
     0
 71
     2
176
     1
 72
     2
176
     1
 73
     1
176
     1
 90
        2
176
     1
 40
0.6
176
     1
 41
30.0
176
     1
 63
     7
421
 16777215
176
     1
 74
     1
176
     1
 91
        2
176
     1
 64
     7
176
     1
 65
   257
176
     1
 75
     2
176
     1
175
     1
176
     1
 42
1.0
176
     1
 92
        8
176
     1
 66
   257
176
     1
 43
1.0
176
     1
 76
     1
176
     1
 77
     6
176
     1
 78
     2
176
     1
 67
     7
176
     1
 79
     3
176
     1
170
     0
176
     1
171
     0
176
     1
290
     0
176
     1
 93
        5
176
     1
 44
0.0
176
     1
173
     0
176
     1
1001
ACAD
1000
AcDbSavedByObjectVersion
1070
     0
  0
VISUALSTYLE
  5
D4
102
{ACAD_XDICTIONARY
360
1AB
102
}
102
{ACAD_REACTORS
330
C3
102
}
330
C3
100
AcDbVisualStyle
  2
Shades of Gray
 70
    23
177
     2
291
     0
 71
     2
176
     1
 72
     2
176
     1
 73
     3
176
     1
 90
        0
176
     1
 40
0.6
176
     1
 41
30.0
176
     1
 63
     7
421
 16777215
176
     1
 74
     2
176
     1
 91
        2
176
     1
 64
     7
176
     1
 65
     7
176
     1
 75
     1
176
     1
175
     1
176
     1
 42
40.0
176
     1
 92
        8
176
     1
 66
     7
176
     1
 43
1.0
176
     1
 76
     1
176
     1
 77
     6
176
     1
 78
     2
176
     1
 67
     7
176
     1
 79
     3
176
     1
170
     0
176
     1
171
     0
176
     1
290
     0
176
     1
 93
        1
176
     1
 44
0.0
176
     1
173
     0
176
     1
1001
ACAD
1000
AcDbSavedByObjectVersion
1070
     0
  0
VISUALSTYLE
  5
D5
102
{ACAD_XDICTIONARY
360
1AD
102
}
102
{ACAD_REACTORS
330
C3
102
}
330
C3
100
AcDbVisualStyle
  2
Sketchy
 70
    24
177
     2
291
     0
 71
     1
176
     1
 72
     2
176
     1
 73
     2
176
     1
 90
        0
176
     1
 40
0.6
176
     1
 41
30.0
176
     1
 63
     7
421
 16777215
176
     1
 74
     2
176
     1
 91
        2
176
     1
 64
     7
176
     1
 65
     7
176
     1
 75
     1
176
     1
175
     1
176
     1
 42
40.0
176
     1
 92
       11
176
     1
 66
     7
176
     1
 43
1.0
176
     1
 76
     1
176
     1
 77
     6
176
     1
 78
     2
176
     1
 67
     7
176
     1
 79
     6
176
     1
170
     0
176
     1
171
     0
176
     1
290
     0
176
     1
 93
        1
176
     1
 44
0.0
176
     1
173
     0
176
     1
1001
ACAD
1000
AcDbSavedByObjectVersion
1070
     0
  0
VISUALSTYLE
  5
D0
102
{ACAD_XDICTIONARY
360
1A3
102
}
102
{ACAD_REACTORS
330
C3
102
}
330
C3
100
AcDbVisualStyle
  2
Thicken
 70
    13
177
     2
291
     1
 71
     2
176
     1
 72
     2
176
     1
 73
     0
176
     1
 90
        0
176
     1
 40
0.6
176
     1
 41
30.0
176
     1
 63
     7
421
 16777215
176
     1
 74
     1
176
     1
 91
        4
176
     1
 64
     7
176
     1
 65
   257
176
     1
 75
     1
176
     1
175
     1
176
     1
 42
1.0
176
     1
 92
       12
176
     1
 66
     7
176
     1
 43
1.0
176
     1
 76
     1
176
     1
 77
     6
176
     1
 78
     2
176
     1
 67
     7
176
     1
 79
     5
176
     1
170
     0
176
     1
171
     0
176
     1
290
     0
176
     1
 93
        1
176
     1
 44
0.0
176
     1
173
     0
176
     1
1001
ACAD
1000
AcDbSavedByObjectVersion
1070
     0
  0
VISUALSTYLE
  5
CA
102
{ACAD_XDICTIONARY
360
197
102
}
102
{ACAD_REACTORS
330
C3
102
}
330
C3
100
AcDbVisualStyle
  2
Wireframe
 70
     5
177
     2
291
     0
 71
     0
176
     1
 72
     2
176
     1
 73
     0
176
     1
 90
        0
176
     1
 40
0.6
176
     1
 41
30.0
176
     1
 63
     7
421
 16777215
176
     1
 74
     1
176
     1
 91
        4
176
     1
 64
     7
176
     1
 65
   257
176
     1
 75
     1
176
     1
175
     1
176
     1
 42
1.0
176
     1
 92
        0
176
     1
 66
   257
176
     1
 43
1.0
176
     1
 76
     1
176
     1
 77
     6
176
     1
 78
     2
176
     1
 67
     7
176
     1
 79
     3
176
     1
170
     0
176
     1
171
     0
176
     1
290
     0
176
     1
 93
        1
176
     1
 44
0.0
176
     1
173
     0
176
     1
1001
ACAD
1000
AcDbSavedByObjectVersion
1070
     0
  0
VISUALSTYLE
  5
D6
102
{ACAD_XDICTIONARY
360
1AF
102
}
102
{ACAD_REACTORS
330
C3
102
}
330
C3
100
AcDbVisualStyle
  2
X-Ray
 70
    25
177
     2
291
     0
 71
     2
176
     1
 72
     2
176
     1
 73
     1
176
     1
 90
        1
176
     1
 40
0.5
176
     1
 41
30.0
176
     1
 63
     7
421
 16777215
176
     1
 74
     1
176
     1
 91
        0
176
     1
 64
     7
176
     1
 65
   257
176
     1
 75
     1
176
     1
175
     1
176
     1
 42
1.0
176
     1
 92
        8
176
     1
 66
     7
176
     1
 43
1.0
176
     1
 76
     1
176
     1
 77
     6
176
     1
 78
     2
176
     1
 67
     7
176
     1
 79
     3
176
     1
170
     0
176
     1
171
     0
176
     1
290
     0
176
     1
 93
       13
176
     1
 44
0.0
176
     1
173
     0
176
     1
1001
ACAD
1000
AcDbSavedByObjectVersion
1070
     0
  0
DICTIONARYVAR
  5
184
102
{ACAD_REACTORS
330
17E
102
}
330
17E
100
DictionaryVariables
280
     0
  1
1:1
  0
DICTIONARYVAR
  5
180
102
{ACAD_REACTORS
330
17E
102
}
330
17E
100
DictionaryVariables
280
     0
  1
STANDARD
  0
DICTIONARYVAR
  5
17F
102
{ACAD_REACTORS
330
17E
102
}
330
17E
100
DictionaryVariables
280
     0
  1
STANDARD
  0
DICTIONARYVAR
  5
181
102
{ACAD_REACTORS
330
17E
102
}
330
17E
100
DictionaryVariables
280
     0
  1
Imperial24
  0
DICTIONARYVAR
  5
182
102
{ACAD_REACTORS
330
17E
102
}
330
17E
100
DictionaryVariables
280
     0
  1
Imperial24
  0
DICTIONARYVAR
  5
186
102
{ACAD_REACTORS
330
17E
102
}
330
17E
100
DictionaryVariables
280
     0
  1
1
  0
DICTIONARYVAR
  5
187
102
{ACAD_REACTORS
330
17E
102
}
330
17E
100
DictionaryVariables
280
     0
  1
15
  0
DICTIONARYVAR
  5
185
102
{ACAD_REACTORS
330
17E
102
}
330
17E
100
DictionaryVariables
280
     0
  1
0
  0
DICTIONARYVAR
  5
183
102
{ACAD_REACTORS
330
17E
102
}
330
17E
100
DictionaryVariables
280
     0
  1
0
  0
DICTIONARY
  5
1BF
330
F6
100
AcDbDictionary
280
     1
281
     1
  3
ACAD_XREC_ROUNDTRIP
360
1C0
  0
DICTIONARY
  5
B4
330
B3
100
AcDbDictionary
280
     1
281
     1
  3
BUMPTILE
360
B6
  3
DIFFUSETILE
360
B5
  3
OPACITYTILE
360
B9
  3
REFLECTIONTILE
360
B8
  3
REFRACTIONTILE
360
BA
  3
SPECULARTILE
360
B7
  0
DICTIONARY
  5
AC
330
AB
100
AcDbDictionary
280
     1
281
     1
  3
BUMPTILE
360
AE
  3
DIFFUSETILE
360
AD
  3
OPACITYTILE
360
B1
  3
REFLECTIONTILE
360
B0
  3
REFRACTIONTILE
360
B2
  3
SPECULARTILE
360
AF
  0
DICTIONARY
  5
BC
330
BB
100
AcDbDictionary
280
     1
281
     1
  3
BUMPTILE
360
BE
  3
DIFFUSETILE
360
BD
  3
OPACITYTILE
360
C1
  3
REFLECTIONTILE
360
C0
  3
REFRACTIONTILE
360
C2
  3
SPECULARTILE
360
BF
  0
DICTIONARY
  5
1BB
330
F2
100
AcDbDictionary
280
     1
281
     1
  3
ACAD_XREC_ROUNDTRIP
360
1BC
  0
DICTIONARY
  5
1BD
330
F4
100
AcDbDictionary
280
     1
281
     1
  3
ACAD_XREC_ROUNDTRIP
360
1BE
  0
DICTIONARY
  5
188
330
DE
100
AcDbDictionary
280
     1
281
     1
  3
ACAD_ROUNDTRIP_2008_TABLESTYLE_CELLSTYLEMAP
360
189
  0
DICTIONARY
  5
195
330
C9
100
AcDbDictionary
280
     1
281
     1
  3
ACAD_XREC_ROUNDTRIP
360
196
  0
DICTIONARY
  5
193
330
C8
100
AcDbDictionary
280
     1
281
     1
  3
ACAD_XREC_ROUNDTRIP
360
194
  0
DICTIONARY
  5
1A1
330
CF
100
AcDbDictionary
280
     1
281
     1
  3
ACAD_XREC_ROUNDTRIP
360
1A2
  0
DICTIONARY
  5
1A9
330
D3
100
AcDbDictionary
280
     1
281
     1
  3
ACAD_XREC_ROUNDTRIP
360
1AA
  0
DICTIONARY
  5
19B
330
CC
100
AcDbDictionary
280
     1
281
     1
  3
ACAD_XREC_ROUNDTRIP
360
19C
  0
DICTIONARY
  5
19F
330
CE
100
AcDbDictionary
280
     1
281
     1
  3
ACAD_XREC_ROUNDTRIP
360
1A0
  0
DICTIONARY
  5
1B9
330
DB
100
AcDbDictionary
280
     1
281
     1
  3
ACAD_XREC_ROUNDTRIP
360
1BA
  0
DICTIONARY
  5
1A7
330
D2
100
AcDbDictionary
280
     1
281
     1
  3
ACAD_XREC_ROUNDTRIP
360
1A8
  0
DICTIONARY
  5
18B
330
C4
100
AcDbDictionary
280
     1
281
     1
  3
ACAD_XREC_ROUNDTRIP
360
18C
  0
DICTIONARY
  5
18D
330
C5
100
AcDbDictionary
280
     1
281
     1
  3
ACAD_XREC_ROUNDTRIP
360
18E
  0
DICTIONARY
  5
18F
330
C6
100
AcDbDictionary
280
     1
281
     1
  3
ACAD_XREC_ROUNDTRIP
360
190
  0
DICTIONARY
  5
191
330
C7
100
AcDbDictionary
280
     1
281
     1
  3
ACAD_XREC_ROUNDTRIP
360
192
  0
DICTIONARY
  5
199
330
CB
100
AcDbDictionary
280
     1
281
     1
  3
ACAD_XREC_ROUNDTRIP
360
19A
  0
DICTIONARY
  5
1B5
330
D9
100
AcDbDictionary
280
     1
281
     1
  3
ACAD_XREC_ROUNDTRIP
360
1B6
  0
DICTIONARY
  5
1A5
330
D1
100
AcDbDictionary
280
     1
281
     1
  3
ACAD_XREC_ROUNDTRIP
360
1A6
  0
DICTIONARY
  5
1B7
330
DA
100
AcDbDictionary
280
     1
281
     1
  3
ACAD_XREC_ROUNDTRIP
360
1B8
  0
DICTIONARY
  5
19D
330
CD
100
AcDbDictionary
280
     1
281
     1
  3
ACAD_XREC_ROUNDTRIP
360
19E
  0
DICTIONARY
  5
1B3
330
D8
100
AcDbDictionary
280
     1
281
     1
  3
ACAD_XREC_ROUNDTRIP
360
1B4
  0
DICTIONARY
  5
1B1
330
D7
100
AcDbDictionary
280
     1
281
     1
  3
ACAD_XREC_ROUNDTRIP
360
1B2
  0
DICTIONARY
  5
1AB
330
D4
100
AcDbDictionary
280
     1
281
     1
  3
ACAD_XREC_ROUNDTRIP
360
1AC
  0
DICTIONARY
  5
1AD
330
D5
100
AcDbDictionary
280
     1
281
     1
  3
ACAD_XREC_ROUNDTRIP
360
1AE
  0
DICTIONARY
  5
1A3
330
D0
100
AcDbDictionary
280
     1
281
     1
  3
ACAD_XREC_ROUNDTRIP
360
1A4
  0
DICTIONARY
  5
197
330
CA
100
AcDbDictionary
280
     1
281
     1
  3
ACAD_XREC_ROUNDTRIP
360
198
  0
DICTIONARY
  5
1AF
330
D6
100
AcDbDictionary
280
     1
281
     1
  3
ACAD_XREC_ROUNDTRIP
360
1B0
  0
XRECORD
  5
1C0
102
{ACAD_REACTORS
330
1BF
102
}
330
1BF
100
AcDbXrecord
280
     1
102
DISPLAYNAME
  1
Imperial24
102
FLAGS
 90
        0
  0
XRECORD
  5
B6
102
{ACAD_REACTORS
330
B4
102
}
330
B4
100
AcDbXrecord
280
     1
270
     1
271
     1
  0
XRECORD
  5
B5
102
{ACAD_REACTORS
330
B4
102
}
330
B4
100
AcDbXrecord
280
     1
270
     1
271
     1
  0
XRECORD
  5
B9
102
{ACAD_REACTORS
330
B4
102
}
330
B4
100
AcDbXrecord
280
     1
270
     1
271
     1
  0
XRECORD
  5
B8
102
{ACAD_REACTORS
330
B4
102
}
330
B4
100
AcDbXrecord
280
     1
270
     1
271
     1
  0
XRECORD
  5
BA
102
{ACAD_REACTORS
330
B4
102
}
330
B4
100
AcDbXrecord
280
     1
270
     1
271
     1
  0
XRECORD
  5
B7
102
{ACAD_REACTORS
330
B4
102
}
330
B4
100
AcDbXrecord
280
     1
270
     1
271
     1
  0
XRECORD
  5
AE
102
{ACAD_REACTORS
330
AC
102
}
330
AC
100
AcDbXrecord
280
     1
270
     1
271
     1
  0
XRECORD
  5
AD
102
{ACAD_REACTORS
330
AC
102
}
330
AC
100
AcDbXrecord
280
     1
270
     1
271
     1
  0
XRECORD
  5
B1
102
{ACAD_REACTORS
330
AC
102
}
330
AC
100
AcDbXrecord
280
     1
270
     1
271
     1
  0
XRECORD
  5
B0
102
{ACAD_REACTORS
330
AC
102
}
330
AC
100
AcDbXrecord
280
     1
270
     1
271
     1
  0
XRECORD
  5
B2
102
{ACAD_REACTORS
330
AC
102
}
330
AC
100
AcDbXrecord
280
     1
270
     1
271
     1
  0
XRECORD
  5
AF
102
{ACAD_REACTORS
330
AC
102
}
330
AC
100
AcDbXrecord
280
     1
270
     1
271
     1
  0
XRECORD
  5
BE
102
{ACAD_REACTORS
330
BC
102
}
330
BC
100
AcDbXrecord
280
     1
270
     1
271
     1
  0
XRECORD
  5
BD
102
{ACAD_REACTORS
330
BC
102
}
330
BC
100
AcDbXrecord
280
     1
270
     1
271
     1
  0
XRECORD
  5
C1
102
{ACAD_REACTORS
330
BC
102
}
330
BC
100
AcDbXrecord
280
     1
270
     1
271
     1
  0
XRECORD
  5
C0
102
{ACAD_REACTORS
330
BC
102
}
330
BC
100
AcDbXrecord
280
     1
270
     1
271
     1
  0
XRECORD
  5
C2
102
{ACAD_REACTORS
330
BC
102
}
330
BC
100
AcDbXrecord
280
     1
270
     1
271
     1
  0
XRECORD
  5
BF
102
{ACAD_REACTORS
330
BC
102
}
330
BC
100
AcDbXrecord
280
     1
270
     1
271
     1
  0
XRECORD
  5
1BC
102
{ACAD_REACTORS
330
1BB
102
}
330
1BB
100
AcDbXrecord
280
     1
102
ACAD_ROUNDTRIP_2012_MLEADER_STYLE
298
     1
  0
XRECORD
  5
1BE
102
{ACAD_REACTORS
330
1BD
102
}
330
1BD
100
AcDbXrecord
280
     1
102
DISPLAYNAME
  1
Imperial24
102
FLAGS
 90
        0
  0
CELLSTYLEMAP
  5
189
102
{ACAD_REACTORS
330
188
102
}
330
188
100
AcDbCellStyleMap
 90
        3
300
CELLSTYLE
  1
TABLEFORMAT_BEGIN
 90
        5
170
     1
 91
        0
 92
    32768
 62
   257
 93
        1
300
CONTENTFORMAT
  1
CONTENTFORMAT_BEGIN
 90
        0
 91
        0
 92
      512
 93
        0
300

 40
0.0
140
1.0
 94
        5
 62
     0
340
11
144
0.25
309
CONTENTFORMAT_END
171
     0
 94
        0
309
TABLEFORMAT_END
  1
CELLSTYLE_BEGIN
 90
        1
 91
        1
300
_TITLE
309
CELLSTYLE_END
300
CELLSTYLE
  1
TABLEFORMAT_BEGIN
 90
        5
170
     1
 91
        0
 92
        0
 62
   257
 93
        1
300
CONTENTFORMAT
  1
CONTENTFORMAT_BEGIN
 90
        0
 91
        0
 92
      512
 93
        0
300

 40
0.0
140
1.0
 94
        5
 62
     0
340
11
144
0.18
309
CONTENTFORMAT_END
171
     0
 94
        0
309
TABLEFORMAT_END
  1
CELLSTYLE_BEGIN
 90
        2
 91
        1
300
_HEADER
309
CELLSTYLE_END
300
CELLSTYLE
  1
TABLEFORMAT_BEGIN
 90
        5
170
     1
 91
        0
 92
        0
 62
   257
 93
        1
300
CONTENTFORMAT
  1
CONTENTFORMAT_BEGIN
 90
        0
 91
        0
 92
      512
 93
        0
300

 40
0.0
140
1.0
 94
        2
 62
     0
340
11
144
0.18
309
CONTENTFORMAT_END
171
     0
 94
        0
309
TABLEFORMAT_END
  1
CELLSTYLE_BEGIN
 90
        3
 91
        2
300
_DATA
309
CELLSTYLE_END
  0
XRECORD
  5
196
102
{ACAD_REACTORS
330
195
102
}
330
195
100
AcDbXrecord
280
     1
102
RTVSPost2010Prop28
280
     1
102
RTVSPost2010PropOp28
 70
     1
102
RTVSPost2010Prop29
280
     1
102
RTVSPost2010PropOp29
 70
     1
102
RTVSPost2010Prop30
280
     0
102
RTVSPost2010PropOp30
 70
     1
102
RTVSPost2010Prop31
280
     0
102
RTVSPost2010PropOp31
 70
     1
102
RTVSPost2010Prop32
280
     0
102
RTVSPost2010PropOp32
 70
     1
102
RTVSPost2010Prop33
280
     0
102
RTVSPost2010PropOp33
 70
     1
102
RTVSPost2010Prop34
280
     0
102
RTVSPost2010PropOp34
 70
     1
102
RTVSPost2010Prop35
280
     0
102
RTVSPost2010PropOp35
 70
     1
102
RTVSPost2010Prop36
280
     0
102
RTVSPost2010PropOp36
 70
     1
102
RTVSPost2010Prop37
 90
       50
102
RTVSPost2010PropOp37
 70
     1
102
RTVSPost2010Prop38
140
0.0
102
RTVSPost2010PropOp38
 70
     1
102
RTVSPost2010Prop39
140
1.0
102
RTVSPost2010PropOp39
 70
     1
102
RTVSPost2010Prop40
 90
        0
102
RTVSPost2010PropOp40
 70
     1
102
RTVSPost2010Prop41ColorIndex
 90
       18
102
RTVSPost2010Prop41ColorRGB
 90
        0
102
RTVSPost2010PropOp41
 70
     1
102
RTVSPost2010Prop42
 90
       50
102
RTVSPost2010PropOp42
 70
     1
102
RTVSPost2010Prop43
 90
        3
102
RTVSPost2010PropOp43
 70
     1
102
RTVSPost2010Prop44ColorIndex
 90
        5
102
RTVSPost2010Prop44ColorRGB
 90
      255
102
RTVSPost2010PropOp44
 70
     1
102
RTVSPost2010Prop45
280
     0
102
RTVSPost2010PropOp45
 70
     1
102
RTVSPost2010Prop46
 90
       50
102
RTVSPost2010PropOp46
 70
     1
102
RTVSPost2010Prop47
 90
       50
102
RTVSPost2010PropOp47
 70
     1
102
RTVSPost2010Prop48
 90
       50
102
RTVSPost2010PropOp48
 70
     1
102
RTVSPost2010Prop49
280
     0
102
RTVSPost2010PropOp49
 70
     1
102
RTVSPost2010Prop50
 90
       50
102
RTVSPost2010PropOp50
 70
     1
102
RTVSPost2010Prop51ColorIndex
 90
      256
102
RTVSPost2010Prop51ColorRGB
 90
-16777216
102
RTVSPost2010PropOp51
 70
     0
102
RTVSPost2010Prop52
140
1.0
102
RTVSPost2010PropOp52
 70
     0
102
RTVSPost2010Prop53
 90
        2
102
RTVSPost2010PropOp53
 70
     1
102
RTVSPost2010Prop54
  1
strokes_ogs.tif
102
RTVSPost2010PropOp54
 70
     1
102
RTVSPost2010Prop55
280
     0
102
RTVSPost2010PropOp55
 70
     1
102
RTVSPost2010Prop56
140
1.0
102
RTVSPost2010PropOp56
 70
     1
102
RTVSPost2010Prop57
140
1.0
102
RTVSPost2010PropOp57
 70
     1
  0
XRECORD
  5
194
102
{ACAD_REACTORS
330
193
102
}
330
193
100
AcDbXrecord
280
     1
102
RTVSPost2010Prop28
280
     0
102
RTVSPost2010PropOp28
 70
     1
102
RTVSPost2010Prop29
280
     1
102
RTVSPost2010PropOp29
 70
     1
102
RTVSPost2010Prop30
280
     1
102
RTVSPost2010PropOp30
 70
     1
102
RTVSPost2010Prop31
280
     0
102
RTVSPost2010PropOp31
 70
     1
102
RTVSPost2010Prop32
280
     0
102
RTVSPost2010PropOp32
 70
     1
102
RTVSPost2010Prop33
280
     0
102
RTVSPost2010PropOp33
 70
     1
102
RTVSPost2010Prop34
280
     0
102
RTVSPost2010PropOp34
 70
     1
102
RTVSPost2010Prop35
280
     0
102
RTVSPost2010PropOp35
 70
     1
102
RTVSPost2010Prop36
280
     0
102
RTVSPost2010PropOp36
 70
     1
102
RTVSPost2010Prop37
 90
       50
102
RTVSPost2010PropOp37
 70
     1
102
RTVSPost2010Prop38
140
0.0
102
RTVSPost2010PropOp38
 70
     1
102
RTVSPost2010Prop39
140
1.0
102
RTVSPost2010PropOp39
 70
     1
102
RTVSPost2010Prop40
 90
        0
102
RTVSPost2010PropOp40
 70
     1
102
RTVSPost2010Prop41ColorIndex
 90
       18
102
RTVSPost2010Prop41ColorRGB
 90
        0
102
RTVSPost2010PropOp41
 70
     1
102
RTVSPost2010Prop42
 90
       50
102
RTVSPost2010PropOp42
 70
     1
102
RTVSPost2010Prop43
 90
        3
102
RTVSPost2010PropOp43
 70
     1
102
RTVSPost2010Prop44ColorIndex
 90
        5
102
RTVSPost2010Prop44ColorRGB
 90
      255
102
RTVSPost2010PropOp44
 70
     1
102
RTVSPost2010Prop45
280
     0
102
RTVSPost2010PropOp45
 70
     1
102
RTVSPost2010Prop46
 90
       50
102
RTVSPost2010PropOp46
 70
     1
102
RTVSPost2010Prop47
 90
       50
102
RTVSPost2010PropOp47
 70
     1
102
RTVSPost2010Prop48
 90
       50
102
RTVSPost2010PropOp48
 70
     1
102
RTVSPost2010Prop49
280
     0
102
RTVSPost2010PropOp49
 70
     1
102
RTVSPost2010Prop50
 90
       50
102
RTVSPost2010PropOp50
 70
     1
102
RTVSPost2010Prop51ColorIndex
 90
      256
102
RTVSPost2010Prop51ColorRGB
 90
-16777216
102
RTVSPost2010PropOp51
 70
     0
102
RTVSPost2010Prop52
140
1.0
102
RTVSPost2010PropOp52
 70
     0
102
RTVSPost2010Prop53
 90
        2
102
RTVSPost2010PropOp53
 70
     1
102
RTVSPost2010Prop54
  1
strokes_ogs.tif
102
RTVSPost2010PropOp54
 70
     1
102
RTVSPost2010Prop55
280
     0
102
RTVSPost2010PropOp55
 70
     1
102
RTVSPost2010Prop56
140
1.0
102
RTVSPost2010PropOp56
 70
     1
102
RTVSPost2010Prop57
140
1.0
102
RTVSPost2010PropOp57
 70
     1
  0
XRECORD
  5
1A2
102
{ACAD_REACTORS
330
1A1
102
}
330
1A1
100
AcDbXrecord
280
     1
102
RTVSPost2010Prop28
280
     0
102
RTVSPost2010PropOp28
 70
     1
102
RTVSPost2010Prop29
280
     1
102
RTVSPost2010PropOp29
 70
     1
102
RTVSPost2010Prop30
280
     1
102
RTVSPost2010PropOp30
 70
     1
102
RTVSPost2010Prop31
280
     0
102
RTVSPost2010PropOp31
 70
     1
102
RTVSPost2010Prop32
280
     0
102
RTVSPost2010PropOp32
 70
     1
102
RTVSPost2010Prop33
280
     0
102
RTVSPost2010PropOp33
 70
     1
102
RTVSPost2010Prop34
280
     0
102
RTVSPost2010PropOp34
 70
     1
102
RTVSPost2010Prop35
280
     0
102
RTVSPost2010PropOp35
 70
     1
102
RTVSPost2010Prop36
280
     0
102
RTVSPost2010PropOp36
 70
     1
102
RTVSPost2010Prop37
 90
       50
102
RTVSPost2010PropOp37
 70
     1
102
RTVSPost2010Prop38
140
0.0
102
RTVSPost2010PropOp38
 70
     1
102
RTVSPost2010Prop39
140
1.0
102
RTVSPost2010PropOp39
 70
     1
102
RTVSPost2010Prop40
 90
        0
102
RTVSPost2010PropOp40
 70
     1
102
RTVSPost2010Prop41ColorIndex
 90
       18
102
RTVSPost2010Prop41ColorRGB
 90
        0
102
RTVSPost2010PropOp41
 70
     1
102
RTVSPost2010Prop42
 90
       50
102
RTVSPost2010PropOp42
 70
     1
102
RTVSPost2010Prop43
 90
        3
102
RTVSPost2010PropOp43
 70
     1
102
RTVSPost2010Prop44ColorIndex
 90
        5
102
RTVSPost2010Prop44ColorRGB
 90
      255
102
RTVSPost2010PropOp44
 70
     1
102
RTVSPost2010Prop45
280
     0
102
RTVSPost2010PropOp45
 70
     1
102
RTVSPost2010Prop46
 90
       50
102
RTVSPost2010PropOp46
 70
     1
102
RTVSPost2010Prop47
 90
       50
102
RTVSPost2010PropOp47
 70
     1
102
RTVSPost2010Prop48
 90
       50
102
RTVSPost2010PropOp48
 70
     1
102
RTVSPost2010Prop49
280
     0
102
RTVSPost2010PropOp49
 70
     1
102
RTVSPost2010Prop50
 90
       50
102
RTVSPost2010PropOp50
 70
     1
102
RTVSPost2010Prop51ColorIndex
 90
      256
102
RTVSPost2010Prop51ColorRGB
 90
-16777216
102
RTVSPost2010PropOp51
 70
     0
102
RTVSPost2010Prop52
140
1.0
102
RTVSPost2010PropOp52
 70
     0
102
RTVSPost2010Prop53
 90
        2
102
RTVSPost2010PropOp53
 70
     1
102
RTVSPost2010Prop54
  1
strokes_ogs.tif
102
RTVSPost2010PropOp54
 70
     1
102
RTVSPost2010Prop55
280
     0
102
RTVSPost2010PropOp55
 70
     1
102
RTVSPost2010Prop56
140
1.0
102
RTVSPost2010PropOp56
 70
     1
102
RTVSPost2010Prop57
140
1.0
102
RTVSPost2010PropOp57
 70
     1
  0
XRECORD
  5
1AA
102
{ACAD_REACTORS
330
1A9
102
}
330
1A9
100
AcDbXrecord
280
     1
102
RTVSPost2010Prop28
280
     0
102
RTVSPost2010PropOp28
 70
     1
102
RTVSPost2010Prop29
280
     1
102
RTVSPost2010PropOp29
 70
     1
102
RTVSPost2010Prop30
280
     1
102
RTVSPost2010PropOp30
 70
     1
102
RTVSPost2010Prop31
280
     0
102
RTVSPost2010PropOp31
 70
     1
102
RTVSPost2010Prop32
280
     0
102
RTVSPost2010PropOp32
 70
     1
102
RTVSPost2010Prop33
280
     0
102
RTVSPost2010PropOp33
 70
     1
102
RTVSPost2010Prop34
280
     0
102
RTVSPost2010PropOp34
 70
     1
102
RTVSPost2010Prop35
280
     0
102
RTVSPost2010PropOp35
 70
     1
102
RTVSPost2010Prop36
280
     0
102
RTVSPost2010PropOp36
 70
     1
102
RTVSPost2010Prop37
 90
       50
102
RTVSPost2010PropOp37
 70
     1
102
RTVSPost2010Prop38
140
0.0
102
RTVSPost2010PropOp38
 70
     1
102
RTVSPost2010Prop39
140
1.0
102
RTVSPost2010PropOp39
 70
     1
102
RTVSPost2010Prop40
 90
        0
102
RTVSPost2010PropOp40
 70
     1
102
RTVSPost2010Prop41ColorIndex
 90
       18
102
RTVSPost2010Prop41ColorRGB
 90
        0
102
RTVSPost2010PropOp41
 70
     1
102
RTVSPost2010Prop42
 90
       50
102
RTVSPost2010PropOp42
 70
     1
102
RTVSPost2010Prop43
 90
        3
102
RTVSPost2010PropOp43
 70
     1
102
RTVSPost2010Prop44ColorIndex
 90
        5
102
RTVSPost2010Prop44ColorRGB
 90
      255
102
RTVSPost2010PropOp44
 70
     1
102
RTVSPost2010Prop45
280
     0
102
RTVSPost2010PropOp45
 70
     1
102
RTVSPost2010Prop46
 90
       50
102
RTVSPost2010PropOp46
 70
     1
102
RTVSPost2010Prop47
 90
       50
102
RTVSPost2010PropOp47
 70
     1
102
RTVSPost2010Prop48
 90
       50
102
RTVSPost2010PropOp48
 70
     1
102
RTVSPost2010Prop49
280
     0
102
RTVSPost2010PropOp49
 70
     1
102
RTVSPost2010Prop50
 90
       50
102
RTVSPost2010PropOp50
 70
     1
102
RTVSPost2010Prop51ColorIndex
 90
      256
102
RTVSPost2010Prop51ColorRGB
 90
-16777216
102
RTVSPost2010PropOp51
 70
     0
102
RTVSPost2010Prop52
140
1.0
102
RTVSPost2010PropOp52
 70
     0
102
RTVSPost2010Prop53
 90
        2
102
RTVSPost2010PropOp53
 70
     1
102
RTVSPost2010Prop54
  1
strokes_ogs.tif
102
RTVSPost2010PropOp54
 70
     1
102
RTVSPost2010Prop55
280
     0
102
RTVSPost2010PropOp55
 70
     1
102
RTVSPost2010Prop56
140
1.0
102
RTVSPost2010PropOp56
 70
     1
102
RTVSPost2010Prop57
140
1.0
102
RTVSPost2010PropOp57
 70
     1
  0
XRECORD
  5
19C
102
{ACAD_REACTORS
330
19B
102
}
330
19B
100
AcDbXrecord
280
     1
102
RTVSPost2010Prop28
280
     0
102
RTVSPost2010PropOp28
 70
     1
102
RTVSPost2010Prop29
280
     1
102
RTVSPost2010PropOp29
 70
     1
102
RTVSPost2010Prop30
280
     1
102
RTVSPost2010PropOp30
 70
     1
102
RTVSPost2010Prop31
280
     0
102
RTVSPost2010PropOp31
 70
     1
102
RTVSPost2010Prop32
280
     0
102
RTVSPost2010PropOp32
 70
     1
102
RTVSPost2010Prop33
280
     0
102
RTVSPost2010PropOp33
 70
     1
102
RTVSPost2010Prop34
280
     0
102
RTVSPost2010PropOp34
 70
     1
102
RTVSPost2010Prop35
280
     0
102
RTVSPost2010PropOp35
 70
     1
102
RTVSPost2010Prop36
280
     0
102
RTVSPost2010PropOp36
 70
     1
102
RTVSPost2010Prop37
 90
       50
102
RTVSPost2010PropOp37
 70
     1
102
RTVSPost2010Prop38
140
0.0
102
RTVSPost2010PropOp38
 70
     1
102
RTVSPost2010Prop39
140
1.0
102
RTVSPost2010PropOp39
 70
     1
102
RTVSPost2010Prop40
 90
        0
102
RTVSPost2010PropOp40
 70
     1
102
RTVSPost2010Prop41ColorIndex
 90
       18
102
RTVSPost2010Prop41ColorRGB
 90
        0
102
RTVSPost2010PropOp41
 70
     1
102
RTVSPost2010Prop42
 90
       50
102
RTVSPost2010PropOp42
 70
     1
102
RTVSPost2010Prop43
 90
        3
102
RTVSPost2010PropOp43
 70
     1
102
RTVSPost2010Prop44ColorIndex
 90
        5
102
RTVSPost2010Prop44ColorRGB
 90
      255
102
RTVSPost2010PropOp44
 70
     1
102
RTVSPost2010Prop45
280
     0
102
RTVSPost2010PropOp45
 70
     1
102
RTVSPost2010Prop46
 90
       50
102
RTVSPost2010PropOp46
 70
     1
102
RTVSPost2010Prop47
 90
       50
102
RTVSPost2010PropOp47
 70
     1
102
RTVSPost2010Prop48
 90
       50
102
RTVSPost2010PropOp48
 70
     1
102
RTVSPost2010Prop49
280
     0
102
RTVSPost2010PropOp49
 70
     1
102
RTVSPost2010Prop50
 90
       50
102
RTVSPost2010PropOp50
 70
     1
102
RTVSPost2010Prop51ColorIndex
 90
      256
102
RTVSPost2010Prop51ColorRGB
 90
-16777216
102
RTVSPost2010PropOp51
 70
     0
102
RTVSPost2010Prop52
140
1.0
102
RTVSPost2010PropOp52
 70
     0
102
RTVSPost2010Prop53
 90
        2
102
RTVSPost2010PropOp53
 70
     1
102
RTVSPost2010Prop54
  1
strokes_ogs.tif
102
RTVSPost2010PropOp54
 70
     1
102
RTVSPost2010Prop55
280
     0
102
RTVSPost2010PropOp55
 70
     1
102
RTVSPost2010Prop56
140
1.0
102
RTVSPost2010PropOp56
 70
     1
102
RTVSPost2010Prop57
140
1.0
102
RTVSPost2010PropOp57
 70
     1
  0
XRECORD
  5
1A0
102
{ACAD_REACTORS
330
19F
102
}
330
19F
100
AcDbXrecord
280
     1
102
RTVSPost2010Prop28
280
     0
102
RTVSPost2010PropOp28
 70
     1
102
RTVSPost2010Prop29
280
     1
102
RTVSPost2010PropOp29
 70
     1
102
RTVSPost2010Prop30
280
     1
102
RTVSPost2010PropOp30
 70
     1
102
RTVSPost2010Prop31
280
     0
102
RTVSPost2010PropOp31
 70
     1
102
RTVSPost2010Prop32
280
     0
102
RTVSPost2010PropOp32
 70
     1
102
RTVSPost2010Prop33
280
     0
102
RTVSPost2010PropOp33
 70
     1
102
RTVSPost2010Prop34
280
     0
102
RTVSPost2010PropOp34
 70
     1
102
RTVSPost2010Prop35
280
     0
102
RTVSPost2010PropOp35
 70
     1
102
RTVSPost2010Prop36
280
     0
102
RTVSPost2010PropOp36
 70
     1
102
RTVSPost2010Prop37
 90
       50
102
RTVSPost2010PropOp37
 70
     1
102
RTVSPost2010Prop38
140
0.0
102
RTVSPost2010PropOp38
 70
     1
102
RTVSPost2010Prop39
140
1.0
102
RTVSPost2010PropOp39
 70
     1
102
RTVSPost2010Prop40
 90
        0
102
RTVSPost2010PropOp40
 70
     1
102
RTVSPost2010Prop41ColorIndex
 90
       18
102
RTVSPost2010Prop41ColorRGB
 90
        0
102
RTVSPost2010PropOp41
 70
     1
102
RTVSPost2010Prop42
 90
       50
102
RTVSPost2010PropOp42
 70
     1
102
RTVSPost2010Prop43
 90
        3
102
RTVSPost2010PropOp43
 70
     1
102
RTVSPost2010Prop44ColorIndex
 90
        5
102
RTVSPost2010Prop44ColorRGB
 90
      255
102
RTVSPost2010PropOp44
 70
     1
102
RTVSPost2010Prop45
280
     0
102
RTVSPost2010PropOp45
 70
     1
102
RTVSPost2010Prop46
 90
       50
102
RTVSPost2010PropOp46
 70
     1
102
RTVSPost2010Prop47
 90
       50
102
RTVSPost2010PropOp47
 70
     1
102
RTVSPost2010Prop48
 90
       50
102
RTVSPost2010PropOp48
 70
     1
102
RTVSPost2010Prop49
280
     0
102
RTVSPost2010PropOp49
 70
     1
102
RTVSPost2010Prop50
 90
       50
102
RTVSPost2010PropOp50
 70
     1
102
RTVSPost2010Prop51ColorIndex
 90
      256
102
RTVSPost2010Prop51ColorRGB
 90
-16777216
102
RTVSPost2010PropOp51
 70
     0
102
RTVSPost2010Prop52
140
1.0
102
RTVSPost2010PropOp52
 70
     0
102
RTVSPost2010Prop53
 90
        2
102
RTVSPost2010PropOp53
 70
     1
102
RTVSPost2010Prop54
  1
strokes_ogs.tif
102
RTVSPost2010PropOp54
 70
     1
102
RTVSPost2010Prop55
280
     0
102
RTVSPost2010PropOp55
 70
     1
102
RTVSPost2010Prop56
140
1.0
102
RTVSPost2010PropOp56
 70
     1
102
RTVSPost2010Prop57
140
1.0
102
RTVSPost2010PropOp57
 70
     1
  0
XRECORD
  5
1BA
102
{ACAD_REACTORS
330
1B9
102
}
330
1B9
100
AcDbXrecord
280
     1
102
RTVSPost2010Prop28
280
     0
102
RTVSPost2010PropOp28
 70
     0
102
RTVSPost2010Prop29
280
     1
102
RTVSPost2010PropOp29
 70
     0
102
RTVSPost2010Prop30
280
     1
102
RTVSPost2010PropOp30
 70
     0
102
RTVSPost2010Prop31
280
     0
102
RTVSPost2010PropOp31
 70
     0
102
RTVSPost2010Prop32
280
     0
102
RTVSPost2010PropOp32
 70
     0
102
RTVSPost2010Prop33
280
     0
102
RTVSPost2010PropOp33
 70
     0
102
RTVSPost2010Prop34
280
     0
102
RTVSPost2010PropOp34
 70
     0
102
RTVSPost2010Prop35
280
     0
102
RTVSPost2010PropOp35
 70
     0
102
RTVSPost2010Prop36
280
     0
102
RTVSPost2010PropOp36
 70
     0
102
RTVSPost2010Prop37
 90
       50
102
RTVSPost2010PropOp37
 70
     0
102
RTVSPost2010Prop38
140
0.0
102
RTVSPost2010PropOp38
 70
     0
102
RTVSPost2010Prop39
140
1.0
102
RTVSPost2010PropOp39
 70
     0
102
RTVSPost2010Prop40
 90
        0
102
RTVSPost2010PropOp40
 70
     0
102
RTVSPost2010Prop41ColorIndex
 90
       18
102
RTVSPost2010Prop41ColorRGB
 90
        0
102
RTVSPost2010PropOp41
 70
     0
102
RTVSPost2010Prop42
 90
       50
102
RTVSPost2010PropOp42
 70
     0
102
RTVSPost2010Prop43
 90
        3
102
RTVSPost2010PropOp43
 70
     0
102
RTVSPost2010Prop44ColorIndex
 90
        5
102
RTVSPost2010Prop44ColorRGB
 90
      255
102
RTVSPost2010PropOp44
 70
     0
102
RTVSPost2010Prop45
280
     0
102
RTVSPost2010PropOp45
 70
     0
102
RTVSPost2010Prop46
 90
       50
102
RTVSPost2010PropOp46
 70
     0
102
RTVSPost2010Prop47
 90
       50
102
RTVSPost2010PropOp47
 70
     0
102
RTVSPost2010Prop48
 90
       50
102
RTVSPost2010PropOp48
 70
     0
102
RTVSPost2010Prop49
280
     0
102
RTVSPost2010PropOp49
 70
     0
102
RTVSPost2010Prop50
 90
       50
102
RTVSPost2010PropOp50
 70
     0
102
RTVSPost2010Prop51ColorIndex
 90
      256
102
RTVSPost2010Prop51ColorRGB
 90
-16777216
102
RTVSPost2010PropOp51
 70
     0
102
RTVSPost2010Prop52
140
1.0
102
RTVSPost2010PropOp52
 70
     0
102
RTVSPost2010Prop53
 90
        2
102
RTVSPost2010PropOp53
 70
     0
102
RTVSPost2010Prop54
  1
strokes_ogs.tif
102
RTVSPost2010PropOp54
 70
     0
102
RTVSPost2010Prop55
280
     0
102
RTVSPost2010PropOp55
 70
     0
102
RTVSPost2010Prop56
140
1.0
102
RTVSPost2010PropOp56
 70
     0
102
RTVSPost2010Prop57
140
1.0
102
RTVSPost2010PropOp57
 70
     0
  0
XRECORD
  5
1A8
102
{ACAD_REACTORS
330
1A7
102
}
330
1A7
100
AcDbXrecord
280
     1
102
RTVSPost2010Prop28
280
     0
102
RTVSPost2010PropOp28
 70
     1
102
RTVSPost2010Prop29
280
     1
102
RTVSPost2010PropOp29
 70
     1
102
RTVSPost2010Prop30
280
     1
102
RTVSPost2010PropOp30
 70
     1
102
RTVSPost2010Prop31
280
     0
102
RTVSPost2010PropOp31
 70
     1
102
RTVSPost2010Prop32
280
     0
102
RTVSPost2010PropOp32
 70
     1
102
RTVSPost2010Prop33
280
     0
102
RTVSPost2010PropOp33
 70
     1
102
RTVSPost2010Prop34
280
     0
102
RTVSPost2010PropOp34
 70
     1
102
RTVSPost2010Prop35
280
     0
102
RTVSPost2010PropOp35
 70
     1
102
RTVSPost2010Prop36
280
     0
102
RTVSPost2010PropOp36
 70
     1
102
RTVSPost2010Prop37
 90
       50
102
RTVSPost2010PropOp37
 70
     1
102
RTVSPost2010Prop38
140
0.0
102
RTVSPost2010PropOp38
 70
     1
102
RTVSPost2010Prop39
140
1.0
102
RTVSPost2010PropOp39
 70
     1
102
RTVSPost2010Prop40
 90
        0
102
RTVSPost2010PropOp40
 70
     1
102
RTVSPost2010Prop41ColorIndex
 90
       18
102
RTVSPost2010Prop41ColorRGB
 90
        0
102
RTVSPost2010PropOp41
 70
     1
102
RTVSPost2010Prop42
 90
       50
102
RTVSPost2010PropOp42
 70
     1
102
RTVSPost2010Prop43
 90
        3
102
RTVSPost2010PropOp43
 70
     1
102
RTVSPost2010Prop44ColorIndex
 90
        5
102
RTVSPost2010Prop44ColorRGB
 90
      255
102
RTVSPost2010PropOp44
 70
     1
102
RTVSPost2010Prop45
280
     0
102
RTVSPost2010PropOp45
 70
     1
102
RTVSPost2010Prop46
 90
       50
102
RTVSPost2010PropOp46
 70
     1
102
RTVSPost2010Prop47
 90
       50
102
RTVSPost2010PropOp47
 70
     1
102
RTVSPost2010Prop48
 90
       50
102
RTVSPost2010PropOp48
 70
     1
102
RTVSPost2010Prop49
280
     0
102
RTVSPost2010PropOp49
 70
     1
102
RTVSPost2010Prop50
 90
       50
102
RTVSPost2010PropOp50
 70
     1
102
RTVSPost2010Prop51ColorIndex
 90
      256
102
RTVSPost2010Prop51ColorRGB
 90
-16777216
102
RTVSPost2010PropOp51
 70
     0
102
RTVSPost2010Prop52
140
1.0
102
RTVSPost2010PropOp52
 70
     0
102
RTVSPost2010Prop53
 90
        2
102
RTVSPost2010PropOp53
 70
     1
102
RTVSPost2010Prop54
  1
strokes_ogs.tif
102
RTVSPost2010PropOp54
 70
     1
102
RTVSPost2010Prop55
280
     0
102
RTVSPost2010PropOp55
 70
     1
102
RTVSPost2010Prop56
140
1.0
102
RTVSPost2010PropOp56
 70
     1
102
RTVSPost2010Prop57
140
1.0
102
RTVSPost2010PropOp57
 70
     1
  0
XRECORD
  5
18C
102
{ACAD_REACTORS
330
18B
102
}
330
18B
100
AcDbXrecord
280
     1
102
RTVSPost2010Prop28
280
     0
102
RTVSPost2010PropOp28
 70
     1
102
RTVSPost2010Prop29
280
     1
102
RTVSPost2010PropOp29
 70
     1
102
RTVSPost2010Prop30
280
     1
102
RTVSPost2010PropOp30
 70
     1
102
RTVSPost2010Prop31
280
     0
102
RTVSPost2010PropOp31
 70
     1
102
RTVSPost2010Prop32
280
     0
102
RTVSPost2010PropOp32
 70
     1
102
RTVSPost2010Prop33
280
     0
102
RTVSPost2010PropOp33
 70
     1
102
RTVSPost2010Prop34
280
     0
102
RTVSPost2010PropOp34
 70
     1
102
RTVSPost2010Prop35
280
     0
102
RTVSPost2010PropOp35
 70
     1
102
RTVSPost2010Prop36
280
     0
102
RTVSPost2010PropOp36
 70
     1
102
RTVSPost2010Prop37
 90
       50
102
RTVSPost2010PropOp37
 70
     1
102
RTVSPost2010Prop38
140
0.0
102
RTVSPost2010PropOp38
 70
     1
102
RTVSPost2010Prop39
140
1.0
102
RTVSPost2010PropOp39
 70
     1
102
RTVSPost2010Prop40
 90
        0
102
RTVSPost2010PropOp40
 70
     1
102
RTVSPost2010Prop41ColorIndex
 90
       18
102
RTVSPost2010Prop41ColorRGB
 90
        0
102
RTVSPost2010PropOp41
 70
     1
102
RTVSPost2010Prop42
 90
       50
102
RTVSPost2010PropOp42
 70
     1
102
RTVSPost2010Prop43
 90
        3
102
RTVSPost2010PropOp43
 70
     1
102
RTVSPost2010Prop44ColorIndex
 90
        5
102
RTVSPost2010Prop44ColorRGB
 90
      255
102
RTVSPost2010PropOp44
 70
     1
102
RTVSPost2010Prop45
280
     0
102
RTVSPost2010PropOp45
 70
     1
102
RTVSPost2010Prop46
 90
       50
102
RTVSPost2010PropOp46
 70
     1
102
RTVSPost2010Prop47
 90
       50
102
RTVSPost2010PropOp47
 70
     1
102
RTVSPost2010Prop48
 90
       50
102
RTVSPost2010PropOp48
 70
     1
102
RTVSPost2010Prop49
280
     0
102
RTVSPost2010PropOp49
 70
     1
102
RTVSPost2010Prop50
 90
       50
102
RTVSPost2010PropOp50
 70
     1
102
RTVSPost2010Prop51ColorIndex
 90
      256
102
RTVSPost2010Prop51ColorRGB
 90
-16777216
102
RTVSPost2010PropOp51
 70
     0
102
RTVSPost2010Prop52
140
1.0
102
RTVSPost2010PropOp52
 70
     0
102
RTVSPost2010Prop53
 90
        2
102
RTVSPost2010PropOp53
 70
     1
102
RTVSPost2010Prop54
  1
strokes_ogs.tif
102
RTVSPost2010PropOp54
 70
     1
102
RTVSPost2010Prop55
280
     0
102
RTVSPost2010PropOp55
 70
     1
102
RTVSPost2010Prop56
140
1.0
102
RTVSPost2010PropOp56
 70
     1
102
RTVSPost2010Prop57
140
1.0
102
RTVSPost2010PropOp57
 70
     1
  0
XRECORD
  5
18E
102
{ACAD_REACTORS
330
18D
102
}
330
18D
100
AcDbXrecord
280
     1
102
RTVSPost2010Prop28
280
     0
102
RTVSPost2010PropOp28
 70
     1
102
RTVSPost2010Prop29
280
     1
102
RTVSPost2010PropOp29
 70
     1
102
RTVSPost2010Prop30
280
     1
102
RTVSPost2010PropOp30
 70
     1
102
RTVSPost2010Prop31
280
     0
102
RTVSPost2010PropOp31
 70
     1
102
RTVSPost2010Prop32
280
     0
102
RTVSPost2010PropOp32
 70
     1
102
RTVSPost2010Prop33
280
     0
102
RTVSPost2010PropOp33
 70
     1
102
RTVSPost2010Prop34
280
     0
102
RTVSPost2010PropOp34
 70
     1
102
RTVSPost2010Prop35
280
     0
102
RTVSPost2010PropOp35
 70
     1
102
RTVSPost2010Prop36
280
     0
102
RTVSPost2010PropOp36
 70
     1
102
RTVSPost2010Prop37
 90
       50
102
RTVSPost2010PropOp37
 70
     1
102
RTVSPost2010Prop38
140
0.0
102
RTVSPost2010PropOp38
 70
     1
102
RTVSPost2010Prop39
140
1.0
102
RTVSPost2010PropOp39
 70
     1
102
RTVSPost2010Prop40
 90
        0
102
RTVSPost2010PropOp40
 70
     1
102
RTVSPost2010Prop41ColorIndex
 90
       18
102
RTVSPost2010Prop41ColorRGB
 90
        0
102
RTVSPost2010PropOp41
 70
     1
102
RTVSPost2010Prop42
 90
       50
102
RTVSPost2010PropOp42
 70
     1
102
RTVSPost2010Prop43
 90
        3
102
RTVSPost2010PropOp43
 70
     1
102
RTVSPost2010Prop44ColorIndex
 90
        5
102
RTVSPost2010Prop44ColorRGB
 90
      255
102
RTVSPost2010PropOp44
 70
     1
102
RTVSPost2010Prop45
280
     0
102
RTVSPost2010PropOp45
 70
     1
102
RTVSPost2010Prop46
 90
       50
102
RTVSPost2010PropOp46
 70
     1
102
RTVSPost2010Prop47
 90
       50
102
RTVSPost2010PropOp47
 70
     1
102
RTVSPost2010Prop48
 90
       50
102
RTVSPost2010PropOp48
 70
     1
102
RTVSPost2010Prop49
280
     0
102
RTVSPost2010PropOp49
 70
     1
102
RTVSPost2010Prop50
 90
       50
102
RTVSPost2010PropOp50
 70
     1
102
RTVSPost2010Prop51ColorIndex
 90
      256
102
RTVSPost2010Prop51ColorRGB
 90
-16777216
102
RTVSPost2010PropOp51
 70
     0
102
RTVSPost2010Prop52
140
1.0
102
RTVSPost2010PropOp52
 70
     0
102
RTVSPost2010Prop53
 90
        2
102
RTVSPost2010PropOp53
 70
     1
102
RTVSPost2010Prop54
  1
strokes_ogs.tif
102
RTVSPost2010PropOp54
 70
     1
102
RTVSPost2010Prop55
280
     0
102
RTVSPost2010PropOp55
 70
     1
102
RTVSPost2010Prop56
140
1.0
102
RTVSPost2010PropOp56
 70
     1
102
RTVSPost2010Prop57
140
1.0
102
RTVSPost2010PropOp57
 70
     1
  0
XRECORD
  5
190
102
{ACAD_REACTORS
330
18F
102
}
330
18F
100
AcDbXrecord
280
     1
102
RTVSPost2010Prop28
280
     0
102
RTVSPost2010PropOp28
 70
     1
102
RTVSPost2010Prop29
280
     1
102
RTVSPost2010PropOp29
 70
     1
102
RTVSPost2010Prop30
280
     1
102
RTVSPost2010PropOp30
 70
     1
102
RTVSPost2010Prop31
280
     0
102
RTVSPost2010PropOp31
 70
     1
102
RTVSPost2010Prop32
280
     0
102
RTVSPost2010PropOp32
 70
     1
102
RTVSPost2010Prop33
280
     0
102
RTVSPost2010PropOp33
 70
     1
102
RTVSPost2010Prop34
280
     0
102
RTVSPost2010PropOp34
 70
     1
102
RTVSPost2010Prop35
280
     0
102
RTVSPost2010PropOp35
 70
     1
102
RTVSPost2010Prop36
280
     0
102
RTVSPost2010PropOp36
 70
     1
102
RTVSPost2010Prop37
 90
       50
102
RTVSPost2010PropOp37
 70
     1
102
RTVSPost2010Prop38
140
0.0
102
RTVSPost2010PropOp38
 70
     1
102
RTVSPost2010Prop39
140
1.0
102
RTVSPost2010PropOp39
 70
     1
102
RTVSPost2010Prop40
 90
        0
102
RTVSPost2010PropOp40
 70
     1
102
RTVSPost2010Prop41ColorIndex
 90
       18
102
RTVSPost2010Prop41ColorRGB
 90
        0
102
RTVSPost2010PropOp41
 70
     1
102
RTVSPost2010Prop42
 90
       50
102
RTVSPost2010PropOp42
 70
     1
102
RTVSPost2010Prop43
 90
        3
102
RTVSPost2010PropOp43
 70
     1
102
RTVSPost2010Prop44ColorIndex
 90
        5
102
RTVSPost2010Prop44ColorRGB
 90
      255
102
RTVSPost2010PropOp44
 70
     1
102
RTVSPost2010Prop45
280
     0
102
RTVSPost2010PropOp45
 70
     1
102
RTVSPost2010Prop46
 90
       50
102
RTVSPost2010PropOp46
 70
     1
102
RTVSPost2010Prop47
 90
       50
102
RTVSPost2010PropOp47
 70
     1
102
RTVSPost2010Prop48
 90
       50
102
RTVSPost2010PropOp48
 70
     1
102
RTVSPost2010Prop49
280
     0
102
RTVSPost2010PropOp49
 70
     1
102
RTVSPost2010Prop50
 90
       50
102
RTVSPost2010PropOp50
 70
     1
102
RTVSPost2010Prop51ColorIndex
 90
      256
102
RTVSPost2010Prop51ColorRGB
 90
-16777216
102
RTVSPost2010PropOp51
 70
     0
102
RTVSPost2010Prop52
140
1.0
102
RTVSPost2010PropOp52
 70
     0
102
RTVSPost2010Prop53
 90
        2
102
RTVSPost2010PropOp53
 70
     1
102
RTVSPost2010Prop54
  1
strokes_ogs.tif
102
RTVSPost2010PropOp54
 70
     1
102
RTVSPost2010Prop55
280
     0
102
RTVSPost2010PropOp55
 70
     1
102
RTVSPost2010Prop56
140
1.0
102
RTVSPost2010PropOp56
 70
     1
102
RTVSPost2010Prop57
140
1.0
102
RTVSPost2010PropOp57
 70
     1
  0
XRECORD
  5
192
102
{ACAD_REACTORS
330
191
102
}
330
191
100
AcDbXrecord
280
     1
102
RTVSPost2010Prop28
280
     0
102
RTVSPost2010PropOp28
 70
     1
102
RTVSPost2010Prop29
280
     1
102
RTVSPost2010PropOp29
 70
     1
102
RTVSPost2010Prop30
280
     1
102
RTVSPost2010PropOp30
 70
     1
102
RTVSPost2010Prop31
280
     0
102
RTVSPost2010PropOp31
 70
     1
102
RTVSPost2010Prop32
280
     0
102
RTVSPost2010PropOp32
 70
     1
102
RTVSPost2010Prop33
280
     0
102
RTVSPost2010PropOp33
 70
     1
102
RTVSPost2010Prop34
280
     0
102
RTVSPost2010PropOp34
 70
     1
102
RTVSPost2010Prop35
280
     0
102
RTVSPost2010PropOp35
 70
     1
102
RTVSPost2010Prop36
280
     0
102
RTVSPost2010PropOp36
 70
     1
102
RTVSPost2010Prop37
 90
       50
102
RTVSPost2010PropOp37
 70
     1
102
RTVSPost2010Prop38
140
0.0
102
RTVSPost2010PropOp38
 70
     1
102
RTVSPost2010Prop39
140
1.0
102
RTVSPost2010PropOp39
 70
     1
102
RTVSPost2010Prop40
 90
        0
102
RTVSPost2010PropOp40
 70
     1
102
RTVSPost2010Prop41ColorIndex
 90
       18
102
RTVSPost2010Prop41ColorRGB
 90
        0
102
RTVSPost2010PropOp41
 70
     1
102
RTVSPost2010Prop42
 90
       50
102
RTVSPost2010PropOp42
 70
     1
102
RTVSPost2010Prop43
 90
        3
102
RTVSPost2010PropOp43
 70
     1
102
RTVSPost2010Prop44ColorIndex
 90
        5
102
RTVSPost2010Prop44ColorRGB
 90
      255
102
RTVSPost2010PropOp44
 70
     1
102
RTVSPost2010Prop45
280
     0
102
RTVSPost2010PropOp45
 70
     1
102
RTVSPost2010Prop46
 90
       50
102
RTVSPost2010PropOp46
 70
     1
102
RTVSPost2010Prop47
 90
       50
102
RTVSPost2010PropOp47
 70
     1
102
RTVSPost2010Prop48
 90
       50
102
RTVSPost2010PropOp48
 70
     1
102
RTVSPost2010Prop49
280
     0
102
RTVSPost2010PropOp49
 70
     1
102
RTVSPost2010Prop50
 90
       50
102
RTVSPost2010PropOp50
 70
     1
102
RTVSPost2010Prop51ColorIndex
 90
      256
102
RTVSPost2010Prop51ColorRGB
 90
-16777216
102
RTVSPost2010PropOp51
 70
     0
102
RTVSPost2010Prop52
140
1.0
102
RTVSPost2010PropOp52
 70
     0
102
RTVSPost2010Prop53
 90
        2
102
RTVSPost2010PropOp53
 70
     1
102
RTVSPost2010Prop54
  1
strokes_ogs.tif
102
RTVSPost2010PropOp54
 70
     1
102
RTVSPost2010Prop55
280
     0
102
RTVSPost2010PropOp55
 70
     1
102
RTVSPost2010Prop56
140
1.0
102
RTVSPost2010PropOp56
 70
     1
102
RTVSPost2010Prop57
140
1.0
102
RTVSPost2010PropOp57
 70
     1
  0
XRECORD
  5
19A
102
{ACAD_REACTORS
330
199
102
}
330
199
100
AcDbXrecord
280
     1
102
RTVSPost2010Prop28
280
     0
102
RTVSPost2010PropOp28
 70
     1
102
RTVSPost2010Prop29
280
     1
102
RTVSPost2010PropOp29
 70
     1
102
RTVSPost2010Prop30
280
     1
102
RTVSPost2010PropOp30
 70
     1
102
RTVSPost2010Prop31
280
     0
102
RTVSPost2010PropOp31
 70
     1
102
RTVSPost2010Prop32
280
     0
102
RTVSPost2010PropOp32
 70
     1
102
RTVSPost2010Prop33
280
     0
102
RTVSPost2010PropOp33
 70
     1
102
RTVSPost2010Prop34
280
     0
102
RTVSPost2010PropOp34
 70
     1
102
RTVSPost2010Prop35
280
     0
102
RTVSPost2010PropOp35
 70
     1
102
RTVSPost2010Prop36
280
     0
102
RTVSPost2010PropOp36
 70
     1
102
RTVSPost2010Prop37
 90
       50
102
RTVSPost2010PropOp37
 70
     1
102
RTVSPost2010Prop38
140
0.0
102
RTVSPost2010PropOp38
 70
     1
102
RTVSPost2010Prop39
140
1.0
102
RTVSPost2010PropOp39
 70
     1
102
RTVSPost2010Prop40
 90
        0
102
RTVSPost2010PropOp40
 70
     1
102
RTVSPost2010Prop41ColorIndex
 90
       18
102
RTVSPost2010Prop41ColorRGB
 90
        0
102
RTVSPost2010PropOp41
 70
     1
102
RTVSPost2010Prop42
 90
       50
102
RTVSPost2010PropOp42
 70
     1
102
RTVSPost2010Prop43
 90
        3
102
RTVSPost2010PropOp43
 70
     1
102
RTVSPost2010Prop44ColorIndex
 90
        5
102
RTVSPost2010Prop44ColorRGB
 90
      255
102
RTVSPost2010PropOp44
 70
     1
102
RTVSPost2010Prop45
280
     0
102
RTVSPost2010PropOp45
 70
     1
102
RTVSPost2010Prop46
 90
       50
102
RTVSPost2010PropOp46
 70
     1
102
RTVSPost2010Prop47
 90
       50
102
RTVSPost2010PropOp47
 70
     1
102
RTVSPost2010Prop48
 90
       50
102
RTVSPost2010PropOp48
 70
     1
102
RTVSPost2010Prop49
280
     0
102
RTVSPost2010PropOp49
 70
     1
102
RTVSPost2010Prop50
 90
       50
102
RTVSPost2010PropOp50
 70
     1
102
RTVSPost2010Prop51ColorIndex
 90
      256
102
RTVSPost2010Prop51ColorRGB
 90
-16777216
102
RTVSPost2010PropOp51
 70
     0
102
RTVSPost2010Prop52
140
1.0
102
RTVSPost2010PropOp52
 70
     0
102
RTVSPost2010Prop53
 90
        2
102
RTVSPost2010PropOp53
 70
     1
102
RTVSPost2010Prop54
  1
strokes_ogs.tif
102
RTVSPost2010PropOp54
 70
     1
102
RTVSPost2010Prop55
280
     0
102
RTVSPost2010PropOp55
 70
     1
102
RTVSPost2010Prop56
140
1.0
102
RTVSPost2010PropOp56
 70
     1
102
RTVSPost2010Prop57
140
1.0
102
RTVSPost2010PropOp57
 70
     1
  0
XRECORD
  5
1B6
102
{ACAD_REACTORS
330
1B5
102
}
330
1B5
100
AcDbXrecord
280
     1
102
RTVSPost2010Prop28
280
     0
102
RTVSPost2010PropOp28
 70
     0
102
RTVSPost2010Prop29
280
     1
102
RTVSPost2010PropOp29
 70
     0
102
RTVSPost2010Prop30
280
     1
102
RTVSPost2010PropOp30
 70
     0
102
RTVSPost2010Prop31
280
     0
102
RTVSPost2010PropOp31
 70
     0
102
RTVSPost2010Prop32
280
     0
102
RTVSPost2010PropOp32
 70
     0
102
RTVSPost2010Prop33
280
     0
102
RTVSPost2010PropOp33
 70
     0
102
RTVSPost2010Prop34
280
     0
102
RTVSPost2010PropOp34
 70
     0
102
RTVSPost2010Prop35
280
     0
102
RTVSPost2010PropOp35
 70
     0
102
RTVSPost2010Prop36
280
     0
102
RTVSPost2010PropOp36
 70
     0
102
RTVSPost2010Prop37
 90
       50
102
RTVSPost2010PropOp37
 70
     0
102
RTVSPost2010Prop38
140
0.0
102
RTVSPost2010PropOp38
 70
     0
102
RTVSPost2010Prop39
140
1.0
102
RTVSPost2010PropOp39
 70
     0
102
RTVSPost2010Prop40
 90
        0
102
RTVSPost2010PropOp40
 70
     0
102
RTVSPost2010Prop41ColorIndex
 90
       18
102
RTVSPost2010Prop41ColorRGB
 90
        0
102
RTVSPost2010PropOp41
 70
     0
102
RTVSPost2010Prop42
 90
       50
102
RTVSPost2010PropOp42
 70
     0
102
RTVSPost2010Prop43
 90
        3
102
RTVSPost2010PropOp43
 70
     0
102
RTVSPost2010Prop44ColorIndex
 90
        5
102
RTVSPost2010Prop44ColorRGB
 90
      255
102
RTVSPost2010PropOp44
 70
     0
102
RTVSPost2010Prop45
280
     0
102
RTVSPost2010PropOp45
 70
     0
102
RTVSPost2010Prop46
 90
       50
102
RTVSPost2010PropOp46
 70
     0
102
RTVSPost2010Prop47
 90
       50
102
RTVSPost2010PropOp47
 70
     0
102
RTVSPost2010Prop48
 90
       50
102
RTVSPost2010PropOp48
 70
     0
102
RTVSPost2010Prop49
280
     0
102
RTVSPost2010PropOp49
 70
     0
102
RTVSPost2010Prop50
 90
       50
102
RTVSPost2010PropOp50
 70
     0
102
RTVSPost2010Prop51ColorIndex
 90
      256
102
RTVSPost2010Prop51ColorRGB
 90
-16777216
102
RTVSPost2010PropOp51
 70
     0
102
RTVSPost2010Prop52
140
1.0
102
RTVSPost2010PropOp52
 70
     0
102
RTVSPost2010Prop53
 90
        2
102
RTVSPost2010PropOp53
 70
     0
102
RTVSPost2010Prop54
  1
strokes_ogs.tif
102
RTVSPost2010PropOp54
 70
     0
102
RTVSPost2010Prop55
280
     0
102
RTVSPost2010PropOp55
 70
     0
102
RTVSPost2010Prop56
140
1.0
102
RTVSPost2010PropOp56
 70
     0
102
RTVSPost2010Prop57
140
1.0
102
RTVSPost2010PropOp57
 70
     0
  0
XRECORD
  5
1A6
102
{ACAD_REACTORS
330
1A5
102
}
330
1A5
100
AcDbXrecord
280
     1
102
RTVSPost2010Prop28
280
     0
102
RTVSPost2010PropOp28
 70
     1
102
RTVSPost2010Prop29
280
     1
102
RTVSPost2010PropOp29
 70
     1
102
RTVSPost2010Prop30
280
     1
102
RTVSPost2010PropOp30
 70
     1
102
RTVSPost2010Prop31
280
     0
102
RTVSPost2010PropOp31
 70
     1
102
RTVSPost2010Prop32
280
     0
102
RTVSPost2010PropOp32
 70
     1
102
RTVSPost2010Prop33
280
     0
102
RTVSPost2010PropOp33
 70
     1
102
RTVSPost2010Prop34
280
     0
102
RTVSPost2010PropOp34
 70
     1
102
RTVSPost2010Prop35
280
     0
102
RTVSPost2010PropOp35
 70
     1
102
RTVSPost2010Prop36
280
     0
102
RTVSPost2010PropOp36
 70
     1
102
RTVSPost2010Prop37
 90
       50
102
RTVSPost2010PropOp37
 70
     1
102
RTVSPost2010Prop38
140
0.0
102
RTVSPost2010PropOp38
 70
     1
102
RTVSPost2010Prop39
140
1.0
102
RTVSPost2010PropOp39
 70
     1
102
RTVSPost2010Prop40
 90
        0
102
RTVSPost2010PropOp40
 70
     1
102
RTVSPost2010Prop41ColorIndex
 90
       18
102
RTVSPost2010Prop41ColorRGB
 90
        0
102
RTVSPost2010PropOp41
 70
     1
102
RTVSPost2010Prop42
 90
       50
102
RTVSPost2010PropOp42
 70
     1
102
RTVSPost2010Prop43
 90
        3
102
RTVSPost2010PropOp43
 70
     1
102
RTVSPost2010Prop44ColorIndex
 90
        5
102
RTVSPost2010Prop44ColorRGB
 90
      255
102
RTVSPost2010PropOp44
 70
     1
102
RTVSPost2010Prop45
280
     0
102
RTVSPost2010PropOp45
 70
     1
102
RTVSPost2010Prop46
 90
       50
102
RTVSPost2010PropOp46
 70
     1
102
RTVSPost2010Prop47
 90
       50
102
RTVSPost2010PropOp47
 70
     1
102
RTVSPost2010Prop48
 90
       50
102
RTVSPost2010PropOp48
 70
     1
102
RTVSPost2010Prop49
280
     0
102
RTVSPost2010PropOp49
 70
     1
102
RTVSPost2010Prop50
 90
       50
102
RTVSPost2010PropOp50
 70
     1
102
RTVSPost2010Prop51ColorIndex
 90
      256
102
RTVSPost2010Prop51ColorRGB
 90
-16777216
102
RTVSPost2010PropOp51
 70
     0
102
RTVSPost2010Prop52
140
1.0
102
RTVSPost2010PropOp52
 70
     0
102
RTVSPost2010Prop53
 90
        2
102
RTVSPost2010PropOp53
 70
     1
102
RTVSPost2010Prop54
  1
strokes_ogs.tif
102
RTVSPost2010PropOp54
 70
     1
102
RTVSPost2010Prop55
280
     0
102
RTVSPost2010PropOp55
 70
     1
102
RTVSPost2010Prop56
140
1.0
102
RTVSPost2010PropOp56
 70
     1
102
RTVSPost2010Prop57
140
1.0
102
RTVSPost2010PropOp57
 70
     1
  0
XRECORD
  5
1B8
102
{ACAD_REACTORS
330
1B7
102
}
330
1B7
100
AcDbXrecord
280
     1
102
RTVSPost2010Prop28
280
     0
102
RTVSPost2010PropOp28
 70
     0
102
RTVSPost2010Prop29
280
     1
102
RTVSPost2010PropOp29
 70
     0
102
RTVSPost2010Prop30
280
     1
102
RTVSPost2010PropOp30
 70
     0
102
RTVSPost2010Prop31
280
     0
102
RTVSPost2010PropOp31
 70
     0
102
RTVSPost2010Prop32
280
     0
102
RTVSPost2010PropOp32
 70
     0
102
RTVSPost2010Prop33
280
     0
102
RTVSPost2010PropOp33
 70
     0
102
RTVSPost2010Prop34
280
     0
102
RTVSPost2010PropOp34
 70
     0
102
RTVSPost2010Prop35
280
     0
102
RTVSPost2010PropOp35
 70
     0
102
RTVSPost2010Prop36
280
     0
102
RTVSPost2010PropOp36
 70
     0
102
RTVSPost2010Prop37
 90
       50
102
RTVSPost2010PropOp37
 70
     0
102
RTVSPost2010Prop38
140
0.0
102
RTVSPost2010PropOp38
 70
     0
102
RTVSPost2010Prop39
140
1.0
102
RTVSPost2010PropOp39
 70
     0
102
RTVSPost2010Prop40
 90
        0
102
RTVSPost2010PropOp40
 70
     0
102
RTVSPost2010Prop41ColorIndex
 90
       18
102
RTVSPost2010Prop41ColorRGB
 90
        0
102
RTVSPost2010PropOp41
 70
     0
102
RTVSPost2010Prop42
 90
       50
102
RTVSPost2010PropOp42
 70
     0
102
RTVSPost2010Prop43
 90
        3
102
RTVSPost2010PropOp43
 70
     0
102
RTVSPost2010Prop44ColorIndex
 90
        5
102
RTVSPost2010Prop44ColorRGB
 90
      255
102
RTVSPost2010PropOp44
 70
     0
102
RTVSPost2010Prop45
280
     0
102
RTVSPost2010PropOp45
 70
     0
102
RTVSPost2010Prop46
 90
       50
102
RTVSPost2010PropOp46
 70
     0
102
RTVSPost2010Prop47
 90
       50
102
RTVSPost2010PropOp47
 70
     0
102
RTVSPost2010Prop48
 90
       50
102
RTVSPost2010PropOp48
 70
     0
102
RTVSPost2010Prop49
280
     0
102
RTVSPost2010PropOp49
 70
     0
102
RTVSPost2010Prop50
 90
       50
102
RTVSPost2010PropOp50
 70
     0
102
RTVSPost2010Prop51ColorIndex
 90
      256
102
RTVSPost2010Prop51ColorRGB
 90
-16777216
102
RTVSPost2010PropOp51
 70
     0
102
RTVSPost2010Prop52
140
1.0
102
RTVSPost2010PropOp52
 70
     0
102
RTVSPost2010Prop53
 90
        2
102
RTVSPost2010PropOp53
 70
     0
102
RTVSPost2010Prop54
  1
strokes_ogs.tif
102
RTVSPost2010PropOp54
 70
     0
102
RTVSPost2010Prop55
280
     0
102
RTVSPost2010PropOp55
 70
     0
102
RTVSPost2010Prop56
140
1.0
102
RTVSPost2010PropOp56
 70
     0
102
RTVSPost2010Prop57
140
1.0
102
RTVSPost2010PropOp57
 70
     0
  0
XRECORD
  5
19E
102
{ACAD_REACTORS
330
19D
102
}
330
19D
100
AcDbXrecord
280
     1
102
RTVSPost2010Prop28
280
     0
102
RTVSPost2010PropOp28
 70
     1
102
RTVSPost2010Prop29
280
     1
102
RTVSPost2010PropOp29
 70
     1
102
RTVSPost2010Prop30
280
     1
102
RTVSPost2010PropOp30
 70
     1
102
RTVSPost2010Prop31
280
     0
102
RTVSPost2010PropOp31
 70
     1
102
RTVSPost2010Prop32
280
     0
102
RTVSPost2010PropOp32
 70
     1
102
RTVSPost2010Prop33
280
     0
102
RTVSPost2010PropOp33
 70
     1
102
RTVSPost2010Prop34
280
     0
102
RTVSPost2010PropOp34
 70
     1
102
RTVSPost2010Prop35
280
     0
102
RTVSPost2010PropOp35
 70
     1
102
RTVSPost2010Prop36
280
     0
102
RTVSPost2010PropOp36
 70
     1
102
RTVSPost2010Prop37
 90
       50
102
RTVSPost2010PropOp37
 70
     1
102
RTVSPost2010Prop38
140
0.0
102
RTVSPost2010PropOp38
 70
     1
102
RTVSPost2010Prop39
140
1.0
102
RTVSPost2010PropOp39
 70
     1
102
RTVSPost2010Prop40
 90
        0
102
RTVSPost2010PropOp40
 70
     1
102
RTVSPost2010Prop41ColorIndex
 90
       18
102
RTVSPost2010Prop41ColorRGB
 90
        0
102
RTVSPost2010PropOp41
 70
     1
102
RTVSPost2010Prop42
 90
       50
102
RTVSPost2010PropOp42
 70
     1
102
RTVSPost2010Prop43
 90
        3
102
RTVSPost2010PropOp43
 70
     1
102
RTVSPost2010Prop44ColorIndex
 90
        5
102
RTVSPost2010Prop44ColorRGB
 90
      255
102
RTVSPost2010PropOp44
 70
     1
102
RTVSPost2010Prop45
280
     0
102
RTVSPost2010PropOp45
 70
     1
102
RTVSPost2010Prop46
 90
       50
102
RTVSPost2010PropOp46
 70
     1
102
RTVSPost2010Prop47
 90
       50
102
RTVSPost2010PropOp47
 70
     1
102
RTVSPost2010Prop48
 90
       50
102
RTVSPost2010PropOp48
 70
     1
102
RTVSPost2010Prop49
280
     0
102
RTVSPost2010PropOp49
 70
     1
102
RTVSPost2010Prop50
 90
       50
102
RTVSPost2010PropOp50
 70
     1
102
RTVSPost2010Prop51ColorIndex
 90
      256
102
RTVSPost2010Prop51ColorRGB
 90
-16777216
102
RTVSPost2010PropOp51
 70
     0
102
RTVSPost2010Prop52
140
1.0
102
RTVSPost2010PropOp52
 70
     0
102
RTVSPost2010Prop53
 90
        2
102
RTVSPost2010PropOp53
 70
     1
102
RTVSPost2010Prop54
  1
strokes_ogs.tif
102
RTVSPost2010PropOp54
 70
     1
102
RTVSPost2010Prop55
280
     0
102
RTVSPost2010PropOp55
 70
     1
102
RTVSPost2010Prop56
140
1.0
102
RTVSPost2010PropOp56
 70
     1
102
RTVSPost2010Prop57
140
1.0
102
RTVSPost2010PropOp57
 70
     1
  0
XRECORD
  5
1B4
102
{ACAD_REACTORS
330
1B3
102
}
330
1B3
100
AcDbXrecord
280
     1
102
RTVSPost2010Prop28
280
     0
102
RTVSPost2010PropOp28
 70
     1
102
RTVSPost2010Prop29
280
     1
102
RTVSPost2010PropOp29
 70
     1
102
RTVSPost2010Prop30
280
     1
102
RTVSPost2010PropOp30
 70
     1
102
RTVSPost2010Prop31
280
     0
102
RTVSPost2010PropOp31
 70
     1
102
RTVSPost2010Prop32
280
     0
102
RTVSPost2010PropOp32
 70
     1
102
RTVSPost2010Prop33
280
     0
102
RTVSPost2010PropOp33
 70
     1
102
RTVSPost2010Prop34
280
     0
102
RTVSPost2010PropOp34
 70
     1
102
RTVSPost2010Prop35
280
     0
102
RTVSPost2010PropOp35
 70
     1
102
RTVSPost2010Prop36
280
     0
102
RTVSPost2010PropOp36
 70
     1
102
RTVSPost2010Prop37
 90
       50
102
RTVSPost2010PropOp37
 70
     1
102
RTVSPost2010Prop38
140
0.0
102
RTVSPost2010PropOp38
 70
     1
102
RTVSPost2010Prop39
140
1.0
102
RTVSPost2010PropOp39
 70
     1
102
RTVSPost2010Prop40
 90
        0
102
RTVSPost2010PropOp40
 70
     1
102
RTVSPost2010Prop41ColorIndex
 90
       18
102
RTVSPost2010Prop41ColorRGB
 90
        0
102
RTVSPost2010PropOp41
 70
     1
102
RTVSPost2010Prop42
 90
       50
102
RTVSPost2010PropOp42
 70
     1
102
RTVSPost2010Prop43
 90
        3
102
RTVSPost2010PropOp43
 70
     1
102
RTVSPost2010Prop44ColorIndex
 90
        5
102
RTVSPost2010Prop44ColorRGB
 90
      255
102
RTVSPost2010PropOp44
 70
     1
102
RTVSPost2010Prop45
280
     0
102
RTVSPost2010PropOp45
 70
     1
102
RTVSPost2010Prop46
 90
       50
102
RTVSPost2010PropOp46
 70
     1
102
RTVSPost2010Prop47
 90
       50
102
RTVSPost2010PropOp47
 70
     1
102
RTVSPost2010Prop48
 90
       50
102
RTVSPost2010PropOp48
 70
     1
102
RTVSPost2010Prop49
280
     0
102
RTVSPost2010PropOp49
 70
     1
102
RTVSPost2010Prop50
 90
       50
102
RTVSPost2010PropOp50
 70
     1
102
RTVSPost2010Prop51ColorIndex
 90
      256
102
RTVSPost2010Prop51ColorRGB
 90
-16777216
102
RTVSPost2010PropOp51
 70
     0
102
RTVSPost2010Prop52
140
1.0
102
RTVSPost2010PropOp52
 70
     0
102
RTVSPost2010Prop53
 90
        2
102
RTVSPost2010PropOp53
 70
     1
102
RTVSPost2010Prop54
  1
strokes_ogs.tif
102
RTVSPost2010PropOp54
 70
     1
102
RTVSPost2010Prop55
280
     0
102
RTVSPost2010PropOp55
 70
     1
102
RTVSPost2010Prop56
140
1.0
102
RTVSPost2010PropOp56
 70
     1
102
RTVSPost2010Prop57
140
1.0
102
RTVSPost2010PropOp57
 70
     1
  0
XRECORD
  5
1B2
102
{ACAD_REACTORS
330
1B1
102
}
330
1B1
100
AcDbXrecord
280
     1
102
RTVSPost2010Prop28
280
     0
102
RTVSPost2010PropOp28
 70
     1
102
RTVSPost2010Prop29
280
     1
102
RTVSPost2010PropOp29
 70
     1
102
RTVSPost2010Prop30
280
     1
102
RTVSPost2010PropOp30
 70
     1
102
RTVSPost2010Prop31
280
     0
102
RTVSPost2010PropOp31
 70
     1
102
RTVSPost2010Prop32
280
     0
102
RTVSPost2010PropOp32
 70
     1
102
RTVSPost2010Prop33
280
     0
102
RTVSPost2010PropOp33
 70
     1
102
RTVSPost2010Prop34
280
     0
102
RTVSPost2010PropOp34
 70
     1
102
RTVSPost2010Prop35
280
     0
102
RTVSPost2010PropOp35
 70
     1
102
RTVSPost2010Prop36
280
     0
102
RTVSPost2010PropOp36
 70
     1
102
RTVSPost2010Prop37
 90
       50
102
RTVSPost2010PropOp37
 70
     1
102
RTVSPost2010Prop38
140
0.0
102
RTVSPost2010PropOp38
 70
     1
102
RTVSPost2010Prop39
140
1.0
102
RTVSPost2010PropOp39
 70
     1
102
RTVSPost2010Prop40
 90
        0
102
RTVSPost2010PropOp40
 70
     1
102
RTVSPost2010Prop41ColorIndex
 90
       18
102
RTVSPost2010Prop41ColorRGB
 90
        0
102
RTVSPost2010PropOp41
 70
     1
102
RTVSPost2010Prop42
 90
       50
102
RTVSPost2010PropOp42
 70
     1
102
RTVSPost2010Prop43
 90
        3
102
RTVSPost2010PropOp43
 70
     1
102
RTVSPost2010Prop44ColorIndex
 90
        5
102
RTVSPost2010Prop44ColorRGB
 90
      255
102
RTVSPost2010PropOp44
 70
     1
102
RTVSPost2010Prop45
280
     0
102
RTVSPost2010PropOp45
 70
     1
102
RTVSPost2010Prop46
 90
       50
102
RTVSPost2010PropOp46
 70
     1
102
RTVSPost2010Prop47
 90
       50
102
RTVSPost2010PropOp47
 70
     1
102
RTVSPost2010Prop48
 90
       50
102
RTVSPost2010PropOp48
 70
     1
102
RTVSPost2010Prop49
280
     0
102
RTVSPost2010PropOp49
 70
     1
102
RTVSPost2010Prop50
 90
       50
102
RTVSPost2010PropOp50
 70
     1
102
RTVSPost2010Prop51ColorIndex
 90
      256
102
RTVSPost2010Prop51ColorRGB
 90
-16777216
102
RTVSPost2010PropOp51
 70
     0
102
RTVSPost2010Prop52
140
1.0
102
RTVSPost2010PropOp52
 70
     0
102
RTVSPost2010Prop53
 90
        2
102
RTVSPost2010PropOp53
 70
     1
102
RTVSPost2010Prop54
  1
strokes_ogs.tif
102
RTVSPost2010PropOp54
 70
     1
102
RTVSPost2010Prop55
280
     0
102
RTVSPost2010PropOp55
 70
     1
102
RTVSPost2010Prop56
140
1.0
102
RTVSPost2010PropOp56
 70
     1
102
RTVSPost2010Prop57
140
1.0
102
RTVSPost2010PropOp57
 70
     1
  0
XRECORD
  5
1AC
102
{ACAD_REACTORS
330
1AB
102
}
330
1AB
100
AcDbXrecord
280
     1
102
RTVSPost2010Prop28
280
     0
102
RTVSPost2010PropOp28
 70
     1
102
RTVSPost2010Prop29
280
     1
102
RTVSPost2010PropOp29
 70
     1
102
RTVSPost2010Prop30
280
     1
102
RTVSPost2010PropOp30
 70
     1
102
RTVSPost2010Prop31
280
     0
102
RTVSPost2010PropOp31
 70
     1
102
RTVSPost2010Prop32
280
     0
102
RTVSPost2010PropOp32
 70
     1
102
RTVSPost2010Prop33
280
     0
102
RTVSPost2010PropOp33
 70
     1
102
RTVSPost2010Prop34
280
     0
102
RTVSPost2010PropOp34
 70
     1
102
RTVSPost2010Prop35
280
     0
102
RTVSPost2010PropOp35
 70
     1
102
RTVSPost2010Prop36
280
     0
102
RTVSPost2010PropOp36
 70
     1
102
RTVSPost2010Prop37
 90
       50
102
RTVSPost2010PropOp37
 70
     1
102
RTVSPost2010Prop38
140
0.0
102
RTVSPost2010PropOp38
 70
     1
102
RTVSPost2010Prop39
140
1.0
102
RTVSPost2010PropOp39
 70
     1
102
RTVSPost2010Prop40
 90
        0
102
RTVSPost2010PropOp40
 70
     1
102
RTVSPost2010Prop41ColorIndex
 90
       18
102
RTVSPost2010Prop41ColorRGB
 90
        0
102
RTVSPost2010PropOp41
 70
     1
102
RTVSPost2010Prop42
 90
       50
102
RTVSPost2010PropOp42
 70
     1
102
RTVSPost2010Prop43
 90
        3
102
RTVSPost2010PropOp43
 70
     1
102
RTVSPost2010Prop44ColorIndex
 90
        5
102
RTVSPost2010Prop44ColorRGB
 90
      255
102
RTVSPost2010PropOp44
 70
     1
102
RTVSPost2010Prop45
280
     0
102
RTVSPost2010PropOp45
 70
     1
102
RTVSPost2010Prop46
 90
       50
102
RTVSPost2010PropOp46
 70
     1
102
RTVSPost2010Prop47
 90
       50
102
RTVSPost2010PropOp47
 70
     1
102
RTVSPost2010Prop48
 90
       50
102
RTVSPost2010PropOp48
 70
     1
102
RTVSPost2010Prop49
280
     0
102
RTVSPost2010PropOp49
 70
     1
102
RTVSPost2010Prop50
 90
       50
102
RTVSPost2010PropOp50
 70
     1
102
RTVSPost2010Prop51ColorIndex
 90
      256
102
RTVSPost2010Prop51ColorRGB
 90
-16777216
102
RTVSPost2010PropOp51
 70
     0
102
RTVSPost2010Prop52
140
1.0
102
RTVSPost2010PropOp52
 70
     0
102
RTVSPost2010Prop53
 90
        2
102
RTVSPost2010PropOp53
 70
     1
102
RTVSPost2010Prop54
  1
strokes_ogs.tif
102
RTVSPost2010PropOp54
 70
     1
102
RTVSPost2010Prop55
280
     0
102
RTVSPost2010PropOp55
 70
     1
102
RTVSPost2010Prop56
140
1.0
102
RTVSPost2010PropOp56
 70
     1
102
RTVSPost2010Prop57
140
1.0
102
RTVSPost2010PropOp57
 70
     1
  0
XRECORD
  5
1AE
102
{ACAD_REACTORS
330
1AD
102
}
330
1AD
100
AcDbXrecord
280
     1
102
RTVSPost2010Prop28
280
     0
102
RTVSPost2010PropOp28
 70
     1
102
RTVSPost2010Prop29
280
     1
102
RTVSPost2010PropOp29
 70
     1
102
RTVSPost2010Prop30
280
     1
102
RTVSPost2010PropOp30
 70
     1
102
RTVSPost2010Prop31
280
     0
102
RTVSPost2010PropOp31
 70
     1
102
RTVSPost2010Prop32
280
     0
102
RTVSPost2010PropOp32
 70
     1
102
RTVSPost2010Prop33
280
     0
102
RTVSPost2010PropOp33
 70
     1
102
RTVSPost2010Prop34
280
     0
102
RTVSPost2010PropOp34
 70
     1
102
RTVSPost2010Prop35
280
     0
102
RTVSPost2010PropOp35
 70
     1
102
RTVSPost2010Prop36
280
     0
102
RTVSPost2010PropOp36
 70
     1
102
RTVSPost2010Prop37
 90
       50
102
RTVSPost2010PropOp37
 70
     1
102
RTVSPost2010Prop38
140
0.0
102
RTVSPost2010PropOp38
 70
     1
102
RTVSPost2010Prop39
140
1.0
102
RTVSPost2010PropOp39
 70
     1
102
RTVSPost2010Prop40
 90
        0
102
RTVSPost2010PropOp40
 70
     1
102
RTVSPost2010Prop41ColorIndex
 90
       18
102
RTVSPost2010Prop41ColorRGB
 90
        0
102
RTVSPost2010PropOp41
 70
     1
102
RTVSPost2010Prop42
 90
       50
102
RTVSPost2010PropOp42
 70
     1
102
RTVSPost2010Prop43
 90
        3
102
RTVSPost2010PropOp43
 70
     1
102
RTVSPost2010Prop44ColorIndex
 90
        5
102
RTVSPost2010Prop44ColorRGB
 90
      255
102
RTVSPost2010PropOp44
 70
     1
102
RTVSPost2010Prop45
280
     0
102
RTVSPost2010PropOp45
 70
     1
102
RTVSPost2010Prop46
 90
       50
102
RTVSPost2010PropOp46
 70
     1
102
RTVSPost2010Prop47
 90
       50
102
RTVSPost2010PropOp47
 70
     1
102
RTVSPost2010Prop48
 90
       50
102
RTVSPost2010PropOp48
 70
     1
102
RTVSPost2010Prop49
280
     0
102
RTVSPost2010PropOp49
 70
     1
102
RTVSPost2010Prop50
 90
       50
102
RTVSPost2010PropOp50
 70
     1
102
RTVSPost2010Prop51ColorIndex
 90
      256
102
RTVSPost2010Prop51ColorRGB
 90
-16777216
102
RTVSPost2010PropOp51
 70
     0
102
RTVSPost2010Prop52
140
1.0
102
RTVSPost2010PropOp52
 70
     0
102
RTVSPost2010Prop53
 90
        2
102
RTVSPost2010PropOp53
 70
     1
102
RTVSPost2010Prop54
  1
strokes_ogs.tif
102
RTVSPost2010PropOp54
 70
     1
102
RTVSPost2010Prop55
280
     0
102
RTVSPost2010PropOp55
 70
     1
102
RTVSPost2010Prop56
140
1.0
102
RTVSPost2010PropOp56
 70
     1
102
RTVSPost2010Prop57
140
1.0
102
RTVSPost2010PropOp57
 70
     1
  0
XRECORD
  5
1A4
102
{ACAD_REACTORS
330
1A3
102
}
330
1A3
100
AcDbXrecord
280
     1
102
RTVSPost2010Prop28
280
     0
102
RTVSPost2010PropOp28
 70
     1
102
RTVSPost2010Prop29
280
     1
102
RTVSPost2010PropOp29
 70
     1
102
RTVSPost2010Prop30
280
     1
102
RTVSPost2010PropOp30
 70
     1
102
RTVSPost2010Prop31
280
     0
102
RTVSPost2010PropOp31
 70
     1
102
RTVSPost2010Prop32
280
     0
102
RTVSPost2010PropOp32
 70
     1
102
RTVSPost2010Prop33
280
     0
102
RTVSPost2010PropOp33
 70
     1
102
RTVSPost2010Prop34
280
     0
102
RTVSPost2010PropOp34
 70
     1
102
RTVSPost2010Prop35
280
     0
102
RTVSPost2010PropOp35
 70
     1
102
RTVSPost2010Prop36
280
     0
102
RTVSPost2010PropOp36
 70
     1
102
RTVSPost2010Prop37
 90
       50
102
RTVSPost2010PropOp37
 70
     1
102
RTVSPost2010Prop38
140
0.0
102
RTVSPost2010PropOp38
 70
     1
102
RTVSPost2010Prop39
140
1.0
102
RTVSPost2010PropOp39
 70
     1
102
RTVSPost2010Prop40
 90
        0
102
RTVSPost2010PropOp40
 70
     1
102
RTVSPost2010Prop41ColorIndex
 90
       18
102
RTVSPost2010Prop41ColorRGB
 90
        0
102
RTVSPost2010PropOp41
 70
     1
102
RTVSPost2010Prop42
 90
       50
102
RTVSPost2010PropOp42
 70
     1
102
RTVSPost2010Prop43
 90
        3
102
RTVSPost2010PropOp43
 70
     1
102
RTVSPost2010Prop44ColorIndex
 90
        5
102
RTVSPost2010Prop44ColorRGB
 90
      255
102
RTVSPost2010PropOp44
 70
     1
102
RTVSPost2010Prop45
280
     0
102
RTVSPost2010PropOp45
 70
     1
102
RTVSPost2010Prop46
 90
       50
102
RTVSPost2010PropOp46
 70
     1
102
RTVSPost2010Prop47
 90
       50
102
RTVSPost2010PropOp47
 70
     1
102
RTVSPost2010Prop48
 90
       50
102
RTVSPost2010PropOp48
 70
     1
102
RTVSPost2010Prop49
280
     0
102
RTVSPost2010PropOp49
 70
     1
102
RTVSPost2010Prop50
 90
       50
102
RTVSPost2010PropOp50
 70
     1
102
RTVSPost2010Prop51ColorIndex
 90
      256
102
RTVSPost2010Prop51ColorRGB
 90
-16777216
102
RTVSPost2010PropOp51
 70
     0
102
RTVSPost2010Prop52
140
1.0
102
RTVSPost2010PropOp52
 70
     0
102
RTVSPost2010Prop53
 90
        2
102
RTVSPost2010PropOp53
 70
     1
102
RTVSPost2010Prop54
  1
strokes_ogs.tif
102
RTVSPost2010PropOp54
 70
     1
102
RTVSPost2010Prop55
280
     0
102
RTVSPost2010PropOp55
 70
     1
102
RTVSPost2010Prop56
140
1.0
102
RTVSPost2010PropOp56
 70
     1
102
RTVSPost2010Prop57
140
1.0
102
RTVSPost2010PropOp57
 70
     1
  0
XRECORD
  5
198
102
{ACAD_REACTORS
330
197
102
}
330
197
100
AcDbXrecord
280
     1
102
RTVSPost2010Prop28
280
     0
102
RTVSPost2010PropOp28
 70
     1
102
RTVSPost2010Prop29
280
     1
102
RTVSPost2010PropOp29
 70
     1
102
RTVSPost2010Prop30
280
     1
102
RTVSPost2010PropOp30
 70
     1
102
RTVSPost2010Prop31
280
     0
102
RTVSPost2010PropOp31
 70
     1
102
RTVSPost2010Prop32
280
     0
102
RTVSPost2010PropOp32
 70
     1
102
RTVSPost2010Prop33
280
     0
102
RTVSPost2010PropOp33
 70
     1
102
RTVSPost2010Prop34
280
     0
102
RTVSPost2010PropOp34
 70
     1
102
RTVSPost2010Prop35
280
     0
102
RTVSPost2010PropOp35
 70
     1
102
RTVSPost2010Prop36
280
     0
102
RTVSPost2010PropOp36
 70
     1
102
RTVSPost2010Prop37
 90
       50
102
RTVSPost2010PropOp37
 70
     1
102
RTVSPost2010Prop38
140
0.0
102
RTVSPost2010PropOp38
 70
     1
102
RTVSPost2010Prop39
140
1.0
102
RTVSPost2010PropOp39
 70
     1
102
RTVSPost2010Prop40
 90
        0
102
RTVSPost2010PropOp40
 70
     1
102
RTVSPost2010Prop41ColorIndex
 90
       18
102
RTVSPost2010Prop41ColorRGB
 90
        0
102
RTVSPost2010PropOp41
 70
     1
102
RTVSPost2010Prop42
 90
       50
102
RTVSPost2010PropOp42
 70
     1
102
RTVSPost2010Prop43
 90
        3
102
RTVSPost2010PropOp43
 70
     1
102
RTVSPost2010Prop44ColorIndex
 90
        5
102
RTVSPost2010Prop44ColorRGB
 90
      255
102
RTVSPost2010PropOp44
 70
     1
102
RTVSPost2010Prop45
280
     0
102
RTVSPost2010PropOp45
 70
     1
102
RTVSPost2010Prop46
 90
       50
102
RTVSPost2010PropOp46
 70
     1
102
RTVSPost2010Prop47
 90
       50
102
RTVSPost2010PropOp47
 70
     1
102
RTVSPost2010Prop48
 90
       50
102
RTVSPost2010PropOp48
 70
     1
102
RTVSPost2010Prop49
280
     0
102
RTVSPost2010PropOp49
 70
     1
102
RTVSPost2010Prop50
 90
       50
102
RTVSPost2010PropOp50
 70
     1
102
RTVSPost2010Prop51ColorIndex
 90
      256
102
RTVSPost2010Prop51ColorRGB
 90
-16777216
102
RTVSPost2010PropOp51
 70
     0
102
RTVSPost2010Prop52
140
1.0
102
RTVSPost2010PropOp52
 70
     0
102
RTVSPost2010Prop53
 90
        2
102
RTVSPost2010PropOp53
 70
     1
102
RTVSPost2010Prop54
  1
strokes_ogs.tif
102
RTVSPost2010PropOp54
 70
     1
102
RTVSPost2010Prop55
280
     0
102
RTVSPost2010PropOp55
 70
     1
102
RTVSPost2010Prop56
140
1.0
102
RTVSPost2010PropOp56
 70
     1
102
RTVSPost2010Prop57
140
1.0
102
RTVSPost2010PropOp57
 70
     1
  0
XRECORD
  5
1B0
102
{ACAD_REACTORS
330
1AF
102
}
330
1AF
100
AcDbXrecord
280
     1
102
RTVSPost2010Prop28
280
     0
102
RTVSPost2010PropOp28
 70
     1
102
RTVSPost2010Prop29
280
     1
102
RTVSPost2010PropOp29
 70
     1
102
RTVSPost2010Prop30
280
     1
102
RTVSPost2010PropOp30
 70
     1
102
RTVSPost2010Prop31
280
     0
102
RTVSPost2010PropOp31
 70
     1
102
RTVSPost2010Prop32
280
     0
102
RTVSPost2010PropOp32
 70
     1
102
RTVSPost2010Prop33
280
     0
102
RTVSPost2010PropOp33
 70
     1
102
RTVSPost2010Prop34
280
     0
102
RTVSPost2010PropOp34
 70
     1
102
RTVSPost2010Prop35
280
     0
102
RTVSPost2010PropOp35
 70
     1
102
RTVSPost2010Prop36
280
     0
102
RTVSPost2010PropOp36
 70
     1
102
RTVSPost2010Prop37
 90
       50
102
RTVSPost2010PropOp37
 70
     1
102
RTVSPost2010Prop38
140
0.0
102
RTVSPost2010PropOp38
 70
     1
102
RTVSPost2010Prop39
140
1.0
102
RTVSPost2010PropOp39
 70
     1
102
RTVSPost2010Prop40
 90
        0
102
RTVSPost2010PropOp40
 70
     1
102
RTVSPost2010Prop41ColorIndex
 90
       18
102
RTVSPost2010Prop41ColorRGB
 90
        0
102
RTVSPost2010PropOp41
 70
     1
102
RTVSPost2010Prop42
 90
       50
102
RTVSPost2010PropOp42
 70
     1
102
RTVSPost2010Prop43
 90
        3
102
RTVSPost2010PropOp43
 70
     1
102
RTVSPost2010Prop44ColorIndex
 90
        5
102
RTVSPost2010Prop44ColorRGB
 90
      255
102
RTVSPost2010PropOp44
 70
     1
102
RTVSPost2010Prop45
280
     0
102
RTVSPost2010PropOp45
 70
     1
102
RTVSPost2010Prop46
 90
       50
102
RTVSPost2010PropOp46
 70
     1
102
RTVSPost2010Prop47
 90
       50
102
RTVSPost2010PropOp47
 70
     1
102
RTVSPost2010Prop48
 90
       50
102
RTVSPost2010PropOp48
 70
     1
102
RTVSPost2010Prop49
280
     0
102
RTVSPost2010PropOp49
 70
     1
102
RTVSPost2010Prop50
 90
       50
102
RTVSPost2010PropOp50
 70
     1
102
RTVSPost2010Prop51ColorIndex
 90
      256
102
RTVSPost2010Prop51ColorRGB
 90
-16777216
102
RTVSPost2010PropOp51
 70
     0
102
RTVSPost2010Prop52
140
1.0
102
RTVSPost2010PropOp52
 70
     0
102
RTVSPost2010Prop53
 90
        2
102
RTVSPost2010PropOp53
 70
     1
102
RTVSPost2010Prop54
  1
strokes_ogs.tif
102
RTVSPost2010PropOp54
 70
     1
102
RTVSPost2010Prop55
280
     0
102
RTVSPost2010PropOp55
 70
     1
102
RTVSPost2010Prop56
140
1.0
102
RTVSPost2010PropOp56
 70
     1
102
RTVSPost2010Prop57
140
1.0
102
RTVSPost2010PropOp57
 70
     1
  0
ENDSEC
  0
EOF
