  0
SECTION
  2
HEADER
  9
$ACADVER
  1
AC1024
  9
$ACADMAINTVER
 70
   226
  9
$DWGCODEPAGE
  3
ANSI_1252
  9
$INSBASE
 10
0.0
 20
0.0
 30
0.0
  9
$EXTMIN
 10
1.000000000000000E+20
 20
1.000000000000000E+20
 30
1.000000000000000E+20
  9
$EXTMAX
 10
-1.000000000000000E+20
 20
-1.000000000000000E+20
 30
-1.000000000000000E+20
  9
$LIMMIN
 10
0.0
 20
0.0
  9
$LIMMAX
 10
12.0
 20
9.0
  9
$ORTHOMODE
 70
     0
  9
$REGENMODE
 70
     1
  9
$FILLMODE
 70
     1
  9
$QTEXTMODE
 70
     0
  9
$MIRRTEXT
 70
     1
  9
$LTSCALE
 40
1.0
  9
$ATTMODE
 70
     1
  9
$TEXTSIZE
 40
0.2
  9
$TRACEWID
 40
0.05
  9
$TEXTSTYLE
  7
Standard
  9
$CLAYER
  8
Material Color - 90
  9
$CELTYPE
  6
ByLayer
  9
$CECOLOR
 62
   256
  9
$CELTSCALE
 40
1.0
  9
$DISPSILH
 70
     0
  9
$DIMSCALE
 40
1.0
  9
$DIMASZ
 40
0.18
  9
$DIMEXO
 40
0.0625
  9
$DIMDLI
 40
0.38
  9
$DIMRND
 40
0.0
  9
$DIMDLE
 40
0.0
  9
$DIMEXE
 40
0.18
  9
$DIMTP
 40
0.0
  9
$DIMTM
 40
0.0
  9
$DIMTXT
 40
0.18
  9
$DIMCEN
 40
0.09
  9
$DIMTSZ
 40
0.0
  9
$DIMTOL
 70
     0
  9
$DIMLIM
 70
     0
  9
$DIMTIH
 70
     1
  9
$DIMTOH
 70
     1
  9
$DIMSE1
 70
     0
  9
$DIMSE2
 70
     0
  9
$DIMTAD
 70
     0
  9
$DIMZIN
 70
     0
  9
$DIMBLK
  1

  9
$DIMASO
 70
     1
  9
$DIMSHO
 70
     1
  9
$DIMPOST
  1

  9
$DIMAPOST
  1

  9
$DIMALT
 70
     0
  9
$DIMALTD
 70
     2
  9
$DIMALTF
 40
25.4
  9
$DIMLFAC
 40
1.0
  9
$DIMTOFL
 70
     0
  9
$DIMTVP
 40
0.0
  9
$DIMTIX
 70
     0
  9
$DIMSOXD
 70
     0
  9
$DIMSAH
 70
     0
  9
$DIMBLK1
  1

  9
$DIMBLK2
  1

  9
$DIMSTYLE
  2
Standard
  9
$DIMCLRD
 70
     0
  9
$DIMCLRE
 70
     0
  9
$DIMCLRT
 70
     0
  9
$DIMTFAC
 40
1.0
  9
$DIMGAP
 40
0.09
  9
$DIMJUST
 70
     0
  9
$DIMSD1
 70
     0
  9
$DIMSD2
 70
     0
  9
$DIMTOLJ
 70
     1
  9
$DIMTZIN
 70
     0
  9
$DIMALTZ
 70
     0
  9
$DIMALTTZ
 70
     0
  9
$DIMUPT
 70
     0
  9
$DIMDEC
 70
     4
  9
$DIMTDEC
 70
     4
  9
$DIMALTU
 70
     2
  9
$DIMALTTD
 70
     2
  9
$DIMTXSTY
  7
Standard
  9
$DIMAUNIT
 70
     0
  9
$DIMADEC
 70
     0
  9
$DIMALTRND
 40
0.0
  9
$DIMAZIN
 70
     0
  9
$DIMDSEP
 70
    46
  9
$DIMATFIT
 70
     3
  9
$DIMFRAC
 70
     0
  9
$DIMLDRBLK
  1

  9
$DIMLUNIT
 70
     2
  9
$DIMLWD
 70
    -2
  9
$DIMLWE
 70
    -2
  9
$DIMTMOVE
 70
     0
  9
$DIMFXL
 40
1.0
  9
$DIMFXLON
 70
     0
  9
$DIMJOGANG
 40
0.7853981633974483
  9
$DIMTFILL
 70
     0
  9
$DIMTFILLCLR
 70
     0
  9
$DIMARCSYM
 70
     0
  9
$DIMLTYPE
  6

  9
$DIMLTEX1
  6

  9
$DIMLTEX2
  6

  9
$DIMTXTDIRECTION
 70
     0
  9
$LUNITS
 70
     2
  9
$LUPREC
 70
     4
  9
$SKETCHINC
 40
0.1
  9
$FILLETRAD
 40
0.5
  9
$AUNITS
 70
     0
  9
$AUPREC
 70
     0
  9
$MENU
  1
.
  9
$ELEVATION
 40
0.0
  9
$PELEVATION
 40
0.0
  9
$THICKNESS
 40
0.0
  9
$LIMCHECK
 70
     0
  9
$CHAMFERA
 40
0.5
  9
$CHAMFERB
 40
0.5
  9
$CHAMFERC
 40
1.0
  9
$CHAMFERD
 40
0.0
  9
$SKPOLY
 70
     0
  9
$TDCREATE
 40
2451380.888761574
  9
$TDUCREATE
 40
2451380.805432396
  9
$TDUPDATE
 40
2451380.924513889
  9
$TDUUPDATE
 40
2451380.841180556
  9
$TDINDWG
 40
0.0075602199
  9
$TDUSRTIMER
 40
0.0075511806
  9
$USRTIMER
 70
     1
  9
$ANGBASE
 50
0.0
  9
$ANGDIR
 70
     0
  9
$PDMODE
 70
     0
  9
$PDSIZE
 40
0.0
  9
$PLINEWID
 40
0.0
  9
$SPLFRAME
 70
     0
  9
$SPLINETYPE
 70
     6
  9
$SPLINESEGS
 70
     8
  9
$HANDSEED
  5
1C1
  9
$SURFTAB1
 70
     6
  9
$SURFTAB2
 70
     6
  9
$SURFTYPE
 70
     6
  9
$SURFU
 70
     6
  9
$SURFV
 70
     6
  9
$UCSBASE
  2

  9
$UCSNAME
  2

  9
$UCSORG
 10
0.0
 20
0.0
 30
0.0
  9
$UCSXDIR
 10
1.0
 20
0.0
 30
0.0
  9
$UCSYDIR
 10
0.0
 20
1.0
 30
0.0
  9
$UCSORTHOREF
  2

  9
$UCSORTHOVIEW
 70
     0
  9
$UCSORGTOP
 10
0.0
 20
0.0
 30
0.0
  9
$UCSORGBOTTOM
 10
0.0
 20
0.0
 30
0.0
  9
$UCSORGLEFT
 10
0.0
 20
0.0
 30
0.0
  9
$UCSORGRIGHT
 10
0.0
 20
0.0
 30
0.0
  9
$UCSORGFRONT
 10
0.0
 20
0.0
 30
0.0
  9
$UCSORGBACK
 10
0.0
 20
0.0
 30
0.0
  9
$PUCSBASE
  2

  9
$PUCSNAME
  2

  9
$PUCSORG
 10
0.0
 20
0.0
 30
0.0
  9
$PUCSXDIR
 10
1.0
 20
0.0
 30
0.0
  9
$PUCSYDIR
 10
0.0
 20
1.0
 30
0.0
  9
$PUCSORTHOREF
  2

  9
$PUCSORTHOVIEW
 70
     0
  9
$PUCSORGTOP
 10
0.0
 20
0.0
 30
0.0
  9
$PUCSORGBOTTOM
 10
0.0
 20
0.0
 30
0.0
  9
$PUCSORGLEFT
 10
0.0
 20
0.0
 30
0.0
  9
$PUCSORGRIGHT
 10
0.0
 20
0.0
 30
0.0
  9
$PUCSORGFRONT
 10
0.0
 20
0.0
 30
0.0
  9
$PUCSORGBACK
 10
0.0
 20
0.0
 30
0.0
  9
$USERI1
 70
     0
  9
$USERI2
 70
     0
  9
$USERI3
 70
     0
  9
$USERI4
 70
     0
  9
$USERI5
 70
     0
  9
$USERR1
 40
0.0
  9
$USERR2
 40
0.0
  9
$USERR3
 40
0.0
  9
$USERR4
 40
0.0
  9
$USERR5
 40
0.0
  9
$WORLDVIEW
 70
     1
  9
$SHADEDGE
 70
     3
  9
$SHADEDIF
 70
    70
  9
$TILEMODE
 70
     1
  9
$MAXACTVP
 70
    64
  9
$PINSBASE
 10
0.0
 20
0.0
 30
0.0
  9
$PLIMCHECK
 70
     0
  9
$PEXTMIN
 10
1.000000000000000E+20
 20
1.000000000000000E+20
 30
1.000000000000000E+20
  9
$PEXTMAX
 10
-1.000000000000000E+20
 20
-1.000000000000000E+20
 30
-1.000000000000000E+20
  9
$PLIMMIN
 10
0.0
 20
0.0
  9
$PLIMMAX
 10
12.0
 20
9.0
  9
$UNITMODE
 70
     0
  9
$VISRETAIN
 70
     1
  9
$PLINEGEN
 70
     0
  9
$PSLTSCALE
 70
     1
  9
$TREEDEPTH
 70
  3020
  9
$CMLSTYLE
  2
Standard
  9
$CMLJUST
 70
     0
  9
$CMLSCALE
 40
1.0
  9
$PROXYGRAPHICS
 70
     1
  9
$MEASUREMENT
 70
     1
  9
$CELWEIGHT
370
    -1
  9
$ENDCAPS
280
     0
  9
$JOINSTYLE
280
     0
  9
$LWDISPLAY
290
     0
  9
$INSUNITS
 70
     4
  9
$HYPERLINKBASE
  1

  9
$STYLESHEET
  1

  9
$XEDIT
290
     1
  9
$CEPSNTYPE
380
     0
  9
$PSTYLEMODE
290
     1
  9
$FINGERPRINTGUID
  2
{12F50282-3ED8-11D3-A8B7-0060B0F84BC6}
  9
$VERSIONGUID
  2
{12F50293-3ED8-11D3-A8B7-0060B0F84BC6}
  9
$EXTNAMES
290
     1
  9
$PSVPSCALE
 40
0.0
  9
$OLESTARTUP
290
     0
  9
$SORTENTS
280
   127
  9
$INDEXCTL
280
     0
  9
$HIDETEXT
280
     0
  9
$XCLIPFRAME
280
     2
  9
$HALOGAP
280
     0
  9
$OBSCOLOR
 70
   257
  9
$OBSLTYPE
280
     0
  9
$INTERSECTIONDISPLAY
280
     0
  9
$INTERSECTIONCOLOR
 70
   257
  9
$DIMASSOC
280
     1
  9
$PROJECTNAME
  1

  9
$CAMERADISPLAY
290
     0
  9
$LENSLENGTH
 40
50.0
  9
$CAMERAHEIGHT
 40
0.0
  9
$STEPSPERSEC
 40
2.0
  9
$STEPSIZE
 40
6.0
  9
$3DDWFPREC
 40
2.0
  9
$PSOLWIDTH
 40
0.25
  9
$PSOLHEIGHT
 40
4.0
  9
$LOFTANG1
 40
1.570796326794896
  9
$LOFTANG2
 40
1.570796326794896
  9
$LOFTMAG1
 40
0.0
  9
$LOFTMAG2
 40
0.0
  9
$LOFTPARAM
 70
     7
  9
$LOFTNORMALS
280
     1
  9
$LATITUDE
 40
37.795
  9
$LONGITUDE
 40
-122.394
  9
$NORTHDIRECTION
 40
0.0
  9
$TIMEZONE
 70
 -8000
  9
$LIGHTGLYPHDISPLAY
280
     1
  9
$TILEMODELIGHTSYNCH
280
     1
  9
$CMATERIAL
347
AB
  9
$SOLIDHIST
280
     0
  9
$SHOWHIST
280
     1
  9
$DWFFRAME
280
     2
  9
$DGNFRAME
280
     0
  9
$REALWORLDSCALE
290
     1
  9
$INTERFERECOLOR
 62
     1
  9
$INTERFEREOBJVS
345
CD
  9
$INTERFEREVPVS
346
CA
  9
$CSHADOW
280
     0
  9
$SHADOWPLANELOCATION
 40
0.0
  0
ENDSEC
  0
SECTION
  2
CLASSES
  0
CLASS
  1
ACDBDICTIONARYWDFLT
  2
AcDbDictionaryWithDefault
  3
ObjectDBX Classes
 90
        0
 91
        1
280
     0
281
     0
  0
CLASS
  1
ACDBPLACEHOLDER
  2
AcDbPlaceHolder
  3
ObjectDBX Classes
 90
        0
 91
        2
280
     0
281
     0
  0
CLASS
  1
LAYOUT
  2
AcDbLayout
  3
ObjectDBX Classes
 90
        0
 91
        3
280
     0
281
     0
  0
CLASS
  1
MATERIAL
  2
AcDbMaterial
  3
ObjectDBX Classes
 90
     1153
 91
        3
280
     0
281
     0
  0
CLASS
  1
VISUALSTYLE
  2
AcDbVisualStyle
  3
ObjectDBX Classes
 90
     4095
 91
       24
280
     0
281
     0
  0
CLASS
  1
TABLESTYLE
  2
AcDbTableStyle
  3
ObjectDBX Classes
 90
     4095
 91
        1
280
     0
281
     0
  0
CLASS
  1
SCALE
  2
AcDbScale
  3
ObjectDBX Classes
 90
     1153
 91
       17
280
     0
281
     0
  0
CLASS
  1
MLEADERSTYLE
  2
AcDbMLeaderStyle
  3
ACDB_MLEADERSTYLE_CLASS
 90
     4095
 91
        1
280
     0
281
     0
  0
CLASS
  1
ACDBSECTIONVIEWSTYLE
  2
AcDbSectionViewStyle
  3
ObjectDBX Classes
 90
     1025
 91
        1
280
     0
281
     0
  0
CLASS
  1
ACDBDETAILVIEWSTYLE
  2
AcDbDetailViewStyle
  3
ObjectDBX Classes
 90
     1025
 91
        1
280
     0
281
     0
  0
CLASS
  1
MESH
  2
AcDbSubDMesh
  3
ObjectDBX Classes
 90
        0
 91
        1
280
     0
281
     1
  0
CLASS
  1
DICTIONARYVAR
  2
AcDbDictionaryVar
  3
ObjectDBX Classes
 90
        0
 91
        9
280
     0
281
     0
  0
CLASS
  1
CELLSTYLEMAP
  2
AcDbCellStyleMap
  3
ObjectDBX Classes
 90
     1152
 91
        1
280
     0
281
     0
  0
ENDSEC
  0
SECTION
  2
TABLES
  0
TABLE
  2
VPORT
  5
8
330
0
100
AcDbSymbolTable
 70
     1
  0
VPORT
  5
A8
330
8
100
AcDbSymbolTableRecord
100
AcDbViewportTableRecord
  2
*Active
 70
     0
 10
0.0
 20
0.0
 11
1.0
 21
1.0
 12
0.0
 22
49.39804840087891
 13
0.0
 23
0.0
 14
0.5
 24
0.5
 15
0.5
 25
0.5
 16
-1.0
 26
-1.0
 36
1.0
 17
0.0
 27
0.0
 37
0.0
 40
147.9999991569787
 41
1.404365530938472
 42
50.0
 43
0.0
 44
0.0
 50
0.0
 51
0.0
 71
     0
 72
   100
 73
     1
 74
     3
 75
     0
 76
     0
 77
     0
 78
     0
281
     0
 65
     1
110
0.0
120
0.0
130
0.0
111
1.0
121
0.0
131
0.0
112
0.0
122
1.0
132
0.0
 79
     0
146
0.0
348
C9
 60
     3
 61
     5
292
     1
282
     1
141
0.0
142
0.0
 63
   250
421
  3355443
  0
ENDTAB
  0
TABLE
  2
LTYPE
  5
5
330
0
100
AcDbSymbolTable
 70
     1
  0
LTYPE
  5
14
330
5
100
AcDbSymbolTableRecord
100
AcDbLinetypeTableRecord
  2
ByBlock
 70
     0
  3

 72
    65
 73
     0
 40
0.0
  0
LTYPE
  5
15
330
5
100
AcDbSymbolTableRecord
100
AcDbLinetypeTableRecord
  2
ByLayer
 70
     0
  3

 72
    65
 73
     0
 40
0.0
  0
LTYPE
  5
16
330
5
100
AcDbSymbolTableRecord
100
AcDbLinetypeTableRecord
  2
Continuous
 70
     0
  3
Solid line
 72
    65
 73
     0
 40
0.0
  0
ENDTAB
  0
TABLE
  2
LAYER
  5
2
330
0
100
AcDbSymbolTable
 70
     4
  0
LAYER
  5
10
330
2
100
AcDbSymbolTableRecord
100
AcDbLayerTableRecord
  2
0
 70
     0
 62
     7
  6
Continuous
370
    -3
390
F
347
BB
  0
LAYER
  5
2B
330
2
100
AcDbSymbolTableRecord
100
AcDbLayerTableRecord
  2
ASHADE
 70
     4
 62
     7
  6
Continuous
370
    -3
390
2D
347
BB
  0
LAYER
  5
F9
330
2
100
AcDbSymbolTableRecord
100
AcDbLayerTableRecord
  2
Insert Point
 70
     0
 62
    41
420
 16768895
  6
Continuous
370
    -3
390
F
347
BB
  0
LAYER
  5
FA
330
2
100
AcDbSymbolTableRecord
100
AcDbLayerTableRecord
  2
Material Color - 90
 70
     0
 62
     7
420
 16777215
  6
Continuous
370
    -3
390
F
347
BB
  0
ENDTAB
  0
TABLE
  2
STYLE
  5
3
330
0
100
AcDbSymbolTable
 70
     2
  0
STYLE
  5
11
330
3
100
AcDbSymbolTableRecord
100
AcDbTextStyleTableRecord
  2
Standard
 70
     0
 40
0.0
 41
1.0
 50
0.0
 71
     0
 42
0.2
  3
txt
  4

  0
STYLE
  5
2C
330
3
100
AcDbSymbolTableRecord
100
AcDbTextStyleTableRecord
  2
ASHADE
 70
     0
 40
0.2
 41
1.0
 50
0.0
 71
     0
 42
0.2
  3
simplex
  4

  0
ENDTAB
  0
TABLE
  2
VIEW
  5
6
330
0
100
AcDbSymbolTable
 70
     0
  0
ENDTAB
  0
TABLE
  2
UCS
  5
7
330
0
100
AcDbSymbolTable
 70
     0
  0
ENDTAB
  0
TABLE
  2
APPID
  5
9
330
0
100
AcDbSymbolTable
 70
     6
  0
APPID
  5
12
330
9
100
AcDbSymbolTableRecord
100
AcDbRegAppTableRecord
  2
ACAD
 70
     0
  0
APPID
  5
8F
330
9
100
AcDbSymbolTableRecord
100
AcDbRegAppTableRecord
  2
AVE_RENDER
 70
     0
  0
APPID
  5
90
330
9
100
AcDbSymbolTableRecord
100
AcDbRegAppTableRecord
  2
AVE_ENTITY_MATERIAL
 70
     0
  0
APPID
  5
9C
330
9
100
AcDbSymbolTableRecord
100
AcDbRegAppTableRecord
  2
AVE_FINISH
 70
     0
  0
APPID
  5
9D
330
9
100
AcDbSymbolTableRecord
100
AcDbRegAppTableRecord
  2
AVE_MATERIAL
 70
     0
  0
APPID
  5
9E
330
9
100
AcDbSymbolTableRecord
100
AcDbRegAppTableRecord
  2
AVE_GLOBAL
 70
     0
  0
ENDTAB
  0
TABLE
  2
DIMSTYLE
  5
A
330
0
100
AcDbSymbolTable
 70
     1
100
AcDbDimStyleTable
 71
     0
  0
DIMSTYLE
105
27
330
A
100
AcDbSymbolTableRecord
100
AcDbDimStyleTableRecord
  2
Standard
 70
     0
340
11
  0
ENDTAB
  0
TABLE
  2
BLOCK_RECORD
  5
1
330
0
100
AcDbSymbolTable
 70
     6
  0
BLOCK_RECORD
  5
1F
330
1
100
AcDbSymbolTableRecord
100
AcDbBlockTableRecord
  2
*Model_Space
340
22
 70
     0
280
     1
281
     0
  0
BLOCK_RECORD
  5
1B
330
1
100
AcDbSymbolTableRecord
100
AcDbBlockTableRecord
  2
*Paper_Space
340
1E
 70
     0
280
     1
281
     0
  0
BLOCK_RECORD
  5
23
330
1
100
AcDbSymbolTableRecord
100
AcDbBlockTableRecord
  2
*Paper_Space0
340
26
 70
     0
280
     1
281
     0
  0
BLOCK_RECORD
  5
2E
330
1
100
AcDbSymbolTableRecord
100
AcDbBlockTableRecord
  2
direct
340
0
 70
     0
280
     1
281
     0
  0
BLOCK_RECORD
  5
42
330
1
100
AcDbSymbolTableRecord
100
AcDbBlockTableRecord
  2
overhead
340
0
 70
     0
280
     1
281
     0
  0
BLOCK_RECORD
  5
5F
330
1
100
AcDbSymbolTableRecord
100
AcDbBlockTableRecord
  2
sh_spot
340
0
 70
     0
280
     1
281
     0
  0
BLOCK_RECORD
  5
91
330
1
100
AcDbSymbolTableRecord
100
AcDbBlockTableRecord
  2
AVE_RENDER
340
0
102
{BLKREFS
331
94
331
95
331
96
331
97
331
98
331
99
331
9A
331
9B
102
}
 70
     0
280
     1
281
     0
  0
BLOCK_RECORD
  5
9F
330
1
100
AcDbSymbolTableRecord
100
AcDbBlockTableRecord
  2
AVE_GLOBAL
340
0
102
{BLKREFS
331
A2
102
}
 70
     0
280
     1
281
     0
  0
ENDTAB
  0
ENDSEC
  0
SECTION
  2
BLOCKS
  0
BLOCK
  5
20
330
1F
100
AcDbEntity
  8
0
100
AcDbBlockBegin
  2
*Model_Space
 70
     0
 10
0.0
 20
0.0
 30
0.0
  3
*Model_Space
  1

  0
ENDBLK
  5
21
330
1F
100
AcDbEntity
  8
0
100
AcDbBlockEnd
  0
BLOCK
  5
1C
330
1B
100
AcDbEntity
 67
     1
  8
0
100
AcDbBlockBegin
  2
*Paper_Space
 70
     0
 10
0.0
 20
0.0
 30
0.0
  3
*Paper_Space
  1

  0
ENDBLK
  5
1D
330
1B
100
AcDbEntity
 67
     1
  8
0
100
AcDbBlockEnd
  0
BLOCK
  5
24
330
23
100
AcDbEntity
 67
     1
  8
0
100
AcDbBlockBegin
  2
*Paper_Space0
 70
     0
 10
0.0
 20
0.0
 30
0.0
  3
*Paper_Space0
  1

  0
ENDBLK
  5
25
330
23
100
AcDbEntity
 67
     1
  8
0
100
AcDbBlockEnd
  0
BLOCK
  5
40
330
2E
100
AcDbEntity
  8
0
100
AcDbBlockBegin
  2
direct
 70
     2
 10
0.0
 20
0.0
 30
0.0
  3
direct
  1

  0
ATTDEF
  5
2F
330
2E
100
AcDbEntity
  8
ASHADE
  6
Continuous
 62
     1
100
AcDbText
 10
0.0
 20
-0.1
 30
0.0
 40
0.2
  1

  7
ASHADE
 72
     1
 11
0.0
 21
-0.1
 31
0.0
100
AcDbAttributeDefinition
280
     0
  3
Light Name
  2
SNAME
 70
     0
280
     0
  0
ARC
  5
30
330
2E
100
AcDbEntity
  8
ASHADE
  6
Continuous
 62
     7
100
AcDbCircle
 10
0.0
 20
0.0
 30
0.0
 40
0.3
100
AcDbArc
 50
205.6792886194569
 51
334.3207113805431
  0
ARC
  5
31
330
2E
100
AcDbEntity
  8
ASHADE
  6
Continuous
 62
     7
100
AcDbCircle
 10
0.0
 20
0.0
 30
0.0
 40
0.3
100
AcDbArc
 50
25.67928861945685
 51
154.3207113805431
  0
LINE
  5
32
330
2E
100
AcDbEntity
  8
ASHADE
  6
Continuous
 62
     7
100
AcDbLine
 10
-0.21
 20
0.2142428528562855
 30
0.0
 11
-0.21
 21
0.5
 31
0.0
  0
LINE
  5
33
330
2E
100
AcDbEntity
  8
ASHADE
  6
Continuous
 62
     7
100
AcDbLine
 10
-0.11
 20
0.2791057147390572
 30
0.0
 11
-0.11
 21
0.5
 31
0.0
  0
LINE
  5
34
330
2E
100
AcDbEntity
  8
ASHADE
  6
Continuous
 62
     7
100
AcDbLine
 10
0.21
 20
0.2142428528562855
 30
0.0
 11
0.21
 21
0.5
 31
0.0
  0
ATTDEF
  5
35
330
2E
100
AcDbEntity
  8
ASHADE
  6
Continuous
 62
     7
100
AcDbText
 10
0.0
 20
0.25
 30
0.0
 40
0.01
  1

100
AcDbAttributeDefinition
280
     0
  3
Look-at Y
  2
LAY
 70
     1
280
     0
  0
ATTDEF
  5
36
330
2E
100
AcDbEntity
  8
ASHADE
  6
Continuous
 62
     7
100
AcDbText
 10
0.0
 20
0.22
 30
0.0
 40
0.01
  1
1
100
AcDbAttributeDefinition
280
     0
  3
Light Intensity
  2
INTENSITY
 70
     1
280
     0
  0
ATTDEF
  5
37
330
2E
100
AcDbEntity
  8
ASHADE
  6
Continuous
 62
     7
100
AcDbText
 10
0.0
 20
0.16
 30
0.0
 40
0.01
  1
-1
100
AcDbAttributeDefinition
280
     0
  3
*not used*
  2
BEAMD
 70
     1
280
     0
  0
ATTDEF
  5
38
330
2E
100
AcDbEntity
  8
ASHADE
  6
Continuous
 62
     7
100
AcDbText
 10
0.0
 20
0.175
 30
0.0
 40
0.01
  1
-1
100
AcDbAttributeDefinition
280
     0
  3
*not used*
  2
CONED
 70
     1
280
     0
  0
ATTDEF
  5
39
330
2E
100
AcDbEntity
  8
ASHADE
  6
Continuous
 62
     7
100
AcDbText
 10
0.0
 20
0.19
 30
0.0
 40
0.01
  1
0
100
AcDbAttributeDefinition
280
     0
  3
Depth Map Size
  2
CONEA
 70
     1
280
     0
  0
ATTDEF
  5
3A
330
2E
100
AcDbEntity
  8
ASHADE
  6
Continuous
 62
     7
100
AcDbText
 10
0.0
 20
0.2050000000000001
 30
0.0
 40
0.01
  1
1,1,1
100
AcDbAttributeDefinition
280
     0
  3
Light Color (RGB)
  2
COLOR
 70
     1
280
     0
  0
ATTDEF
  5
3B
330
2E
100
AcDbEntity
  8
ASHADE
  6
Continuous
 62
     7
100
AcDbText
 10
0.0
 20
0.235
 30
0.0
 40
0.01
  1

100
AcDbAttributeDefinition
280
     0
  3
Look-at Z
  2
LAZ
 70
     1
280
     0
  0
LINE
  5
3C
330
2E
100
AcDbEntity
  8
ASHADE
  6
Continuous
 62
     7
100
AcDbLine
 10
0.0
 20
0.3
 30
0.0
 11
0.0
 21
0.5
 31
0.0
  0
LINE
  5
3D
330
2E
100
AcDbEntity
  8
ASHADE
  6
Continuous
 62
     7
100
AcDbLine
 10
0.11
 20
0.2791057147390572
 30
0.0
 11
0.11
 21
0.5
 31
0.0
  0
ATTDEF
  5
3E
330
2E
100
AcDbEntity
  8
ASHADE
  6
Continuous
 62
     7
100
AcDbText
 10
0.0
 20
0.265
 30
0.0
 40
0.01
  1

100
AcDbAttributeDefinition
280
     0
  3
Look-at X
  2
LAX
 70
     1
280
     0
  0
ATTDEF
  5
3F
330
2E
100
AcDbEntity
  8
ASHADE
  6
Continuous
 62
     7
100
AcDbText
 10
0.0
 20
0.28
 30
0.0
 40
0.01
  1

100
AcDbAttributeDefinition
280
     0
  3

  2
GNAME
 70
     1
280
     0
  0
ENDBLK
  5
41
330
2E
100
AcDbEntity
  8
0
100
AcDbBlockEnd
  0
BLOCK
  5
5D
330
42
100
AcDbEntity
  8
0
100
AcDbBlockBegin
  2
overhead
 70
     2
 10
0.0
 20
0.0
 30
0.0
  3
overhead
  1

  0
ATTDEF
  5
43
330
42
100
AcDbEntity
  8
ASHADE
  6
Continuous
 62
     1
100
AcDbText
 10
0.0
 20
-0.1
 30
0.0
 40
0.2
  1

  7
ASHADE
 72
     1
 11
0.0
 21
-0.1
 31
0.0
100
AcDbAttributeDefinition
280
     0
  3
Light Name
  2
SNAME
 70
     0
280
     0
  0
ARC
  5
44
330
42
100
AcDbEntity
  8
ASHADE
  6
Continuous
 62
     7
100
AcDbCircle
 10
0.0
 20
0.0
 30
0.0
 40
0.3
100
AcDbArc
 50
205.6792886194569
 51
334.3207113805431
  0
LINE
  5
45
330
42
100
AcDbEntity
  8
ASHADE
  6
Continuous
 62
     7
100
AcDbLine
 10
-0.2041413561583015
 20
-0.2198324514393848
 30
0.0
 11
-0.2721884748777353
 21
-0.2931099352525131
 31
0.0
  0
LINE
  5
46
330
42
100
AcDbEntity
  8
ASHADE
  6
Continuous
 62
     7
100
AcDbLine
 10
-0.1096591641591904
 20
-0.2792398032442862
 30
0.0
 11
-0.1279356915190555
 21
-0.3257797704516673
 31
0.0
  0
LINE
  5
47
330
42
100
AcDbEntity
  8
ASHADE
  6
Continuous
 62
     7
100
AcDbLine
 10
0.0
 20
-0.2999999999999999
 30
0.0
 11
0.0
 21
-0.4
 31
0.0
  0
LINE
  5
48
330
42
100
AcDbEntity
  8
ASHADE
  6
Continuous
 62
     7
100
AcDbLine
 10
0.1096591641591904
 20
-0.2792398032442862
 30
0.0
 11
0.1279356915190555
 21
-0.3257797704516673
 31
0.0
  0
LINE
  5
49
330
42
100
AcDbEntity
  8
ASHADE
  6
Continuous
 62
     7
100
AcDbLine
 10
0.2041413561583015
 20
-0.2198324514393848
 30
0.0
 11
0.2721884748777353
 21
-0.2931099352525131
 31
0.0
  0
ARC
  5
4A
330
42
100
AcDbEntity
  8
ASHADE
  6
Continuous
 62
     7
100
AcDbCircle
 10
0.0
 20
0.0
 30
0.0
 40
0.3
100
AcDbArc
 50
25.67928861945685
 51
154.3207113805431
  0
LINE
  5
4B
330
42
100
AcDbEntity
  8
ASHADE
  6
Continuous
 62
     7
100
AcDbLine
 10
-0.2703701166919155
 20
0.13
 30
0.0
 11
-0.3154318028072347
 21
0.1516666666666666
 31
0.0
  0
LINE
  5
4C
330
42
100
AcDbEntity
  8
ASHADE
  6
Continuous
 62
     7
100
AcDbLine
 10
-0.2703701166919155
 20
-0.13
 30
0.0
 11
-0.3154318028072347
 21
-0.1516666666666666
 31
0.0
  0
LINE
  5
4D
330
42
100
AcDbEntity
  8
ASHADE
  6
Continuous
 62
     7
100
AcDbLine
 10
-0.2041413561583015
 20
0.2198324514393849
 30
0.0
 11
-0.2721884748777353
 21
0.2931099352525131
 31
0.0
  0
LINE
  5
4E
330
42
100
AcDbEntity
  8
ASHADE
  6
Continuous
 62
     7
100
AcDbLine
 10
-0.1096591641591904
 20
0.2792398032442862
 30
0.0
 11
-0.1279356915190555
 21
0.3257797704516674
 31
0.0
  0
LINE
  5
4F
330
42
100
AcDbEntity
  8
ASHADE
  6
Continuous
 62
     7
100
AcDbLine
 10
0.2703701166919155
 20
-0.13
 30
0.0
 11
0.3154318028072347
 21
-0.1516666666666666
 31
0.0
  0
LINE
  5
50
330
42
100
AcDbEntity
  8
ASHADE
  6
Continuous
 62
     7
100
AcDbLine
 10
0.2703701166919155
 20
0.13
 30
0.0
 11
0.3154318028072347
 21
0.1516666666666666
 31
0.0
  0
LINE
  5
51
330
42
100
AcDbEntity
  8
ASHADE
  6
Continuous
 62
     7
100
AcDbLine
 10
0.0
 20
0.3
 30
0.0
 11
0.0
 21
0.4
 31
0.0
  0
ATTDEF
  5
52
330
42
100
AcDbEntity
  8
ASHADE
  6
Continuous
 62
     7
100
AcDbText
 10
0.0
 20
0.22
 30
0.0
 40
0.01
  1
1
100
AcDbAttributeDefinition
280
     0
  3
Light Intensity
  2
INTENSITY
 70
     1
280
     0
  0
ATTDEF
  5
53
330
42
100
AcDbEntity
  8
ASHADE
  6
Continuous
 62
     7
100
AcDbText
 10
0.0
 20
0.16
 30
0.0
 40
0.01
  1
-1
100
AcDbAttributeDefinition
280
     0
  3
*not used*
  2
BEAMD
 70
     1
280
     0
  0
ATTDEF
  5
54
330
42
100
AcDbEntity
  8
ASHADE
  6
Continuous
 62
     7
100
AcDbText
 10
0.0
 20
0.175
 30
0.0
 40
0.01
  1
-1
100
AcDbAttributeDefinition
280
     0
  3
*not used*
  2
CONED
 70
     1
280
     0
  0
ATTDEF
  5
55
330
42
100
AcDbEntity
  8
ASHADE
  6
Continuous
 62
     7
100
AcDbText
 10
0.0
 20
0.19
 30
0.0
 40
0.01
  1
0
100
AcDbAttributeDefinition
280
     0
  3
Depth Map Size
  2
CONEA
 70
     1
280
     0
  0
ATTDEF
  5
56
330
42
100
AcDbEntity
  8
ASHADE
  6
Continuous
 62
     7
100
AcDbText
 10
0.0
 20
0.2050000000000001
 30
0.0
 40
0.01
  1
1,1,1
100
AcDbAttributeDefinition
280
     0
  3
Light Color (RGB)
  2
COLOR
 70
     1
280
     0
  0
ATTDEF
  5
57
330
42
100
AcDbEntity
  8
ASHADE
  6
Continuous
 62
     7
100
AcDbText
 10
0.0
 20
0.235
 30
0.0
 40
0.01
  1

100
AcDbAttributeDefinition
280
     0
  3
Look-at Z
  2
LAZ
 70
     1
280
     0
  0
ATTDEF
  5
58
330
42
100
AcDbEntity
  8
ASHADE
  6
Continuous
 62
     7
100
AcDbText
 10
0.0
 20
0.25
 30
0.0
 40
0.01
  1

100
AcDbAttributeDefinition
280
     0
  3
Look-at Y
  2
LAY
 70
     1
280
     0
  0
ATTDEF
  5
59
330
42
100
AcDbEntity
  8
ASHADE
  6
Continuous
 62
     7
100
AcDbText
 10
0.0
 20
0.265
 30
0.0
 40
0.01
  1

100
AcDbAttributeDefinition
280
     0
  3
Look-at X
  2
LAX
 70
     1
280
     0
  0
ATTDEF
  5
5A
330
42
100
AcDbEntity
  8
ASHADE
  6
Continuous
 62
     7
100
AcDbText
 10
0.0
 20
0.28
 30
0.0
 40
0.01
  1

100
AcDbAttributeDefinition
280
     0
  3

  2
GNAME
 70
     1
280
     0
  0
LINE
  5
5B
330
42
100
AcDbEntity
  8
ASHADE
  6
Continuous
 62
     7
100
AcDbLine
 10
0.1096591641591904
 20
0.2792398032442862
 30
0.0
 11
0.1279356915190555
 21
0.3257797704516674
 31
0.0
  0
LINE
  5
5C
330
42
100
AcDbEntity
  8
ASHADE
  6
Continuous
 62
     7
100
AcDbLine
 10
0.2041413561583015
 20
0.2198324514393849
 30
0.0
 11
0.2721884748777353
 21
0.2931099352525131
 31
0.0
  0
ENDBLK
  5
5E
330
42
100
AcDbEntity
  8
0
100
AcDbBlockEnd
  0
BLOCK
  5
85
330
5F
100
AcDbEntity
  8
0
100
AcDbBlockBegin
  2
sh_spot
 70
     2
 10
0.0
 20
0.0
 30
0.0
  3
sh_spot
  1

  0
LINE
  5
60
330
5F
100
AcDbEntity
  8
ASHADE
  6
Continuous
 62
     7
100
AcDbLine
 10
0.25
 20
0.26
 30
0.0
 11
-0.25
 21
0.26
 31
0.0
  0
LINE
  5
61
330
5F
100
AcDbEntity
  8
ASHADE
  6
Continuous
 62
     7
100
AcDbLine
 10
-0.25
 20
-0.3399999999999999
 30
0.0
 11
0.25
 21
-0.3399999999999999
 31
0.0
  0
ATTDEF
  5
62
330
5F
100
AcDbEntity
  8
ASHADE
  6
Continuous
 62
     1
100
AcDbText
 10
0.0
 20
-0.1
 30
0.0
 40
0.2
  1

  7
ASHADE
 72
     1
 11
0.0
 21
-0.1
 31
0.0
100
AcDbAttributeDefinition
280
     0
  3
Light Name
  2
SNAME
 70
     0
280
     0
  0
LINE
  5
63
330
5F
100
AcDbEntity
  8
ASHADE
  6
Continuous
 62
     7
100
AcDbLine
 10
-0.25
 20
-0.13
 30
0.0
 11
-0.25
 21
-0.3399999999999999
 31
0.0
  0
LINE
  5
64
330
5F
100
AcDbEntity
  8
ASHADE
  6
Continuous
 62
     7
100
AcDbLine
 10
-0.25
 20
-0.18
 30
0.0
 11
-0.29
 21
-0.18
 31
0.0
  0
LINE
  5
65
330
5F
100
AcDbEntity
  8
ASHADE
  6
Continuous
 62
     7
100
AcDbLine
 10
-0.29
 20
-0.22
 30
0.0
 11
-0.25
 21
-0.22
 31
0.0
  0
LINE
  5
66
330
5F
100
AcDbEntity
  8
ASHADE
  6
Continuous
 62
     7
100
AcDbLine
 10
-0.29
 20
-0.18
 30
0.0
 11
-0.29
 21
-0.22
 31
0.0
  0
LINE
  5
67
330
5F
100
AcDbEntity
  8
ASHADE
  6
Continuous
 62
     7
100
AcDbLine
 10
-0.1045454545454545
 20
0.26
 30
0.0
 11
-0.15
 21
0.46
 31
0.0
  0
LINE
  5
68
330
5F
100
AcDbEntity
  8
ASHADE
  6
Continuous
 62
     7
100
AcDbLine
 10
-0.21
 20
0.26
 30
0.0
 11
-0.301304347826087
 21
0.46
 31
0.0
  0
LINE
  5
69
330
5F
100
AcDbEntity
  8
ASHADE
  6
Continuous
 62
     7
100
AcDbLine
 10
-0.25
 20
0.26
 30
0.0
 11
-0.25
 21
0.13
 31
0.0
  0
LINE
  5
6A
330
5F
100
AcDbEntity
  8
ASHADE
  6
Continuous
 62
     7
100
AcDbLine
 10
-0.25
 20
0.22
 30
0.0
 11
-0.29
 21
0.22
 31
0.0
  0
LINE
  5
6B
330
5F
100
AcDbEntity
  8
ASHADE
  6
Continuous
 62
     7
100
AcDbLine
 10
-0.29
 20
0.1799999999999999
 30
0.0
 11
-0.25
 21
0.1799999999999999
 31
0.0
  0
LINE
  5
6C
330
5F
100
AcDbEntity
  8
ASHADE
  6
Continuous
 62
     7
100
AcDbLine
 10
-0.29
 20
0.22
 30
0.0
 11
-0.29
 21
0.1799999999999999
 31
0.0
  0
ATTDEF
  5
6D
330
5F
100
AcDbEntity
  8
ASHADE
  6
Continuous
 62
     7
100
AcDbText
 10
0.0
 20
-0.24
 30
0.0
 40
0.01
  1
0
100
AcDbAttributeDefinition
280
     0
  3
Depth Map Size
  2
ZSIZE
 70
     1
280
     0
  0
ATTDEF
  5
6E
330
5F
100
AcDbEntity
  8
ASHADE
  6
Continuous
 62
     7
100
AcDbText
 10
0.0
 20
-0.3300000000000001
 30
0.0
 40
0.01
  1
0,0,0
100
AcDbAttributeDefinition
280
     0
  3
Look-from XYZ
  2
LFXYZ
 70
     1
280
     0
  0
ATTDEF
  5
6F
330
5F
100
AcDbEntity
  8
ASHADE
  6
Continuous
 62
     7
100
AcDbText
 10
0.0
 20
-0.315
 30
0.0
 40
0.01
  1
0.0
100
AcDbAttributeDefinition
280
     0
  3
Beam Distribution
  2
BEAMDI
 70
     1
280
     0
  0
ATTDEF
  5
70
330
5F
100
AcDbEntity
  8
ASHADE
  6
Continuous
 62
     7
100
AcDbText
 10
0.0
 20
-0.3
 30
0.0
 40
0.01
  1
0.0
100
AcDbAttributeDefinition
280
     0
  3
Cone Delta
  2
CONEDE
 70
     1
280
     0
  0
ATTDEF
  5
71
330
5F
100
AcDbEntity
  8
ASHADE
  6
Continuous
 62
     7
100
AcDbText
 10
0.0
 20
-0.2850000000000001
 30
0.0
 40
0.01
  1
10.0
100
AcDbAttributeDefinition
280
     0
  3
Cone Angle
  2
CONEAN
 70
     1
280
     0
  0
ATTDEF
  5
72
330
5F
100
AcDbEntity
  8
ASHADE
  6
Continuous
 62
     7
100
AcDbText
 10
0.0
 20
-0.27
 30
0.0
 40
0.01
  1
-1
100
AcDbAttributeDefinition
280
     0
  3
*not used*
  2
BIASMAX
 70
     1
280
     0
  0
ATTDEF
  5
73
330
5F
100
AcDbEntity
  8
ASHADE
  6
Continuous
 62
     7
100
AcDbText
 10
0.0
 20
-0.255
 30
0.0
 40
0.01
  1
-1
100
AcDbAttributeDefinition
280
     0
  3
*not used*
  2
BIASMIN
 70
     1
280
     0
  0
ATTDEF
  5
74
330
5F
100
AcDbEntity
  8
ASHADE
  6
Continuous
 62
     7
100
AcDbText
 10
0.0
 20
-0.225
 30
0.0
 40
0.01
  1
1,1,1
100
AcDbAttributeDefinition
280
     0
  3
Light Color (RGB)
  2
COLOR
 70
     1
280
     0
  0
ATTDEF
  5
75
330
5F
100
AcDbEntity
  8
ASHADE
  6
Continuous
 62
     7
100
AcDbText
 10
0.0
 20
-0.21
 30
0.0
 40
0.01
  1
1
100
AcDbAttributeDefinition
280
     0
  3
Light Intensity
  2
INTENSITY
 70
     1
280
     0
  0
ATTDEF
  5
76
330
5F
100
AcDbEntity
  8
ASHADE
  6
Continuous
 62
     7
100
AcDbText
 10
0.0
 20
-0.15
 30
0.0
 40
0.01
  1

100
AcDbAttributeDefinition
280
     0
  3

  2
GNAME
 70
     1
280
     0
  0
ATTDEF
  5
77
330
5F
100
AcDbEntity
  8
ASHADE
  6
Continuous
 62
     7
100
AcDbText
 10
0.0
 20
-0.195
 30
0.0
 40
0.01
  1

100
AcDbAttributeDefinition
280
     0
  3
Look-at Z
  2
LAZ
 70
     1
280
     0
  0
ATTDEF
  5
78
330
5F
100
AcDbEntity
  8
ASHADE
  6
Continuous
 62
     7
100
AcDbText
 10
0.0
 20
-0.18
 30
0.0
 40
0.01
  1

100
AcDbAttributeDefinition
280
     0
  3
Look-at Y
  2
LAY
 70
     1
280
     0
  0
ATTDEF
  5
79
330
5F
100
AcDbEntity
  8
ASHADE
  6
Continuous
 62
     7
100
AcDbText
 10
0.0
 20
-0.165
 30
0.0
 40
0.01
  1

100
AcDbAttributeDefinition
280
     0
  3
Look-at X
  2
LAX
 70
     1
280
     0
  0
LINE
  5
7A
330
5F
100
AcDbEntity
  8
ASHADE
  6
Continuous
 62
     7
100
AcDbLine
 10
0.25
 20
-0.3399999999999999
 30
0.0
 11
0.25
 21
-0.13
 31
0.0
  0
LINE
  5
7B
330
5F
100
AcDbEntity
  8
ASHADE
  6
Continuous
 62
     7
100
AcDbLine
 10
0.25
 20
-0.18
 30
0.0
 11
0.29
 21
-0.18
 31
0.0
  0
LINE
  5
7C
330
5F
100
AcDbEntity
  8
ASHADE
  6
Continuous
 62
     7
100
AcDbLine
 10
0.29
 20
-0.22
 30
0.0
 11
0.25
 21
-0.22
 31
0.0
  0
LINE
  5
7D
330
5F
100
AcDbEntity
  8
ASHADE
  6
Continuous
 62
     7
100
AcDbLine
 10
0.29
 20
-0.18
 30
0.0
 11
0.29
 21
-0.22
 31
0.0
  0
LINE
  5
7E
330
5F
100
AcDbEntity
  8
ASHADE
  6
Continuous
 62
     7
100
AcDbLine
 10
0.21
 20
0.26
 30
0.0
 11
0.301304347826087
 21
0.46
 31
0.0
  0
LINE
  5
7F
330
5F
100
AcDbEntity
  8
ASHADE
  6
Continuous
 62
     7
100
AcDbLine
 10
0.1045454545454545
 20
0.26
 30
0.0
 11
0.15
 21
0.46
 31
0.0
  0
LINE
  5
80
330
5F
100
AcDbEntity
  8
ASHADE
  6
Continuous
 62
     7
100
AcDbLine
 10
0.0
 20
0.26
 30
0.0
 11
0.0
 21
0.46
 31
0.0
  0
LINE
  5
81
330
5F
100
AcDbEntity
  8
ASHADE
  6
Continuous
 62
     7
100
AcDbLine
 10
0.25
 20
0.13
 30
0.0
 11
0.25
 21
0.26
 31
0.0
  0
LINE
  5
82
330
5F
100
AcDbEntity
  8
ASHADE
  6
Continuous
 62
     7
100
AcDbLine
 10
0.25
 20
0.22
 30
0.0
 11
0.29
 21
0.22
 31
0.0
  0
LINE
  5
83
330
5F
100
AcDbEntity
  8
ASHADE
  6
Continuous
 62
     7
100
AcDbLine
 10
0.29
 20
0.1799999999999999
 30
0.0
 11
0.25
 21
0.1799999999999999
 31
0.0
  0
LINE
  5
84
330
5F
100
AcDbEntity
  8
ASHADE
  6
Continuous
 62
     7
100
AcDbLine
 10
0.29
 20
0.22
 30
0.0
 11
0.29
 21
0.1799999999999999
 31
0.0
  0
ENDBLK
  5
86
330
5F
100
AcDbEntity
  8
0
100
AcDbBlockEnd
  0
BLOCK
  5
92
330
91
100
AcDbEntity
  8
ASHADE
100
AcDbBlockBegin
  2
AVE_RENDER
 70
     0
 10
0.0
 20
0.0
 30
0.0
  3
AVE_RENDER
  1
AVE_RENDER
  0
ENDBLK
  5
93
330
91
100
AcDbEntity
  8
0
100
AcDbBlockEnd
  0
BLOCK
  5
A0
330
9F
100
AcDbEntity
  8
ASHADE
100
AcDbBlockBegin
  2
AVE_GLOBAL
 70
     0
 10
0.0
 20
0.0
 30
0.0
  3
AVE_GLOBAL
  1
AVE_GLOBAL
  0
ENDBLK
  5
A1
330
9F
100
AcDbEntity
  8
0
100
AcDbBlockEnd
  0
ENDSEC
  0
SECTION
  2
ENTITIES
  0
INSERT
  5
94
330
1F
100
AcDbEntity
  8
ASHADE
 62
     1
100
AcDbBlockReference
  2
AVE_RENDER
 10
0.0
 20
0.0
 30
0.0
1001
AVE_RENDER
1002
{
1070
     7
1000
Pref
1070
    30
1070
    20
1070
     1
1070
     0
1000

1070
    10
1070
     1
1070
    10
1040
1.0
1070
     1
1040
0.3
1040
0.7
1040
0.0
1040
10.0
1010
-1.0
1020
-1.0
1030
-1.0
1040
0.3
1070
    49
1070
     0
1070
     0
1010
1.0
1020
1.0
1030
1.0
1040
45.0
1070
     1
1070
     0
1000
WCS
1040
0.0
1070
     0
1040
10.0
1002
}
  0
INSERT
  5
95
330
1F
100
AcDbEntity
  8
ASHADE
 62
     3
100
AcDbBlockReference
  2
AVE_RENDER
 10
0.0
 20
0.0
 30
0.0
1001
AVE_RENDER
1002
{
1070
     0
1000
Full Opt
1070
     0
1070
     1
1070
     1
1070
     1
1070
     0
1070
     0
1070
     0
1070
     1
1070
     1
1040
0.0001
1040
0.0001
1002
}
  0
INSERT
  5
96
330
1F
100
AcDbEntity
  8
ASHADE
 62
     4
100
AcDbBlockReference
  2
AVE_RENDER
 10
0.0
 20
0.0
 30
0.0
1001
AVE_RENDER
1002
{
1070
     0
1000
Quick Opt
1070
     0
1070
     1
1070
     1
1070
     1
1070
     0
1070
     0
1070
     1
1002
}
  0
INSERT
  5
97
330
1F
100
AcDbEntity
  8
ASHADE
 62
     5
100
AcDbBlockReference
  2
AVE_RENDER
 10
0.0
 20
0.0
 30
0.0
1001
AVE_RENDER
1002
{
1070
     1
1000
Scanl Opt
1070
     2
1070
     0
1070
     2
1040
2.0
1040
4.0
1070
     0
1070
     1
1070
     0
1040
0.03
1002
}
  0
INSERT
  5
98
330
1F
100
AcDbEntity
  8
ASHADE
 62
     6
100
AcDbBlockReference
  2
AVE_RENDER
 10
0.0
 20
0.0
 30
0.0
1001
AVE_RENDER
1002
{
1070
     2
1000
Raytr Opt
1070
     2
1070
     0
1070
     2
1040
2.0
1040
4.0
1070
     0
1070
     1
1070
     1
1040
0.03
1070
     3
1040
0.03
1002
}
  0
INSERT
  5
99
330
1F
100
AcDbEntity
  8
ASHADE
 62
     7
100
AcDbBlockReference
  2
AVE_RENDER
 10
0.0
 20
0.0
 30
0.0
1001
AVE_RENDER
1002
{
1070
     0
1000
RFile Opt
1070
     1
1070
   640
1070
   480
1070
 10000
1070
     1
1070
     8
1070
     8
1070
     0
1070
     0
1070
     0
1070
     0
1070
     0
1070
     0
1070
     0
1002
}
  0
INSERT
  5
9A
330
1F
100
AcDbEntity
  8
ASHADE
 62
     8
100
AcDbBlockReference
  2
AVE_RENDER
 10
0.0
 20
0.0
 30
0.0
1001
AVE_RENDER
1002
{
1070
     0
1000
Fog Opt
1070
     0
1070
     0
1040
0.0
1040
1.0
1040
0.0
1040
1.0
1010
0.5
1020
0.5
1030
0.5
1002
}
  0
INSERT
  5
9B
330
1F
100
AcDbEntity
  8
ASHADE
 62
     9
100
AcDbBlockReference
  2
AVE_RENDER
 10
0.0
 20
0.0
 30
0.0
1001
AVE_RENDER
1002
{
1070
     0
1000
BG Opt
1070
     0
1070
     1
1010
0.0
1020
0.0
1030
0.0
1010
1.0
1020
0.0
1030
0.0
1010
0.0
1020
1.0
1030
0.0
1010
0.0
1020
0.0
1030
1.0
1040
0.5
1040
0.33
1040
0.0
1000

1070
     1
1000

1070
     1
1070
     1
1040
1.0
1040
1.0
1040
0.0
1040
0.0
1070
     0
1002
}
  0
INSERT
  5
A2
330
1F
100
AcDbEntity
  8
ASHADE
 62
     1
100
AcDbBlockReference
  2
AVE_GLOBAL
 10
0.0
 20
0.0
 30
0.0
1001
AVE_MATERIAL
1002
{
1000
*GLOBAL*
1000
2
1000
Global finish.
1002
{
1002
}
1002
{
1070
    63
1002
{
1002
{
1010
-1.0
1020
-1.0
1030
-1.0
1002
}
1040
0.1000000014901161
1000

1040
0.0
1002
{
1002
}
1040
0.0
1002
{
1002
}
1040
0.0
1002
}
1002
{
1002
{
1010
-1.0
1020
-1.0
1030
-1.0
1002
}
1040
0.6999999880790711
1000

1040
0.0
1002
{
1002
}
1040
0.0
1002
{
1002
}
1040
0.0
1002
}
1002
{
1002
{
1010
-1.0
1020
-1.0
1030
-1.0
1002
}
1040
0.2000000029802322
1000

1040
0.0
1002
{
1002
}
1040
0.0
1002
{
1002
}
1040
0.0
1002
}
1002
{
1070
     0
1002
{
1070
     1
1002
{
1040
1.0
1040
1.0
1000

1040
0.0
1002
{
1002
}
1040
0.0
1002
{
1002
}
1040
0.0
1002
}
1002
}
1040
1.0
1040
0.0
1040
0.0
1002
}
1002
{
1040
1.0
1040
1.0
1000

1040
0.0
1002
{
1002
}
1040
0.0
1002
{
1002
}
1040
0.0
1002
}
1002
{
1040
0.5
1040
1.0
1000

1040
0.0
1002
{
1002
}
1040
0.0
1002
{
1002
}
1040
0.0
1002
}
1002
{
1070
     0
1040
0.0
1002
{
1002
}
1040
1.0
1002
{
1002
}
1040
0.0
1002
}
1002
{
1040
0.0
1002
{
1002
{
1010
0.0
1020
0.0
1030
0.0
1002
}
1040
1.0
1000

1040
0.0
1002
{
1002
}
1040
0.0
1002
{
1002
}
1040
0.0
1002
}
1002
}
1002
{
1002
{
1070
     1
1002
{
1040
0.0
1040
1.0
1000

1040
0.0
1002
{
1002
}
1040
0.0
1002
{
1002
}
1040
0.0
1002
}
1002
}
1040
0.0
1002
{
1002
}
1010
1.0
1020
0.0
1030
0.0
1010
0.0
1020
1.0
1030
0.0
1010
0.0
1020
0.0
1030
1.0
1070
     0
1002
}
1002
{
1002
{
1040
1.0
1040
1.0
1002
{
1070
     1
1002
{
1040
1.0
1040
1.0
1000

1040
0.0
1002
{
1002
}
1040
0.0
1002
{
1002
}
1040
0.0
1002
}
1002
}
1002
}
1070
     0
1040
0.0
1002
{
1002
}
1002
}
1002
{
1002
}
1002
}
1002
{
1071
        3
1070
     3
1070
     0
1002
{
1070
     2
1070
     0
1070
     0
1040
0.0
1002
}
1070
     0
1070
     2
1002
{
1002
}
1002
}
1002
{
1040
8030.0
1040
190.3000030517578
1040
0.3050000071525574
1040
228.0
1040
545.0
1040
14.0
1040
17.39999961853027
1040
0.4560000002384186
1002
}
1002
}
  0
POLYLINE
  5
FB
330
1F
100
AcDbEntity
  8
Insert Point
100
AcDb2dPolyline
 66
     1
 10
0.0
 20
0.0
 30
4.0
 70
     1
  0
VERTEX
  5
FC
330
FB
100
AcDbEntity
  8
Insert Point
100
AcDbVertex
100
AcDb2dVertex
 10
102.5
 20
42.5
 30
4.0
  0
VERTEX
  5
FD
330
FB
100
AcDbEntity
  8
Insert Point
100
AcDbVertex
100
AcDb2dVertex
 10
102.4218444824219
 20
45.5849609375
 30
4.0
  0
VERTEX
  5
FE
330
FB
100
AcDbEntity
  8
Insert Point
100
AcDbVertex
100
AcDb2dVertex
 10
102.1898956298828
 20
48.62972259521484
 30
4.0
  0
VERTEX
  5
FF
330
FB
100
AcDbEntity
  8
Insert Point
100
AcDbVertex
100
AcDb2dVertex
 10
101.8079528808593
 20
51.63050079345703
 30
4.0
  0
VERTEX
  5
100
330
FB
100
AcDbEntity
  8
Insert Point
100
AcDbVertex
100
AcDb2dVertex
 10
101.27978515625
 20
54.58350372314453
 30
4.0
  0
VERTEX
  5
101
330
FB
100
AcDbEntity
  8
Insert Point
100
AcDbVertex
100
AcDb2dVertex
 10
100.6091918945312
 20
57.4849510192871
 30
4.0
  0
VERTEX
  5
102
330
FB
100
AcDbEntity
  8
Insert Point
100
AcDbVertex
100
AcDb2dVertex
 10
99.79995727539062
 20
60.3310546875
 30
4.0
  0
VERTEX
  5
103
330
FB
100
AcDbEntity
  8
Insert Point
100
AcDbVertex
100
AcDb2dVertex
 10
98.85585784912109
 20
63.11802673339844
 30
4.0
  0
VERTEX
  5
104
330
FB
100
AcDbEntity
  8
Insert Point
100
AcDbVertex
100
AcDb2dVertex
 10
97.78070068359376
 20
65.84208679199218
 30
4.0
  0
VERTEX
  5
105
330
FB
100
AcDbEntity
  8
Insert Point
100
AcDbVertex
100
AcDb2dVertex
 10
96.57824707031251
 20
68.49944305419922
 30
4.0
  0
VERTEX
  5
106
330
FB
100
AcDbEntity
  8
Insert Point
100
AcDbVertex
100
AcDb2dVertex
 10
95.25229644775391
 20
71.0863037109375
 30
4.0
  0
VERTEX
  5
107
330
FB
100
AcDbEntity
  8
Insert Point
100
AcDbVertex
100
AcDb2dVertex
 10
93.80664062500001
 20
73.59889984130859
 30
4.0
  0
VERTEX
  5
108
330
FB
100
AcDbEntity
  8
Insert Point
100
AcDbVertex
100
AcDb2dVertex
 10
92.24505615234376
 20
76.0334243774414
 30
4.0
  0
VERTEX
  5
109
330
FB
100
AcDbEntity
  8
Insert Point
100
AcDbVertex
100
AcDb2dVertex
 10
90.57132720947265
 20
78.3861083984375
 30
4.0
  0
VERTEX
  5
10A
330
FB
100
AcDbEntity
  8
Insert Point
100
AcDbVertex
100
AcDb2dVertex
 10
88.78925323486328
 20
80.65315246582031
 30
4.0
  0
VERTEX
  5
10B
330
FB
100
AcDbEntity
  8
Insert Point
100
AcDbVertex
100
AcDb2dVertex
 10
86.9026107788086
 20
82.83077239990234
 30
4.0
  0
VERTEX
  5
10C
330
FB
100
AcDbEntity
  8
Insert Point
100
AcDbVertex
100
AcDb2dVertex
 10
84.91518402099609
 20
84.91519165039063
 30
4.0
  0
VERTEX
  5
10D
330
FB
100
AcDbEntity
  8
Insert Point
100
AcDbVertex
100
AcDb2dVertex
 10
82.83076477050782
 20
86.9026107788086
 30
4.0
  0
VERTEX
  5
10E
330
FB
100
AcDbEntity
  8
Insert Point
100
AcDbVertex
100
AcDb2dVertex
 10
80.65314483642579
 20
88.78926086425781
 30
4.0
  0
VERTEX
  5
10F
330
FB
100
AcDbEntity
  8
Insert Point
100
AcDbVertex
100
AcDb2dVertex
 10
78.38610076904297
 20
90.57133483886719
 30
4.0
  0
VERTEX
  5
110
330
FB
100
AcDbEntity
  8
Insert Point
100
AcDbVertex
100
AcDb2dVertex
 10
76.03341674804688
 20
92.24505615234376
 30
4.0
  0
VERTEX
  5
111
330
FB
100
AcDbEntity
  8
Insert Point
100
AcDbVertex
100
AcDb2dVertex
 10
73.59889221191406
 20
93.80664062500001
 30
4.0
  0
VERTEX
  5
112
330
FB
100
AcDbEntity
  8
Insert Point
100
AcDbVertex
100
AcDb2dVertex
 10
71.0863037109375
 20
95.25230407714843
 30
4.0
  0
VERTEX
  5
113
330
FB
100
AcDbEntity
  8
Insert Point
100
AcDbVertex
100
AcDb2dVertex
 10
68.49943542480469
 20
96.57824707031251
 30
4.0
  0
VERTEX
  5
114
330
FB
100
AcDbEntity
  8
Insert Point
100
AcDbVertex
100
AcDb2dVertex
 10
65.84207916259765
 20
97.78070068359376
 30
4.0
  0
VERTEX
  5
115
330
FB
100
AcDbEntity
  8
Insert Point
100
AcDbVertex
100
AcDb2dVertex
 10
63.11802673339844
 20
98.85586547851563
 30
4.0
  0
VERTEX
  5
116
330
FB
100
AcDbEntity
  8
Insert Point
100
AcDbVertex
100
AcDb2dVertex
 10
60.3310546875
 20
99.79995727539062
 30
4.0
  0
VERTEX
  5
117
330
FB
100
AcDbEntity
  8
Insert Point
100
AcDbVertex
100
AcDb2dVertex
 10
57.48494720458984
 20
100.6091918945312
 30
4.0
  0
VERTEX
  5
118
330
FB
100
AcDbEntity
  8
Insert Point
100
AcDbVertex
100
AcDb2dVertex
 10
54.58349990844727
 20
101.27978515625
 30
4.0
  0
VERTEX
  5
119
330
FB
100
AcDbEntity
  8
Insert Point
100
AcDbVertex
100
AcDb2dVertex
 10
51.6304931640625
 20
101.8079528808593
 30
4.0
  0
VERTEX
  5
11A
330
FB
100
AcDbEntity
  8
Insert Point
100
AcDbVertex
100
AcDb2dVertex
 10
48.62971496582031
 20
102.1898956298828
 30
4.0
  0
VERTEX
  5
11B
330
FB
100
AcDbEntity
  8
Insert Point
100
AcDbVertex
100
AcDb2dVertex
 10
45.58495712280273
 20
102.4218444824219
 30
4.0
  0
VERTEX
  5
11C
330
FB
100
AcDbEntity
  8
Insert Point
100
AcDbVertex
100
AcDb2dVertex
 10
42.49999618530273
 20
102.5
 30
4.0
  0
VERTEX
  5
11D
330
FB
100
AcDbEntity
  8
Insert Point
100
AcDbVertex
100
AcDb2dVertex
 10
39.41503524780273
 20
102.4218444824219
 30
4.0
  0
VERTEX
  5
11E
330
FB
100
AcDbEntity
  8
Insert Point
100
AcDbVertex
100
AcDb2dVertex
 10
36.37027359008789
 20
102.1898956298828
 30
4.0
  0
VERTEX
  5
11F
330
FB
100
AcDbEntity
  8
Insert Point
100
AcDbVertex
100
AcDb2dVertex
 10
33.36949920654297
 20
101.8079528808593
 30
4.0
  0
VERTEX
  5
120
330
FB
100
AcDbEntity
  8
Insert Point
100
AcDbVertex
100
AcDb2dVertex
 10
30.41649246215821
 20
101.27978515625
 30
4.0
  0
VERTEX
  5
121
330
FB
100
AcDbEntity
  8
Insert Point
100
AcDbVertex
100
AcDb2dVertex
 10
27.51504516601563
 20
100.6091918945312
 30
4.0
  0
VERTEX
  5
122
330
FB
100
AcDbEntity
  8
Insert Point
100
AcDbVertex
100
AcDb2dVertex
 10
24.6689395904541
 20
99.79995727539062
 30
4.0
  0
VERTEX
  5
123
330
FB
100
AcDbEntity
  8
Insert Point
100
AcDbVertex
100
AcDb2dVertex
 10
21.88196563720703
 20
98.85585784912109
 30
4.0
  0
VERTEX
  5
124
330
FB
100
AcDbEntity
  8
Insert Point
100
AcDbVertex
100
AcDb2dVertex
 10
19.15790939331055
 20
97.78070068359376
 30
4.0
  0
VERTEX
  5
125
330
FB
100
AcDbEntity
  8
Insert Point
100
AcDbVertex
100
AcDb2dVertex
 10
16.50055313110351
 20
96.57824707031251
 30
4.0
  0
VERTEX
  5
126
330
FB
100
AcDbEntity
  8
Insert Point
100
AcDbVertex
100
AcDb2dVertex
 10
13.91368865966797
 20
95.25229644775391
 30
4.0
  0
VERTEX
  5
127
330
FB
100
AcDbEntity
  8
Insert Point
100
AcDbVertex
100
AcDb2dVertex
 10
11.4011001586914
 20
93.80664062500001
 30
4.0
  0
VERTEX
  5
128
330
FB
100
AcDbEntity
  8
Insert Point
100
AcDbVertex
100
AcDb2dVertex
 10
8.966567993164062
 20
92.24505615234376
 30
4.0
  0
VERTEX
  5
129
330
FB
100
AcDbEntity
  8
Insert Point
100
AcDbVertex
100
AcDb2dVertex
 10
6.6138916015625
 20
90.57132720947265
 30
4.0
  0
VERTEX
  5
12A
330
FB
100
AcDbEntity
  8
Insert Point
100
AcDbVertex
100
AcDb2dVertex
 10
4.346847534179687
 20
88.78925323486328
 30
4.0
  0
VERTEX
  5
12B
330
FB
100
AcDbEntity
  8
Insert Point
100
AcDbVertex
100
AcDb2dVertex
 10
2.16922378540039
 20
86.9026107788086
 30
4.0
  0
VERTEX
  5
12C
330
FB
100
AcDbEntity
  8
Insert Point
100
AcDbVertex
100
AcDb2dVertex
 10
0.084808349609375
 20
84.91518402099609
 30
4.0
  0
VERTEX
  5
12D
330
FB
100
AcDbEntity
  8
Insert Point
100
AcDbVertex
100
AcDb2dVertex
 10
-1.902614593505859
 20
82.83076477050782
 30
4.0
  0
VERTEX
  5
12E
330
FB
100
AcDbEntity
  8
Insert Point
100
AcDbVertex
100
AcDb2dVertex
 10
-3.789260864257812
 20
80.65314483642579
 30
4.0
  0
VERTEX
  5
12F
330
FB
100
AcDbEntity
  8
Insert Point
100
AcDbVertex
100
AcDb2dVertex
 10
-5.571334838867187
 20
78.38610076904297
 30
4.0
  0
VERTEX
  5
130
330
FB
100
AcDbEntity
  8
Insert Point
100
AcDbVertex
100
AcDb2dVertex
 10
-7.24505615234375
 20
76.03341674804688
 30
4.0
  0
VERTEX
  5
131
330
FB
100
AcDbEntity
  8
Insert Point
100
AcDbVertex
100
AcDb2dVertex
 10
-8.806644439697265
 20
73.59889221191406
 30
4.0
  0
VERTEX
  5
132
330
FB
100
AcDbEntity
  8
Insert Point
100
AcDbVertex
100
AcDb2dVertex
 10
-10.25230026245117
 20
71.0863037109375
 30
4.0
  0
VERTEX
  5
133
330
FB
100
AcDbEntity
  8
Insert Point
100
AcDbVertex
100
AcDb2dVertex
 10
-11.5782470703125
 20
68.49943542480469
 30
4.0
  0
VERTEX
  5
134
330
FB
100
AcDbEntity
  8
Insert Point
100
AcDbVertex
100
AcDb2dVertex
 10
-12.78070068359375
 20
65.84207916259765
 30
4.0
  0
VERTEX
  5
135
330
FB
100
AcDbEntity
  8
Insert Point
100
AcDbVertex
100
AcDb2dVertex
 10
-13.85586547851562
 20
63.11802673339844
 30
4.0
  0
VERTEX
  5
136
330
FB
100
AcDbEntity
  8
Insert Point
100
AcDbVertex
100
AcDb2dVertex
 10
-14.79995727539062
 20
60.3310546875
 30
4.0
  0
VERTEX
  5
137
330
FB
100
AcDbEntity
  8
Insert Point
100
AcDbVertex
100
AcDb2dVertex
 10
-15.60919570922851
 20
57.48494720458984
 30
4.0
  0
VERTEX
  5
138
330
FB
100
AcDbEntity
  8
Insert Point
100
AcDbVertex
100
AcDb2dVertex
 10
-16.27978897094726
 20
54.58349990844727
 30
4.0
  0
VERTEX
  5
139
330
FB
100
AcDbEntity
  8
Insert Point
100
AcDbVertex
100
AcDb2dVertex
 10
-16.80795288085937
 20
51.6304931640625
 30
4.0
  0
VERTEX
  5
13A
330
FB
100
AcDbEntity
  8
Insert Point
100
AcDbVertex
100
AcDb2dVertex
 10
-17.18989944458008
 20
48.62971496582031
 30
4.0
  0
VERTEX
  5
13B
330
FB
100
AcDbEntity
  8
Insert Point
100
AcDbVertex
100
AcDb2dVertex
 10
-17.42184448242187
 20
45.58495712280273
 30
4.0
  0
VERTEX
  5
13C
330
FB
100
AcDbEntity
  8
Insert Point
100
AcDbVertex
100
AcDb2dVertex
 10
-17.5
 20
42.49999618530273
 30
4.0
  0
VERTEX
  5
13D
330
FB
100
AcDbEntity
  8
Insert Point
100
AcDbVertex
100
AcDb2dVertex
 10
-17.42184066772461
 20
39.41503524780273
 30
4.0
  0
VERTEX
  5
13E
330
FB
100
AcDbEntity
  8
Insert Point
100
AcDbVertex
100
AcDb2dVertex
 10
-17.18989562988281
 20
36.37027359008789
 30
4.0
  0
VERTEX
  5
13F
330
FB
100
AcDbEntity
  8
Insert Point
100
AcDbVertex
100
AcDb2dVertex
 10
-16.80794906616211
 20
33.36949920654297
 30
4.0
  0
VERTEX
  5
140
330
FB
100
AcDbEntity
  8
Insert Point
100
AcDbVertex
100
AcDb2dVertex
 10
-16.27978515625
 20
30.41649246215821
 30
4.0
  0
VERTEX
  5
141
330
FB
100
AcDbEntity
  8
Insert Point
100
AcDbVertex
100
AcDb2dVertex
 10
-15.60919189453125
 20
27.51504516601563
 30
4.0
  0
VERTEX
  5
142
330
FB
100
AcDbEntity
  8
Insert Point
100
AcDbVertex
100
AcDb2dVertex
 10
-14.79995727539062
 20
24.6689395904541
 30
4.0
  0
VERTEX
  5
143
330
FB
100
AcDbEntity
  8
Insert Point
100
AcDbVertex
100
AcDb2dVertex
 10
-13.85585784912109
 20
21.88196563720703
 30
4.0
  0
VERTEX
  5
144
330
FB
100
AcDbEntity
  8
Insert Point
100
AcDbVertex
100
AcDb2dVertex
 10
-12.78069686889648
 20
19.15790939331055
 30
4.0
  0
VERTEX
  5
145
330
FB
100
AcDbEntity
  8
Insert Point
100
AcDbVertex
100
AcDb2dVertex
 10
-11.57824325561523
 20
16.50055694580078
 30
4.0
  0
VERTEX
  5
146
330
FB
100
AcDbEntity
  8
Insert Point
100
AcDbVertex
100
AcDb2dVertex
 10
-10.2522964477539
 20
13.91369247436523
 30
4.0
  0
VERTEX
  5
147
330
FB
100
AcDbEntity
  8
Insert Point
100
AcDbVertex
100
AcDb2dVertex
 10
-8.806640625
 20
11.4011001586914
 30
4.0
  0
VERTEX
  5
148
330
FB
100
AcDbEntity
  8
Insert Point
100
AcDbVertex
100
AcDb2dVertex
 10
-7.245048522949218
 20
8.966571807861328
 30
4.0
  0
VERTEX
  5
149
330
FB
100
AcDbEntity
  8
Insert Point
100
AcDbVertex
100
AcDb2dVertex
 10
-5.571327209472656
 20
6.6138916015625
 30
4.0
  0
VERTEX
  5
14A
330
FB
100
AcDbEntity
  8
Insert Point
100
AcDbVertex
100
AcDb2dVertex
 10
-3.789253234863281
 20
4.346847534179687
 30
4.0
  0
VERTEX
  5
14B
330
FB
100
AcDbEntity
  8
Insert Point
100
AcDbVertex
100
AcDb2dVertex
 10
-1.902610778808593
 20
2.16922378540039
 30
4.0
  0
VERTEX
  5
14C
330
FB
100
AcDbEntity
  8
Insert Point
100
AcDbVertex
100
AcDb2dVertex
 10
0.0848121643066406
 20
0.084808349609375
 30
4.0
  0
VERTEX
  5
14D
330
FB
100
AcDbEntity
  8
Insert Point
100
AcDbVertex
100
AcDb2dVertex
 10
2.169227600097656
 20
-1.902610778808593
 30
4.0
  0
VERTEX
  5
14E
330
FB
100
AcDbEntity
  8
Insert Point
100
AcDbVertex
100
AcDb2dVertex
 10
4.346855163574218
 20
-3.789257049560546
 30
4.0
  0
VERTEX
  5
14F
330
FB
100
AcDbEntity
  8
Insert Point
100
AcDbVertex
100
AcDb2dVertex
 10
6.613899230957031
 20
-5.571331024169921
 30
4.0
  0
VERTEX
  5
150
330
FB
100
AcDbEntity
  8
Insert Point
100
AcDbVertex
100
AcDb2dVertex
 10
8.966575622558593
 20
-7.24505615234375
 30
4.0
  0
VERTEX
  5
151
330
FB
100
AcDbEntity
  8
Insert Point
100
AcDbVertex
100
AcDb2dVertex
 10
11.40110397338867
 20
-8.806640625
 30
4.0
  0
VERTEX
  5
152
330
FB
100
AcDbEntity
  8
Insert Point
100
AcDbVertex
100
AcDb2dVertex
 10
13.91369247436523
 20
-10.25230026245117
 30
4.0
  0
VERTEX
  5
153
330
FB
100
AcDbEntity
  8
Insert Point
100
AcDbVertex
100
AcDb2dVertex
 10
16.50055885314941
 20
-11.5782470703125
 30
4.0
  0
VERTEX
  5
154
330
FB
100
AcDbEntity
  8
Insert Point
100
AcDbVertex
100
AcDb2dVertex
 10
19.15791320800781
 20
-12.78069686889648
 30
4.0
  0
VERTEX
  5
155
330
FB
100
AcDbEntity
  8
Insert Point
100
AcDbVertex
100
AcDb2dVertex
 10
21.88197135925293
 20
-13.85586166381836
 30
4.0
  0
VERTEX
  5
156
330
FB
100
AcDbEntity
  8
Insert Point
100
AcDbVertex
100
AcDb2dVertex
 10
24.66894340515137
 20
-14.79995727539062
 30
4.0
  0
VERTEX
  5
157
330
FB
100
AcDbEntity
  8
Insert Point
100
AcDbVertex
100
AcDb2dVertex
 10
27.51504898071289
 20
-15.60919189453125
 30
4.0
  0
VERTEX
  5
158
330
FB
100
AcDbEntity
  8
Insert Point
100
AcDbVertex
100
AcDb2dVertex
 10
30.41649627685547
 20
-16.27978515625
 30
4.0
  0
VERTEX
  5
159
330
FB
100
AcDbEntity
  8
Insert Point
100
AcDbVertex
100
AcDb2dVertex
 10
33.36949920654297
 20
-16.80794906616211
 30
4.0
  0
VERTEX
  5
15A
330
FB
100
AcDbEntity
  8
Insert Point
100
AcDbVertex
100
AcDb2dVertex
 10
36.37027740478516
 20
-17.18989944458008
 30
4.0
  0
VERTEX
  5
15B
330
FB
100
AcDbEntity
  8
Insert Point
100
AcDbVertex
100
AcDb2dVertex
 10
39.4150390625
 20
-17.42184448242187
 30
4.0
  0
VERTEX
  5
15C
330
FB
100
AcDbEntity
  8
Insert Point
100
AcDbVertex
100
AcDb2dVertex
 10
42.5
 20
-17.5
 30
4.0
  0
VERTEX
  5
15D
330
FB
100
AcDbEntity
  8
Insert Point
100
AcDbVertex
100
AcDb2dVertex
 10
45.5849609375
 20
-17.42184066772461
 30
4.0
  0
VERTEX
  5
15E
330
FB
100
AcDbEntity
  8
Insert Point
100
AcDbVertex
100
AcDb2dVertex
 10
48.62972259521484
 20
-17.18989562988281
 30
4.0
  0
VERTEX
  5
15F
330
FB
100
AcDbEntity
  8
Insert Point
100
AcDbVertex
100
AcDb2dVertex
 10
51.63050079345703
 20
-16.80794906616211
 30
4.0
  0
VERTEX
  5
160
330
FB
100
AcDbEntity
  8
Insert Point
100
AcDbVertex
100
AcDb2dVertex
 10
54.58350372314453
 20
-16.27978515625
 30
4.0
  0
VERTEX
  5
161
330
FB
100
AcDbEntity
  8
Insert Point
100
AcDbVertex
100
AcDb2dVertex
 10
57.4849510192871
 20
-15.60919189453125
 30
4.0
  0
VERTEX
  5
162
330
FB
100
AcDbEntity
  8
Insert Point
100
AcDbVertex
100
AcDb2dVertex
 10
60.3310546875
 20
-14.79995727539062
 30
4.0
  0
VERTEX
  5
163
330
FB
100
AcDbEntity
  8
Insert Point
100
AcDbVertex
100
AcDb2dVertex
 10
63.11802673339844
 20
-13.85585784912109
 30
4.0
  0
VERTEX
  5
164
330
FB
100
AcDbEntity
  8
Insert Point
100
AcDbVertex
100
AcDb2dVertex
 10
65.84208679199218
 20
-12.78069686889648
 30
4.0
  0
VERTEX
  5
165
330
FB
100
AcDbEntity
  8
Insert Point
100
AcDbVertex
100
AcDb2dVertex
 10
68.49944305419922
 20
-11.57824325561523
 30
4.0
  0
VERTEX
  5
166
330
FB
100
AcDbEntity
  8
Insert Point
100
AcDbVertex
100
AcDb2dVertex
 10
71.0863037109375
 20
-10.2522964477539
 30
4.0
  0
VERTEX
  5
167
330
FB
100
AcDbEntity
  8
Insert Point
100
AcDbVertex
100
AcDb2dVertex
 10
73.59889984130859
 20
-8.806640625
 30
4.0
  0
VERTEX
  5
168
330
FB
100
AcDbEntity
  8
Insert Point
100
AcDbVertex
100
AcDb2dVertex
 10
76.0334243774414
 20
-7.24505615234375
 30
4.0
  0
VERTEX
  5
169
330
FB
100
AcDbEntity
  8
Insert Point
100
AcDbVertex
100
AcDb2dVertex
 10
78.3861083984375
 20
-5.571331024169921
 30
4.0
  0
VERTEX
  5
16A
330
FB
100
AcDbEntity
  8
Insert Point
100
AcDbVertex
100
AcDb2dVertex
 10
80.65315246582031
 20
-3.789253234863281
 30
4.0
  0
VERTEX
  5
16B
330
FB
100
AcDbEntity
  8
Insert Point
100
AcDbVertex
100
AcDb2dVertex
 10
82.83077239990234
 20
-1.902614593505859
 30
4.0
  0
VERTEX
  5
16C
330
FB
100
AcDbEntity
  8
Insert Point
100
AcDbVertex
100
AcDb2dVertex
 10
84.91519165039063
 20
0.0848121643066406
 30
4.0
  0
VERTEX
  5
16D
330
FB
100
AcDbEntity
  8
Insert Point
100
AcDbVertex
100
AcDb2dVertex
 10
86.9026107788086
 20
2.169227600097656
 30
4.0
  0
VERTEX
  5
16E
330
FB
100
AcDbEntity
  8
Insert Point
100
AcDbVertex
100
AcDb2dVertex
 10
88.78926086425781
 20
4.346851348876953
 30
4.0
  0
VERTEX
  5
16F
330
FB
100
AcDbEntity
  8
Insert Point
100
AcDbVertex
100
AcDb2dVertex
 10
90.57133483886719
 20
6.613899230957031
 30
4.0
  0
VERTEX
  5
170
330
FB
100
AcDbEntity
  8
Insert Point
100
AcDbVertex
100
AcDb2dVertex
 10
92.24505615234376
 20
8.966575622558593
 30
4.0
  0
VERTEX
  5
171
330
FB
100
AcDbEntity
  8
Insert Point
100
AcDbVertex
100
AcDb2dVertex
 10
93.80664062500001
 20
11.40110397338867
 30
4.0
  0
VERTEX
  5
172
330
FB
100
AcDbEntity
  8
Insert Point
100
AcDbVertex
100
AcDb2dVertex
 10
95.25230407714843
 20
13.91369247436523
 30
4.0
  0
VERTEX
  5
173
330
FB
100
AcDbEntity
  8
Insert Point
100
AcDbVertex
100
AcDb2dVertex
 10
96.57824707031251
 20
16.50055885314941
 30
4.0
  0
VERTEX
  5
174
330
FB
100
AcDbEntity
  8
Insert Point
100
AcDbVertex
100
AcDb2dVertex
 10
97.78070068359376
 20
19.15791320800781
 30
4.0
  0
VERTEX
  5
175
330
FB
100
AcDbEntity
  8
Insert Point
100
AcDbVertex
100
AcDb2dVertex
 10
98.85586547851563
 20
21.8819694519043
 30
4.0
  0
VERTEX
  5
176
330
FB
100
AcDbEntity
  8
Insert Point
100
AcDbVertex
100
AcDb2dVertex
 10
99.79995727539062
 20
24.66894340515137
 30
4.0
  0
VERTEX
  5
177
330
FB
100
AcDbEntity
  8
Insert Point
100
AcDbVertex
100
AcDb2dVertex
 10
100.6091918945312
 20
27.51504898071289
 30
4.0
  0
VERTEX
  5
178
330
FB
100
AcDbEntity
  8
Insert Point
100
AcDbVertex
100
AcDb2dVertex
 10
101.27978515625
 20
30.41649627685547
 30
4.0
  0
VERTEX
  5
179
330
FB
100
AcDbEntity
  8
Insert Point
100
AcDbVertex
100
AcDb2dVertex
 10
101.8079528808593
 20
33.36949920654297
 30
4.0
  0
VERTEX
  5
17A
330
FB
100
AcDbEntity
  8
Insert Point
100
AcDbVertex
100
AcDb2dVertex
 10
102.1898956298828
 20
36.37027740478516
 30
4.0
  0
VERTEX
  5
17B
330
FB
100
AcDbEntity
  8
Insert Point
100
AcDbVertex
100
AcDb2dVertex
 10
102.4218444824219
 20
39.4150390625
 30
4.0
  0
SEQEND
  5
17C
330
FB
100
AcDbEntity
  8
Insert Point
  0
MESH
  5
17D
330
1F
100
AcDbEntity
  8
Material Color - 90
160
             31976
310
E87C0000780300000C00000013000000020000003C00000006000000020000000000000000805440000000000000534000000000000010400000000000805440000000000000534000000000000024400C000000130000000A0000003C00000006000000020000000000000000805440000000000000534000000000000010
310
40000000C08D4C54400000000000C0534000000000000024400C00000013000000120000003C0000000600000002000000000000C08D4C54400000000000C0534000000000000024400000000000805440000000000000534000000000000024400C000000130000001A0000003C0000000600000002000000000000000080
310
544000000000000053400000000000001040000000C08D4C54400000000000C0534000000000000010400C00000013000000220000003C0000000600000002000000000000C08D4C54400000000000C053400000000000001040000000C08D4C54400000000000C0534000000000000024400C000000130000002A0000003C
310
0000000600000002000000000000C08D4C54400000000000C0534000000000000010400000000000C05340000000C08D4C544000000000000024400C00000013000000320000003C00000006000000020000000000000000C05340000000C08D4C54400000000000002440000000C08D4C54400000000000C0534000000000
310
000024400C000000130000003A0000003C0000000600000002000000000000C08D4C54400000000000C0534000000000000010400000000000C05340000000C08D4C544000000000000010400C00000013000000420000003C00000006000000020000000000000000C05340000000C08D4C54400000000000001040000000
310
0000C05340000000C08D4C544000000000000024400C000000130000004A0000003C00000006000000020000000000000000C05340000000C08D4C544000000000000010400000000000005340000000000080544000000000000024400C00000013000000520000003C000000060000000200000000000000000053400000
310
00000080544000000000000024400000000000C05340000000C08D4C544000000000000024400C000000130000005A0000003C00000006000000020000000000000000C05340000000C08D4C544000000000000010400000000000005340000000000080544000000000000010400C00000013000000620000003C00000006
310
000000020000000000000000005340000000000080544000000000000010400000000000005340000000000080544000000000000024400C000000130000006A0000003C0000000600000002000000000000000080544000000000000053400000000000002440000000000080544000000000000022400000000000001040
310
0C00000013000000720000003C00000006000000020000000000000000805440000000000000534000000000000010400000000000805440000000000000224000000000000010400C000000130000007A0000003C000000060000000200000000000000008054400000000000005340000000000000244000000000008054
310
40000000000000224000000000000024400C00000013000000820000003C00000006000000020000000000000000805440000000000000224000000000000024400000000000805440000000000000224000000000000010400C000000130000008A0000003C00000006000000020000000000000000005340000000000080
310
54400000000000002440000000C08D4C54400000000000C0534000000000000024400C00000013000000920000003C00000006000000020000000000000000005340000000000080544000000000000024400000000000805440000000000000534000000000000024400C000000130000009A0000003C0000000600000002
310
0000000000000000005340000000000080544000000000000024400000000000002240000000000080544000000000000024400C00000013000000A20000003C00000006000000020000000000000000805440000000000000534000000000000024400000000000002240000000000080544000000000000024400C000000
310
13000000AA0000003C00000006000000020000000000000000805440000000000000224000000000000024400000000000002240000000000080544000000000000024400C00000013000000B20000003C00000006000000020000000000000000002240000000000080544000000000000024400000000000000840000000
310
000000534000000000000024400C00000013000000BA0000003C00000006000000020000000000000000805440000000000000224000000000000024400000000000000840000000000000534000000000000024400C00000013000000C20000003C0000000600000002000000000000000000084000000000000053400000
310
0000000024400000000000005340000000000000084000000000000024400C00000013000000CA0000003C00000006000000020000000000000000805440000000000000224000000000000024400000000000005340000000000000084000000000000024400C00000013000000D20000003C000000060000000200000000
310
00000000000840000000000000534000000000000024400000000000000840000000000000224000000000000024400C00000013000000DA0000003C00000006000000020000000000000000000840000000000000224000000000000024400000000000005340000000000000084000000000000024400C00000013000000
310
E20000003C00000006000000020000000000000000000840000000000000224000000000000024400000000000002240000000000000084000000000000024400C00000013000000EA0000003C0000000600000002000000000000000000224000000000000008400000000000002440000000000000534000000000000008
310
4000000000000024400C00000013000000F20000003C0000000600000002000000000000000000084000000000000022400000000000002440000000000000184000000000486E0E4000000000000024400C00000013000000FA0000003C0000000600000002000000000000000000184000000000486E0E40000000000000
310
24400000000000002240000000000000084000000000000024400C00000013000000020100003C000000060000000200000000000000000008400000000000002240000000000000244000000000486E0E40000000000000184000000000000024400C000000130000000A0100003C00000006000000020000000000000048
310
6E0E4000000000000018400000000000002440000000000000184000000000486E0E4000000000000024400C00000013000000120100003C00000006000000020000000000000000001840000000C08D4C5440000000000000244000000000486E0E400000000000C0534000000000000024400C000000130000001A010000
310
3C000000060000000200000000000000000022400000000000805440000000000000244000000000486E0E400000000000C0534000000000000024400C00000013000000220100003C00000006000000020000000000000000002240000000000080544000000000000024400000000000001840000000C08D4C5440000000
310
00000024400C000000130000002A0100003C000000060000000200000000000000486E0E400000000000C0534000000000000024400000000000000840000000000000534000000000000024400C00000013000000320100003C00000006000000020000000000000000005340000000000000084000000000000024400000
310
000000C0534000000000486E0E4000000000000024400C000000130000003A0100003C00000006000000020000000000000000805440000000000000224000000000000024400000000000C0534000000000486E0E4000000000000024400C00000013000000420100003C00000006000000020000000000000000C0534000
310
000000486E0E400000000000002440000000C08D4C5440000000000000184000000000000024400C000000130000004A0100003C0000000600000002000000000000000080544000000000000022400000000000002440000000C08D4C5440000000000000184000000000000024400C00000013000000520100003C000000
310
06000000020000000000000000005340000000000000084000000000000024400000000000005340000000000000084000000000000010400C000000130000005A0100003C00000006000000020000000000000000C0534000000000486E0E4000000000000024400000000000005340000000000000084000000000000010
310
400C00000013000000620100003C00000006000000020000000000000000005340000000000000084000000000000010400000000000C0534000000000486E0E4000000000000010400C000000130000006A0100003C00000006000000020000000000000000C0534000000000486E0E4000000000000024400000000000C0
310
534000000000486E0E4000000000000010400C00000013000000720100003C0000000600000002000000000000C08D4C5440000000000000184000000000000024400000000000C0534000000000486E0E4000000000000010400C000000130000007A0100003C00000006000000020000000000000000C053400000000048
310
6E0E400000000000001040000000C08D4C5440000000000000184000000000000010400C00000013000000820100003C0000000600000002000000000000C08D4C544000000000000018400000000000002440000000C08D4C5440000000000000184000000000000010400C000000130000008A0100003C00000006000000
310
02000000000000000080544000000000000022400000000000002440000000C08D4C5440000000000000184000000000000010400C00000013000000920100003C0000000600000002000000000000000080544000000000000022400000000000001040000000C08D4C5440000000000000184000000000000010400C0000
310
00130000009A0100003C00000006000000020000000000000000005340000000000000084000000000000024400000000000002240000000000000084000000000000010400C00000013000000A20100003C000000060000000200000000000000000053400000000000000840000000000000104000000000000022400000
310
00000000084000000000000010400C00000013000000AA0100003C00000006000000020000000000000000002240000000000000084000000000000024400000000000002240000000000000084000000000000010400C00000013000000B20100003C00000006000000020000000000000000002240000000000080544000
310
000000000024400000000000002240000000000080544000000000000010400C00000013000000BA0100003C00000006000000020000000000000000001840000000C08D4C544000000000000024400000000000002240000000000080544000000000000010400C00000013000000C20100003C0000000600000002000000
310
0000000000002240000000000080544000000000000010400000000000001840000000C08D4C544000000000000010400C00000013000000CA0100003C00000006000000020000000000000000001840000000C08D4C544000000000000024400000000000001840000000C08D4C544000000000000010400C000000130000
310
00D20100003C000000060000000200000000000000486E0E400000000000C0534000000000000024400000000000001840000000C08D4C544000000000000010400C00000013000000DA0100003C00000006000000020000000000000000001840000000C08D4C5440000000000000104000000000486E0E400000000000C0
310
534000000000000010400C00000013000000E20100003C000000060000000200000000000000486E0E400000000000C05340000000000000244000000000486E0E400000000000C0534000000000000010400C00000013000000EA0100003C0000000600000002000000000000000000084000000000000053400000000000
310
00244000000000486E0E400000000000C0534000000000000010400C00000013000000F20100003C000000060000000200000000000000486E0E400000000000C0534000000000000010400000000000000840000000000000534000000000000010400C00000013000000FA0100003C000000060000000200000000000000
310
00000840000000000000534000000000000024400000000000000840000000000000534000000000000010400C00000013000000020200003C00000006000000020000000000000000005340000000000080544000000000000010400000000000002240000000000080544000000000000024400C000000130000000A0200
310
003C00000006000000020000000000000000005340000000000080544000000000000010400000000000002240000000000080544000000000000010400C00000013000000120200003C0000000600000002000000000000000000084000000000000022400000000000002440000000000000084000000000000022400000
310
0000000010400C000000130000001A0200003C000000060000000200000000000000486E0E40000000000000184000000000000024400000000000000840000000000000224000000000000010400C00000013000000220200003C000000060000000200000000000000000008400000000000002240000000000000104000
310
000000486E0E40000000000000184000000000000010400C000000130000002A0200003C000000060000000200000000000000486E0E400000000000001840000000000000244000000000486E0E40000000000000184000000000000010400C00000013000000320200003C00000006000000020000000000000000001840
310
00000000486E0E40000000000000244000000000486E0E40000000000000184000000000000010400C000000130000003A0200003C000000060000000200000000000000486E0E4000000000000018400000000000001040000000000000184000000000486E0E4000000000000010400C00000013000000420200003C0000
310
000600000002000000000000000000184000000000486E0E400000000000002440000000000000184000000000486E0E4000000000000010400C000000130000004A0200003C0000000600000002000000000000000000224000000000000008400000000000002440000000000000184000000000486E0E40000000000000
310
10400C00000013000000520200003C0000000600000002000000000000000000224000000000000008400000000000001040000000000000184000000000486E0E4000000000000010400C000000130000005A0200003C0000000600000002000000000000C08D4C54400000000000C0534000000000000010400000000000
310
005340000000000080544000000000000010400C00000013000000620200003C00000006000000020000000000000000805440000000000000534000000000000010400000000000005340000000000080544000000000000010400C000000130000006A0200003C0000000600000002000000000000000080544000000000
310
0000534000000000000010400000000000000840000000000000224000000000000010400C00000013000000720200003C00000006000000020000000000000000005340000000000080544000000000000010400000000000000840000000000000224000000000000010400C000000130000007A0200003C000000060000
310
00020000000000000000805440000000000000534000000000000010400000000000002240000000000000084000000000000010400C00000013000000820200003C00000006000000020000000000000000002240000000000000084000000000000010400000000000000840000000000000224000000000000010400C00
310
0000130000008A0200003C0000000600000002000000000000000000084000000000000022400000000000001040000000000000184000000000486E0E4000000000000010400C00000013000000920200003C0000000600000002000000000000000080544000000000000022400000000000001040000000000000224000
310
0000000000084000000000000010400C000000130000009A0200003C00000006000000020000000000000000805440000000000000224000000000000010400000000000005340000000000000084000000000000010400C00000013000000A20200003C000000060000000200000000000000008054400000000000002240
310
00000000000010400000000000C0534000000000486E0E4000000000000010400C00000013000000AA0200003C00000006000000020000000000000000000840000000000000534000000000000010400000000000000840000000000000224000000000000010400C00000013000000B20200003C00000006000000020000
310
000000000000005340000000000080544000000000000010400000000000000840000000000000534000000000000010400C00000013000000BA0200003C00000006000000020000000000000000002240000000000080544000000000000010400000000000000840000000000000534000000000000010400C0000001300
310
0000C20200003C000000060000000200000000000000000022400000000000805440000000000000104000000000486E0E400000000000C0534000000000000010400C00000013000000CA0200003C000000060000000200000000000000000008400000000000002240000000000000244000000000000008400000000000
310
00534000000000000010400C00000013000000D20200003C00000006000000020000000000000000000000000000000000224000000000000024400000000000000000000000000000224000000000000034400C00000013000000DA0200003C00000006000000020000000000000000000000000000000000224000000000
310
0000244000000000D84AF33F000000000000124000000000000034400C00000013000000E20200003C000000060000000200000000000000D84AF33F000000000000124000000000000034400000000000000000000000000000224000000000000034400C00000013000000EA0200003C0000000600000002000000000000
310
00000000000000000000002240000000000000244000000000D84AF33F000000000000124000000000000024400C00000013000000F20200003C000000060000000200000000000000D84AF33F0000000000001240000000000000244000000000D84AF33F000000000000124000000000000034400C00000013000000FA02
310
00003C000000060000000200000000000000D84AF33F00000000000012400000000000002440000000000000124000000000D84AF33F00000000000034400C00000013000000020300003C0000000600000002000000000000000000124000000000D84AF33F000000000000344000000000D84AF33F000000000000124000
310
000000000034400C000000130000000A0300003C000000060000000200000000000000D84AF33F00000000000012400000000000002440000000000000124000000000D84AF33F00000000000024400C00000013000000120300003C0000000600000002000000000000000000124000000000D84AF33F0000000000002440
310
000000000000124000000000D84AF33F00000000000034400C000000130000001A0300003C0000000600000002000000000000000000124000000000D84AF33F00000000000024400000000000002240000000000000000000000000000034400C00000013000000220300003C000000060000000200000000000000000022
310
4000000000000000000000000000003440000000000000124000000000D84AF33F00000000000034400C000000130000002A0300003C0000000600000002000000000000000000124000000000D84AF33F00000000000024400000000000002240000000000000000000000000000024400C00000013000000320300003C00
310
000006000000020000000000000000002240000000000000000000000000000024400000000000002240000000000000000000000000000034400C000000130000003A0300003C0000000600000002000000000000000000000000000000000022400000000000003440000000000000000000000000000053400000000000
310
0024400C00000013000000420300003C00000006000000020000000000000000000000000000000000224000000000000024400000000000000000000000000000534000000000000024400C000000130000004A0300003C000000060000000200000000000000000000000000000000002240000000000000344000000000
310
00000000000000000000534000000000000034400C00000013000000520300003C00000006000000020000000000000000000000000000000000534000000000000034400000000000000000000000000000534000000000000024400C000000130000005A0300003C00000006000000020000000000000000001240000000
310
00D84AF33F00000000000034400000000000000000000000000000224000000000000034400C00000013000000620300003C00000006000000020000000000000000002240000000000000000000000000000034400000000000000000000000000000224000000000000034400C000000130000006A0300003C0000000600
310
0000020000000000000000002240000000000000000000000000000034400000000000005340000000000000000000000000000034400C00000013000000720300003C00000006000000020000000000000000000000000000000000224000000000000034400000000000005340000000000000000000000000000034400C
310
000000130000007A0300003C0000000600000002000000000000000020544000000000D84AF33F00000000000034400000000000405540000000000000224000000000000034400C00000013000000820300003C00000006000000020000000000000000005340000000000000000000000000000034400000000000405540
310
000000000000224000000000000034400C000000130000008A0300003C0000000600000002000000000000000000534000000000000000000000000000003440000000000020544000000000D84AF33F00000000000034400C00000013000000920300003C0000000600000002000000000000000000000000000000000053
310
4000000000000034400000000000405540000000000000224000000000000034400C000000130000009A0300003C00000006000000020000000000000000000000000000000000534000000000000034400000000000005340000000000000000000000000000034400C00000013000000A20300003C000000060000000200
310
0000000000000020544000000000D84AF33F0000000000003440000000C0D4F25440000000000000124000000000000034400C00000013000000AA0300003C0000000600000002000000000000C0D4F25440000000000000124000000000000034400000000000405540000000000000224000000000000034400C00000013
310
000000B20300003C00000006000000020000000000000000405540000000000000224000000000000034400000000000002240000000000040554000000000000034400C00000013000000BA0300003C0000000600000002000000000000000000000000000000000053400000000000003440000000000000224000000000
310
0040554000000000000034400C00000013000000C20300003C00000006000000020000000000000000405540000000000000224000000000000034400000000000405540000000000000534000000000000034400C00000013000000CA0300003C000000060000000200000000000000004055400000000000005340000000
310
00000034400000000000002240000000000040554000000000000034400C00000013000000D20300003C00000006000000020000000000000000405540000000000000534000000000000034400000000000005340000000000040554000000000000034400C00000013000000DA0300003C00000006000000020000000000
310
000000005340000000000040554000000000000034400000000000002240000000000040554000000000000034400C00000013000000E20300003C0000000600000002000000000000000040554000000000000053400000000000003440000000C0D4F25440000000000020544000000000000034400C00000013000000EA
310
0300003C0000000600000002000000000000C0D4F25440000000000020544000000000000034400000000000005340000000000040554000000000000034400C00000013000000F20300003C0000000600000002000000000000C0D4F25440000000000020544000000000000034400000000000205440000000C0D4F25440
310
00000000000034400C00000013000000FA0300003C00000006000000020000000000000000205440000000C0D4F2544000000000000034400000000000005340000000000040554000000000000034400C00000013000000020400003C00000006000000020000000000000000001240000000C0D4F2544000000000000034
310
4000000000D84AF33F000000000020544000000000000034400C000000130000000A0400003C000000060000000200000000000000000022400000000000405540000000000000344000000000D84AF33F000000000020544000000000000034400C00000013000000120400003C0000000600000002000000000000000000
310
2240000000000040554000000000000034400000000000001240000000C0D4F2544000000000000034400C000000130000001A0400003C000000060000000200000000000000000000000000000000005340000000000000344000000000D84AF33F000000000020544000000000000034400C00000013000000220400003C
310
00000006000000020000000000000000005340000000000000000000000000000034400000000000005340000000000000000000000000000024400C000000130000002A0400003C0000000600000002000000000000000020544000000000D84AF33F00000000000034400000000000005340000000000000000000000000
310
000024400C00000013000000320400003C0000000600000002000000000000000000534000000000000000000000000000002440000000000020544000000000D84AF33F00000000000024400C000000130000003A0400003C0000000600000002000000000000000020544000000000D84AF33F0000000000003440000000
310
000020544000000000D84AF33F00000000000024400C00000013000000420400003C0000000600000002000000000000C0D4F2544000000000000012400000000000003440000000000020544000000000D84AF33F00000000000024400C000000130000004A0400003C000000060000000200000000000000002054400000
310
0000D84AF33F0000000000002440000000C0D4F25440000000000000124000000000000024400C00000013000000520400003C0000000600000002000000000000C0D4F2544000000000000012400000000000003440000000C0D4F25440000000000000124000000000000024400C000000130000005A0400003C00000006
310
00000002000000000000000040554000000000000022400000000000003440000000C0D4F25440000000000000124000000000000024400C00000013000000620400003C0000000600000002000000000000C0D4F2544000000000000012400000000000002440000000000040554000000000000022400000000000002440
310
0C000000130000006A0400003C00000006000000020000000000000000405540000000000000224000000000000034400000000000405540000000000000224000000000000024400C00000013000000720400003C000000060000000200000000000000004055400000000000005340000000000000344000000000004055
310
40000000000000224000000000000024400C000000130000007A0400003C00000006000000020000000000000000405540000000000000224000000000000024400000000000405540000000000000534000000000000024400C00000013000000820400003C00000006000000020000000000000000405540000000000000
310
534000000000000034400000000000405540000000000000534000000000000024400C000000130000008A0400003C0000000600000002000000000000C0D4F25440000000000020544000000000000034400000000000405540000000000000534000000000000024400C00000013000000920400003C0000000600000002
310
000000000000000040554000000000000053400000000000002440000000C0D4F25440000000000020544000000000000024400C000000130000009A0400003C0000000600000002000000000000C0D4F2544000000000002054400000000000003440000000C0D4F25440000000000020544000000000000024400C000000
310
13000000A20400003C00000006000000020000000000000000205440000000C0D4F254400000000000003440000000C0D4F25440000000000020544000000000000024400C00000013000000AA0400003C0000000600000002000000000000C0D4F25440000000000020544000000000000024400000000000205440000000
310
C0D4F2544000000000000024400C00000013000000B20400003C00000006000000020000000000000000205440000000C0D4F2544000000000000034400000000000205440000000C0D4F2544000000000000024400C00000013000000BA0400003C0000000600000002000000000000000000534000000000004055400000
310
0000000034400000000000205440000000C0D4F2544000000000000024400C00000013000000C20400003C00000006000000020000000000000000205440000000C0D4F2544000000000000024400000000000005340000000000040554000000000000024400C00000013000000CA0400003C000000060000000200000000
310
00000000005340000000000040554000000000000034400000000000005340000000000040554000000000000024400C00000013000000D20400003C00000006000000020000000000000000002240000000000040554000000000000034400000000000002240000000000040554000000000000024400C00000013000000
310
DA0400003C00000006000000020000000000000000001240000000C0D4F2544000000000000034400000000000002240000000000040554000000000000024400C00000013000000E20400003C00000006000000020000000000000000002240000000000040554000000000000024400000000000001240000000C0D4F254
310
4000000000000024400C00000013000000EA0400003C00000006000000020000000000000000001240000000C0D4F2544000000000000034400000000000001240000000C0D4F2544000000000000024400C00000013000000F20400003C000000060000000200000000000000D84AF33F0000000000205440000000000000
310
34400000000000001240000000C0D4F2544000000000000024400C00000013000000FA0400003C00000006000000020000000000000000001240000000C0D4F25440000000000000244000000000D84AF33F000000000020544000000000000024400C00000013000000020500003C000000060000000200000000000000D8
310
4AF33F0000000000205440000000000000344000000000D84AF33F000000000020544000000000000024400C000000130000000A0500003C000000060000000200000000000000000000000000000000005340000000000000344000000000D84AF33F000000000020544000000000000024400C0000001300000012050000
310
3C000000060000000200000000000000000000000000000000005340000000000000244000000000D84AF33F000000000020544000000000000024400C000000130000001A0500003C0000000600000002000000000000000000000000000000000022400000000000002440000000000000124000000000D84AF33F000000
310
00000024400C00000013000000220500003C00000006000000020000000000000000000000000000000000224000000000000024400000000000002240000000000000000000000000000024400C000000130000002A0500003C00000006000000020000000000000000000000000000000000224000000000000024400000
310
000000405540000000000000534000000000000024400C00000013000000320500003C00000006000000020000000000000000002240000000000000000000000000000024400000000000405540000000000000534000000000000024400C000000130000003A0500003C0000000600000002000000000000000000224000
310
0000000000000000000000000024400000000000405540000000000000224000000000000024400C00000013000000420500003C00000006000000020000000000000000000000000000000000224000000000000024400000000000005340000000000040554000000000000024400C000000130000004A0500003C000000
310
06000000020000000000000000405540000000000000534000000000000024400000000000005340000000000040554000000000000024400C00000013000000520500003C00000006000000020000000000000000000000000000000000534000000000000024400000000000005340000000000040554000000000000024
310
400C000000130000005A0500003C00000006000000020000000000000000000000000000000000534000000000000024400000000000002240000000000040554000000000000024400C00000013000000620500003C0000000600000002000000000000000000534000000000004055400000000000002440000000000000
310
2240000000000040554000000000000024400C000000130000006A0500003C000000060000000200000000000000000022400000000000405540000000000000244000000000D84AF33F000000000020544000000000000024400C00000013000000720500003C0000000600000002000000000000C0D4F254400000000000
310
20544000000000000024400000000000005340000000000040554000000000000024400C000000130000007A0500003C0000000600000002000000000000000020544000000000D84AF33F00000000000024400000000000405540000000000000224000000000000024400C00000013000000820500003C00000006000000
310
020000000000000000005340000000000000000000000000000024400000000000405540000000000000224000000000000024400C000000130000008A0500003C00000006000000020000000000000000002240000000000000000000000000000024400000000000005340000000000000000000000000000024400C0000
310
0013000000920500003C00000006000000020000000000000000002240000000000000000000000000000024400000000000005340000000000000000000000000000034400C000000130000009A0500003C000000060000000200000000000000000022400000000000405540000000000000344000000000000053400000
310
00000040554000000000000024400C00000013000000A20500003C0000000600000002000000000000E046A653400000000000605340000000000000404000000040B9595240000000000060534000000000000040400C00000013000000AA0500003C00000006000000020000000000000000C05340000000000000534000
310
0000000000404000000040B9595240000000000060534000000000000040400C00000013000000B20500003C00000006000000020000000000000000C0534000000000000053400000000000004040000000E046A65340000000000060534000000000000040400C00000013000000BA0500003C0000000600000002000000
310
00000040B9595240000000000060534000000000000040400000000000405240000000000000534000000000000040400C00000013000000C20500003C00000006000000020000000000000000C05340000000000000534000000000000040400000000000405240000000000000534000000000000040400C000000130000
310
00CA0500003C0000000600000002000000000000000040524000000000000053400000000000004040000000E046A653400000000000A0524000000000000040400C00000013000000D20500003C00000006000000020000000000000000C0534000000000000053400000000000004040000000E046A653400000000000A0
310
524000000000000040400C00000013000000DA0500003C000000060000000200000000000000004052400000000000005340000000000000404000000040B95952400000000000A0524000000000000040400C00000013000000E20500003C000000060000000200000000000040B95952400000000000A052400000000000
310
004040000000E046A653400000000000A0524000000000000040400C00000013000000EA0500003C000000060000000200000000000040B95952400000000000A052400000000000004040000000000060534000000040B959524000000000000040400C00000013000000F20500003C000000060000000200000000000000
310
0060534000000040B95952400000000000004040000000E046A653400000000000A0524000000000000040400C00000013000000FA0500003C000000060000000200000000000040B95952400000000000A0524000000000000040400000000000A0524000000040B959524000000000000040400C00000013000000020600
310
003C00000006000000020000000000000000A0524000000040B95952400000000000004040000000000060534000000040B959524000000000000040400C000000130000000A0600003C00000006000000020000000000000000A0524000000040B95952400000000000004040000000000000534000000000004052400000
310
0000000040400C00000013000000120600003C0000000600000002000000000000000000534000000000004052400000000000004040000000000060534000000040B959524000000000000040400C000000130000001A0600003C0000000600000002000000000000E046A653400000000000605340000000000000404000
310
00000000A05240000000E046A6534000000000000040400C00000013000000220600003C00000006000000020000000000000000A05240000000E046A65340000000000000404000000040B9595240000000000060534000000000000040400C000000130000002A0600003C0000000600000002000000000000E046A65340
310
000000000060534000000000000040400000000000605340000000E046A6534000000000000040400C00000013000000320600003C00000006000000020000000000000000605340000000E046A6534000000000000040400000000000A05240000000E046A6534000000000000040400C000000130000003A0600003C0000
310
0006000000020000000000000000605340000000E046A65340000000000000404000000000000053400000000000C0534000000000000040400C00000013000000420600003C000000060000000200000000000000000053400000000000C0534000000000000040400000000000A05240000000E046A65340000000000000
310
40400C000000130000004A0600003C0000000600000002000000000000E0B3DD534000000000008052400000000000003440000000404C225240000000000080524000000000000034400C00000013000000520600003C0000000600000002000000000000000000544000000000000053400000000000003440000000404C
310
225240000000000080524000000000000034400C000000130000005A0600003C0000000600000002000000000000000000544000000000000053400000000000003440000000E0B3DD5340000000000080524000000000000034400C00000013000000620600003C0000000600000002000000000000404C22524000000000
310
0080524000000000000034400000000000005240000000000000534000000000000034400C000000130000006A0600003C00000006000000020000000000000000005440000000000000534000000000000034400000000000005240000000000000534000000000000034400C00000013000000720600003C000000060000
310
0002000000000000000000524000000000000053400000000000003440000000E0B3DD5340000000000080534000000000000034400C000000130000007A0600003C0000000600000002000000000000000000544000000000000053400000000000003440000000E0B3DD5340000000000080534000000000000034400C00
310
000013000000820600003C0000000600000002000000000000000000524000000000000053400000000000003440000000404C225240000000000080534000000000000034400C000000130000008A0600003C0000000600000002000000000000404C22524000000000008053400000000000003440000000E0B3DD534000
310
0000000080534000000000000034400C00000013000000920600003C0000000600000002000000000000404C225240000000000080534000000000000034400000000000805340000000E0B3DD534000000000000034400C000000130000009A0600003C00000006000000020000000000000000805340000000E0B3DD5340
310
0000000000003440000000E0B3DD5340000000000080534000000000000034400C00000013000000A20600003C0000000600000002000000000000404C225240000000000080534000000000000034400000000000805240000000E0B3DD534000000000000034400C00000013000000AA0600003C00000006000000020000
310
000000000000805240000000E0B3DD534000000000000034400000000000805340000000E0B3DD534000000000000034400C00000013000000B20600003C00000006000000020000000000000000805240000000E0B3DD534000000000000034400000000000005340000000000000544000000000000034400C0000001300
310
0000BA0600003C00000006000000020000000000000000005340000000000000544000000000000034400000000000805340000000E0B3DD534000000000000034400C00000013000000C20600003C0000000600000002000000000000E0B3DD5340000000000080524000000000000034400000000000805240000000404C
310
22524000000000000034400C00000013000000CA0600003C00000006000000020000000000000000805240000000404C2252400000000000003440000000404C225240000000000080524000000000000034400C00000013000000D20600003C0000000600000002000000000000E0B3DD5340000000000080524000000000
310
000034400000000000805340000000404C22524000000000000034400C00000013000000DA0600003C00000006000000020000000000000000805340000000404C22524000000000000034400000000000805240000000404C22524000000000000034400C00000013000000E20600003C0000000600000002000000000000
310
0000805340000000404C22524000000000000034400000000000005340000000000000524000000000000034400C00000013000000EA0600003C00000006000000020000000000000000005340000000000000524000000000000034400000000000805240000000404C22524000000000000034400C00000013000000F206
310
00003C0000000600000002000000000000E046A6534000000000006053400000000000004040000000E0B3DD5340000000000080534000000000000034400C00000013000000FA0600003C0000000600000002000000000000E046A65340000000000060534000000000000040400000000000005440000000000000534000
310
000000000034400C00000013000000020700003C00000006000000020000000000000000C05340000000000000534000000000000040400000000000005440000000000000534000000000000034400C000000130000000A0700003C00000006000000020000000000000000C0534000000000000053400000000000004040
310
000000E0B3DD5340000000000080524000000000000034400C00000013000000120700003C0000000600000002000000000000E046A653400000000000A052400000000000004040000000E0B3DD5340000000000080524000000000000034400C000000130000001A0700003C0000000600000002000000000000E046A653
310
400000000000A0524000000000000040400000000000805340000000404C22524000000000000034400C00000013000000220700003C0000000600000002000000000000000060534000000040B959524000000000000040400000000000805340000000404C22524000000000000034400C000000130000002A0700003C00
310
00000600000002000000000000000060534000000040B959524000000000000040400000000000005340000000000000524000000000000034400C00000013000000320700003C0000000600000002000000000000000000534000000000004052400000000000004040000000000000534000000000000052400000000000
310
0034400C000000130000003A0700003C00000006000000020000000000000000005340000000000040524000000000000040400000000000805240000000404C22524000000000000034400C00000013000000420700003C00000006000000020000000000000000A0524000000040B9595240000000000000404000000000
310
00805240000000404C22524000000000000034400C000000130000004A0700003C00000006000000020000000000000000A0524000000040B95952400000000000004040000000404C225240000000000080524000000000000034400C00000013000000520700003C000000060000000200000000000040B9595240000000
310
0000A052400000000000004040000000404C225240000000000080524000000000000034400C000000130000005A0700003C000000060000000200000000000040B95952400000000000A0524000000000000040400000000000005240000000000000534000000000000034400C00000013000000620700003C0000000600
310
0000020000000000000000405240000000000000534000000000000040400000000000005240000000000000534000000000000034400C000000130000006A0700003C0000000600000002000000000000000040524000000000000053400000000000004040000000404C225240000000000080534000000000000034400C
310
00000013000000720700003C000000060000000200000000000040B959524000000000006053400000000000004040000000404C225240000000000080534000000000000034400C000000130000007A0700003C000000060000000200000000000040B9595240000000000060534000000000000040400000000000805240
310
000000E0B3DD534000000000000034400C00000013000000820700003C00000006000000020000000000000000A05240000000E046A6534000000000000040400000000000805240000000E0B3DD534000000000000034400C000000130000008A0700003C00000006000000020000000000000000A05240000000E046A653
310
4000000000000040400000000000005340000000000000544000000000000034400C00000013000000920700003C000000060000000200000000000000000053400000000000C0534000000000000040400000000000005340000000000000544000000000000034400C000000130000009A0700003C000000060000000200
310
000000000000000053400000000000C0534000000000000040400000000000805340000000E0B3DD534000000000000034400C00000013000000A20700003C00000006000000020000000000000000605340000000E046A6534000000000000040400000000000805340000000E0B3DD534000000000000034400C00000013
310
000000AA0700003C00000006000000020000000000000000605340000000E046A653400000000000004040000000E0B3DD5340000000000080534000000000000034400C00000013000000B20700003C0000000600000002000000000000E046A653400000000000002540000000000000404000000040B959524000000000
310
0000254000000000000040400C00000013000000BA0700003C00000006000000020000000000000000C053400000000000002240000000000000404000000040B9595240000000000000254000000000000040400C00000013000000C20700003C00000006000000020000000000000000C053400000000000002240000000
310
0000004040000000E046A65340000000000000254000000000000040400C00000013000000CA0700003C000000060000000200000000000040B9595240000000000000254000000000000040400000000000405240000000000000224000000000000040400C00000013000000D20700003C00000006000000020000000000
310
000000C05340000000000000224000000000000040400000000000405240000000000000224000000000000040400C00000013000000DA0700003C0000000600000002000000000000000040524000000000000022400000000000004040000000E046A653400000000000001E4000000000000040400C00000013000000E2
310
0700003C00000006000000020000000000000000C0534000000000000022400000000000004040000000E046A653400000000000001E4000000000000040400C00000013000000EA0700003C000000060000000200000000000000004052400000000000002240000000000000404000000040B95952400000000000001E40
310
00000000000040400C00000013000000F20700003C000000060000000200000000000040B95952400000000000001E400000000000004040000000E046A653400000000000001E4000000000000040400C00000013000000FA0700003C000000060000000200000000000040B95952400000000000001E4000000000000040
310
40000000000060534000000000929B194000000000000040400C00000013000000020800003C0000000600000002000000000000000060534000000000929B19400000000000004040000000E046A653400000000000001E4000000000000040400C000000130000000A0800003C000000060000000200000000000040B959
310
52400000000000001E4000000000000040400000000000A0524000000000929B194000000000000040400C00000013000000120800003C00000006000000020000000000000000A0524000000000929B19400000000000004040000000000060534000000000929B194000000000000040400C000000130000001A0800003C
310
00000006000000020000000000000000A0524000000000929B194000000000000040400000000000005340000000000000184000000000000040400C00000013000000220800003C0000000600000002000000000000000000534000000000000018400000000000004040000000000060534000000000929B194000000000
310
000040400C000000130000002A0800003C0000000600000002000000000000E046A65340000000000000254000000000000040400000000000A05240000000003732274000000000000040400C00000013000000320800003C00000006000000020000000000000000A0524000000000373227400000000000004040000000
310
40B9595240000000000000254000000000000040400C000000130000003A0800003C0000000600000002000000000000E046A65340000000000000254000000000000040400000000000605340000000003732274000000000000040400C00000013000000420800003C000000060000000200000000000000006053400000
310
00003732274000000000000040400000000000A05240000000003732274000000000000040400C000000130000004A0800003C00000006000000020000000000000000605340000000003732274000000000000040400000000000005340000000000000284000000000000040400C00000013000000520800003C00000006
310
000000020000000000000000005340000000000000284000000000000040400000000000A05240000000003732274000000000000040400C000000130000005A0800003C0000000600000002000000000000E0B3DD53400000000000001C400000000000003440000000404C2252400000000000001C400000000000003440
310
0C00000013000000620800003C0000000600000002000000000000000000544000000000000022400000000000003440000000404C2252400000000000001C4000000000000034400C000000130000006A0800003C0000000600000002000000000000000000544000000000000022400000000000003440000000E0B3DD53
310
400000000000001C4000000000000034400C00000013000000720800003C0000000600000002000000000000404C2252400000000000001C4000000000000034400000000000005240000000000000224000000000000034400C000000130000007A0800003C00000006000000020000000000000000005440000000000000
310
224000000000000034400000000000005240000000000000224000000000000034400C00000013000000820800003C0000000600000002000000000000000000524000000000000022400000000000003440000000E0B3DD5340000000000000264000000000000034400C000000130000008A0800003C0000000600000002
310
000000000000000000544000000000000022400000000000003440000000E0B3DD5340000000000000264000000000000034400C00000013000000920800003C0000000600000002000000000000000000524000000000000022400000000000003440000000404C225240000000000000264000000000000034400C000000
310
130000009A0800003C0000000600000002000000000000404C22524000000000000026400000000000003440000000E0B3DD5340000000000000264000000000000034400C00000013000000A20800003C0000000600000002000000000000404C225240000000000000264000000000000034400000000000805340000000
310
C09EED284000000000000034400C00000013000000AA0800003C00000006000000020000000000000000805340000000C09EED28400000000000003440000000E0B3DD5340000000000000264000000000000034400C00000013000000B20800003C0000000600000002000000000000404C22524000000000000026400000
310
0000000034400000000000805240000000C09EED284000000000000034400C00000013000000BA0800003C00000006000000020000000000000000805240000000C09EED284000000000000034400000000000805340000000C09EED284000000000000034400C00000013000000C20800003C000000060000000200000000
310
00000000805240000000C09EED2840000000000000344000000000000053400000000000002A4000000000000034400C00000013000000CA0800003C000000060000000200000000000000000053400000000000002A4000000000000034400000000000805340000000C09EED284000000000000034400C00000013000000
310
D20800003C0000000600000002000000000000E0B3DD53400000000000001C400000000000003440000000000080524000000000C224164000000000000034400C00000013000000DA0800003C0000000600000002000000000000000080524000000000C22416400000000000003440000000404C2252400000000000001C
310
4000000000000034400C00000013000000E20800003C0000000600000002000000000000E0B3DD53400000000000001C400000000000003440000000000080534000000000C224164000000000000034400C00000013000000EA0800003C0000000600000002000000000000000080534000000000C2241640000000000000
310
3440000000000080524000000000C224164000000000000034400C00000013000000F20800003C0000000600000002000000000000000080534000000000C224164000000000000034400000000000005340000000000000144000000000000034400C00000013000000FA0800003C00000006000000020000000000000000
310
00534000000000000014400000000000003440000000000080524000000000C224164000000000000034400C00000013000000020900003C0000000600000002000000000000E046A6534000000000000025400000000000004040000000E0B3DD5340000000000000264000000000000034400C000000130000000A090000
310
3C0000000600000002000000000000E046A65340000000000000254000000000000040400000000000005440000000000000224000000000000034400C00000013000000120900003C00000006000000020000000000000000C053400000000000002240000000000000404000000000000054400000000000002240000000
310
00000034400C000000130000001A0900003C00000006000000020000000000000000C0534000000000000022400000000000004040000000E0B3DD53400000000000001C4000000000000034400C00000013000000220900003C0000000600000002000000000000E046A653400000000000001E4000000000000040400000
310
00E0B3DD53400000000000001C4000000000000034400C000000130000002A0900003C0000000600000002000000000000E046A653400000000000001E400000000000004040000000000080534000000000C224164000000000000034400C00000013000000320900003C0000000600000002000000000000000060534000
310
000000929B19400000000000004040000000000080534000000000C224164000000000000034400C000000130000003A0900003C0000000600000002000000000000000060534000000000929B194000000000000040400000000000005340000000000000144000000000000034400C00000013000000420900003C000000
310
06000000020000000000000000005340000000000000184000000000000040400000000000005340000000000000144000000000000034400C000000130000004A0900003C0000000600000002000000000000000000534000000000000018400000000000004040000000000080524000000000C224164000000000000034
310
400C00000013000000520900003C00000006000000020000000000000000A0524000000000929B19400000000000004040000000000080524000000000C224164000000000000034400C000000130000005A0900003C00000006000000020000000000000000A0524000000000929B19400000000000004040000000404C22
310
52400000000000001C4000000000000034400C00000013000000620900003C000000060000000200000000000040B95952400000000000001E400000000000004040000000404C2252400000000000001C4000000000000034400C000000130000006A0900003C000000060000000200000000000040B95952400000000000
310
001E4000000000000040400000000000005240000000000000224000000000000034400C00000013000000720900003C00000006000000020000000000000000405240000000000000224000000000000040400000000000005240000000000000224000000000000034400C000000130000007A0900003C00000006000000
310
02000000000000000040524000000000000022400000000000004040000000404C225240000000000000264000000000000034400C00000013000000820900003C000000060000000200000000000040B959524000000000000025400000000000004040000000404C225240000000000000264000000000000034400C0000
310
00130000008A0900003C000000060000000200000000000040B9595240000000000000254000000000000040400000000000805240000000C09EED284000000000000034400C00000013000000920900003C00000006000000020000000000000000A052400000000037322740000000000000404000000000008052400000
310
00C09EED284000000000000034400C000000130000009A0900003C00000006000000020000000000000000A052400000000037322740000000000000404000000000000053400000000000002A4000000000000034400C00000013000000A20900003C00000006000000020000000000000000005340000000000000284000
310
0000000000404000000000000053400000000000002A4000000000000034400C00000013000000AA0900003C00000006000000020000000000000000005340000000000000284000000000000040400000000000805340000000C09EED284000000000000034400C00000013000000B20900003C0000000600000002000000
310
0000000000605340000000003732274000000000000040400000000000805340000000C09EED284000000000000034400C00000013000000BA0900003C0000000600000002000000000000000060534000000000373227400000000000004040000000E0B3DD5340000000000000264000000000000034400C000000130000
310
00C20900003C000000060000000200000000000000929B19400000000000A05240000000000000404000000000373227400000000000A0524000000000000040400C00000013000000CA0900003C000000060000000200000000000000000018400000000000005340000000000000404000000000373227400000000000A0
310
524000000000000040400C00000013000000D20900003C000000060000000200000000000000000018400000000000005340000000000000404000000000929B19400000000000A0524000000000000040400C00000013000000DA0900003C000000060000000200000000000000373227400000000000A052400000000000
310
0040400000000000002840000000000000534000000000000040400C00000013000000E20900003C00000006000000020000000000000000001840000000000000534000000000000040400000000000002840000000000000534000000000000040400C00000013000000EA0900003C000000060000000200000000000000
310
000028400000000000005340000000000000404000000000929B1940000000000060534000000000000040400C00000013000000F20900003C000000060000000200000000000000000018400000000000005340000000000000404000000000929B1940000000000060534000000000000040400C00000013000000FA0900
310
003C00000006000000020000000000000000002840000000000000534000000000000040400000000037322740000000000060534000000000000040400C00000013000000020A00003C000000060000000200000000000000373227400000000000605340000000000000404000000000929B194000000000006053400000
310
0000000040400C000000130000000A0A00003C00000006000000020000000000000037322740000000000060534000000000000040400000000000001E40000000E046A6534000000000000040400C00000013000000120A00003C00000006000000020000000000000000001E40000000E046A65340000000000000404000
310
000000929B1940000000000060534000000000000040400C000000130000001A0A00003C00000006000000020000000000000037322740000000000060534000000000000040400000000000002540000000E046A6534000000000000040400C00000013000000220A00003C00000006000000020000000000000000002540
310
000000E046A6534000000000000040400000000000001E40000000E046A6534000000000000040400C000000130000002A0A00003C00000006000000020000000000000000002540000000E046A65340000000000000404000000000000022400000000000C0534000000000000040400C00000013000000320A00003C0000
310
00060000000200000000000000000022400000000000C0534000000000000040400000000000001E40000000E046A6534000000000000040400C000000130000003A0A00003C000000060000000200000000000000929B19400000000000A052400000000000004040000000000000254000000040B9595240000000000000
310
40400C00000013000000420A00003C0000000600000002000000000000000000254000000040B9595240000000000000404000000000373227400000000000A0524000000000000040400C000000130000004A0A00003C000000060000000200000000000000929B19400000000000A0524000000000000040400000000000
310
001E4000000040B959524000000000000040400C00000013000000520A00003C00000006000000020000000000000000001E4000000040B95952400000000000004040000000000000254000000040B959524000000000000040400C000000130000005A0A00003C00000006000000020000000000000000001E4000000040
310
B959524000000000000040400000000000002240000000000040524000000000000040400C00000013000000620A00003C0000000600000002000000000000000000224000000000004052400000000000004040000000000000254000000040B959524000000000000040400C000000130000006A0A00003C000000060000
310
000200000000000000C224164000000000008053400000000000003440000000C09EED2840000000000080534000000000000034400C00000013000000720A00003C0000000600000002000000000000000000144000000000000053400000000000003440000000C09EED2840000000000080534000000000000034400C00
310
0000130000007A0A00003C000000060000000200000000000000000014400000000000005340000000000000344000000000C2241640000000000080534000000000000034400C00000013000000820A00003C0000000600000002000000000000C09EED2840000000000080534000000000000034400000000000002A4000
310
0000000000534000000000000034400C000000130000008A0A00003C00000006000000020000000000000000001440000000000000534000000000000034400000000000002A40000000000000534000000000000034400C00000013000000920A00003C00000006000000020000000000000000002A400000000000005340
310
000000000000344000000000C2241640000000000080524000000000000034400C000000130000009A0A00003C000000060000000200000000000000000014400000000000005340000000000000344000000000C2241640000000000080524000000000000034400C00000013000000A20A00003C00000006000000020000
310
000000000000002A4000000000000053400000000000003440000000C09EED2840000000000080524000000000000034400C00000013000000AA0A00003C0000000600000002000000000000C09EED28400000000000805240000000000000344000000000C2241640000000000080524000000000000034400C0000001300
310
0000B20A00003C0000000600000002000000000000C09EED2840000000000080524000000000000034400000000000001C40000000404C22524000000000000034400C00000013000000BA0A00003C00000006000000020000000000000000001C40000000404C225240000000000000344000000000C22416400000000000
310
80524000000000000034400C00000013000000C20A00003C0000000600000002000000000000C09EED2840000000000080524000000000000034400000000000002640000000404C22524000000000000034400C00000013000000CA0A00003C00000006000000020000000000000000002640000000404C22524000000000
310
000034400000000000001C40000000404C22524000000000000034400C00000013000000D20A00003C00000006000000020000000000000000002640000000404C22524000000000000034400000000000002240000000000000524000000000000034400C00000013000000DA0A00003C0000000600000002000000000000
310
0000002240000000000000524000000000000034400000000000001C40000000404C22524000000000000034400C00000013000000E20A00003C000000060000000200000000000000C2241640000000000080534000000000000034400000000000002640000000E0B3DD534000000000000034400C00000013000000EA0A
310
00003C00000006000000020000000000000000002640000000E0B3DD53400000000000003440000000C09EED2840000000000080534000000000000034400C00000013000000F20A00003C000000060000000200000000000000C2241640000000000080534000000000000034400000000000001C40000000E0B3DD534000
310
000000000034400C00000013000000FA0A00003C00000006000000020000000000000000001C40000000E0B3DD534000000000000034400000000000002640000000E0B3DD534000000000000034400C00000013000000020B00003C00000006000000020000000000000000001C40000000E0B3DD53400000000000003440
310
0000000000002240000000000000544000000000000034400C000000130000000A0B00003C00000006000000020000000000000000002240000000000000544000000000000034400000000000002640000000E0B3DD534000000000000034400C00000013000000120B00003C000000060000000200000000000000929B19
310
400000000000A05240000000000000404000000000C2241640000000000080524000000000000034400C000000130000001A0B00003C000000060000000200000000000000929B19400000000000A0524000000000000040400000000000001440000000000000534000000000000034400C00000013000000220B00003C00
310
000006000000020000000000000000001840000000000000534000000000000040400000000000001440000000000000534000000000000034400C000000130000002A0B00003C000000060000000200000000000000000018400000000000005340000000000000404000000000C224164000000000008053400000000000
310
0034400C00000013000000320B00003C000000060000000200000000000000929B19400000000000605340000000000000404000000000C2241640000000000080534000000000000034400C000000130000003A0B00003C000000060000000200000000000000929B19400000000000605340000000000000404000000000
310
00001C40000000E0B3DD534000000000000034400C00000013000000420B00003C00000006000000020000000000000000001E40000000E046A6534000000000000040400000000000001C40000000E0B3DD534000000000000034400C000000130000004A0B00003C00000006000000020000000000000000001E40000000
310
E046A6534000000000000040400000000000002240000000000000544000000000000034400C00000013000000520B00003C000000060000000200000000000000000022400000000000C0534000000000000040400000000000002240000000000000544000000000000034400C000000130000005A0B00003C0000000600
310
00000200000000000000000022400000000000C0534000000000000040400000000000002640000000E0B3DD534000000000000034400C00000013000000620B00003C00000006000000020000000000000000002540000000E046A6534000000000000040400000000000002640000000E0B3DD534000000000000034400C
310
000000130000006A0B00003C00000006000000020000000000000000002540000000E046A653400000000000004040000000C09EED2840000000000080534000000000000034400C00000013000000720B00003C0000000600000002000000000000003732274000000000006053400000000000004040000000C09EED2840
310
000000000080534000000000000034400C000000130000007A0B00003C00000006000000020000000000000037322740000000000060534000000000000040400000000000002A40000000000000534000000000000034400C00000013000000820B00003C0000000600000002000000000000000000284000000000000053
310
4000000000000040400000000000002A40000000000000534000000000000034400C000000130000008A0B00003C0000000600000002000000000000000000284000000000000053400000000000004040000000C09EED2840000000000080524000000000000034400C00000013000000920B00003C000000060000000200
310
000000000000373227400000000000A052400000000000004040000000C09EED2840000000000080524000000000000034400C000000130000009A0B00003C000000060000000200000000000000373227400000000000A0524000000000000040400000000000002640000000404C22524000000000000034400C00000013
310
000000A20B00003C0000000600000002000000000000000000254000000040B959524000000000000040400000000000002640000000404C22524000000000000034400C00000013000000AA0B00003C0000000600000002000000000000000000254000000040B95952400000000000004040000000000000224000000000
310
0000524000000000000034400C00000013000000B20B00003C00000006000000020000000000000000002240000000000040524000000000000040400000000000002240000000000000524000000000000034400C00000013000000BA0B00003C000000060000000200000000000000000022400000000000405240000000
310
00000040400000000000001C40000000404C22524000000000000034400C00000013000000C20B00003C00000006000000020000000000000000001E4000000040B959524000000000000040400000000000001C40000000404C22524000000000000034400C00000013000000CA0B00003C00000006000000020000000000
310
000000001E4000000040B9595240000000000000404000000000C2241640000000000080524000000000000034400C00000013000000D20B00003C000000060000000200000000000000929B19400000000000001E40000000000000404000000000373227400000000000001E4000000000000040400C00000013000000DA
310
0B00003C000000060000000200000000000000000018400000000000002240000000000000404000000000373227400000000000001E4000000000000040400C00000013000000E20B00003C000000060000000200000000000000000018400000000000002240000000000000404000000000929B19400000000000001E40
310
00000000000040400C00000013000000EA0B00003C000000060000000200000000000000373227400000000000001E4000000000000040400000000000002840000000000000224000000000000040400C00000013000000F20B00003C00000006000000020000000000000000001840000000000000224000000000000040
310
400000000000002840000000000000224000000000000040400C00000013000000FA0B00003C000000060000000200000000000000000028400000000000002240000000000000404000000000929B1940000000000000254000000000000040400C00000013000000020C00003C0000000600000002000000000000000000
310
18400000000000002240000000000000404000000000929B1940000000000000254000000000000040400C000000130000000A0C00003C00000006000000020000000000000000002840000000000000224000000000000040400000000037322740000000000000254000000000000040400C00000013000000120C00003C
310
000000060000000200000000000000373227400000000000002540000000000000404000000000929B1940000000000000254000000000000040400C000000130000001A0C00003C00000006000000020000000000000037322740000000000000254000000000000040400000000000001E40000000003732274000000000
310
000040400C00000013000000220C00003C00000006000000020000000000000000001E400000000037322740000000000000404000000000929B1940000000000000254000000000000040400C000000130000002A0C00003C0000000600000002000000000000003732274000000000000025400000000000004040000000
310
0000002540000000003732274000000000000040400C00000013000000320C00003C00000006000000020000000000000000002540000000003732274000000000000040400000000000001E40000000003732274000000000000040400C000000130000003A0C00003C000000060000000200000000000000000025400000
310
00003732274000000000000040400000000000002240000000000000284000000000000040400C00000013000000420C00003C00000006000000020000000000000000002240000000000000284000000000000040400000000000001E40000000003732274000000000000040400C000000130000004A0C00003C00000006
310
0000000200000000000000929B19400000000000001E400000000000004040000000000000254000000000929B194000000000000040400C00000013000000520C00003C0000000600000002000000000000000000254000000000929B1940000000000000404000000000373227400000000000001E400000000000004040
310
0C000000130000005A0C00003C000000060000000200000000000000929B19400000000000001E4000000000000040400000000000001E4000000000929B194000000000000040400C00000013000000620C00003C00000006000000020000000000000000001E4000000000929B1940000000000000404000000000000025
310
4000000000929B194000000000000040400C000000130000006A0C00003C00000006000000020000000000000000001E4000000000929B194000000000000040400000000000002240000000000000184000000000000040400C00000013000000720C00003C00000006000000020000000000000000002240000000000000
310
18400000000000004040000000000000254000000000929B194000000000000040400C000000130000007A0C00003C000000060000000200000000000000C224164000000000000026400000000000003440000000C09EED2840000000000000264000000000000034400C00000013000000820C00003C0000000600000002
310
000000000000000000144000000000000022400000000000003440000000C09EED2840000000000000264000000000000034400C000000130000008A0C00003C000000060000000200000000000000000014400000000000002240000000000000344000000000C2241640000000000000264000000000000034400C000000
310
13000000920C00003C0000000600000002000000000000C09EED2840000000000000264000000000000034400000000000002A40000000000000224000000000000034400C000000130000009A0C00003C00000006000000020000000000000000001440000000000000224000000000000034400000000000002A40000000
310
000000224000000000000034400C00000013000000A20C00003C00000006000000020000000000000000002A400000000000002240000000000000344000000000C22416400000000000001C4000000000000034400C00000013000000AA0C00003C0000000600000002000000000000000000144000000000000022400000
310
00000000344000000000C22416400000000000001C4000000000000034400C00000013000000B20C00003C00000006000000020000000000000000002A4000000000000022400000000000003440000000C09EED28400000000000001C4000000000000034400C00000013000000BA0C00003C000000060000000200000000
310
0000C09EED28400000000000001C40000000000000344000000000C22416400000000000001C4000000000000034400C00000013000000C20C00003C0000000600000002000000000000C09EED28400000000000001C4000000000000034400000000000001C4000000000C224164000000000000034400C00000013000000
310
CA0C00003C00000006000000020000000000000000001C4000000000C2241640000000000000344000000000C22416400000000000001C4000000000000034400C00000013000000D20C00003C0000000600000002000000000000C09EED28400000000000001C400000000000003440000000000000264000000000C22416
310
4000000000000034400C00000013000000DA0C00003C0000000600000002000000000000000000264000000000C224164000000000000034400000000000001C4000000000C224164000000000000034400C00000013000000E20C00003C0000000600000002000000000000000000264000000000C2241640000000000000
310
34400000000000002240000000000000144000000000000034400C00000013000000EA0C00003C00000006000000020000000000000000002240000000000000144000000000000034400000000000001C4000000000C224164000000000000034400C00000013000000F20C00003C000000060000000200000000000000C2
310
241640000000000000264000000000000034400000000000002640000000C09EED284000000000000034400C00000013000000FA0C00003C00000006000000020000000000000000002640000000C09EED28400000000000003440000000C09EED2840000000000000264000000000000034400C00000013000000020D0000
310
3C000000060000000200000000000000C2241640000000000000264000000000000034400000000000001C40000000C09EED284000000000000034400C000000130000000A0D00003C00000006000000020000000000000000001C40000000C09EED284000000000000034400000000000002640000000C09EED2840000000
310
00000034400C00000013000000120D00003C00000006000000020000000000000000001C40000000C09EED2840000000000000344000000000000022400000000000002A4000000000000034400C000000130000001A0D00003C000000060000000200000000000000000022400000000000002A4000000000000034400000
310
000000002640000000C09EED284000000000000034400C00000013000000220D00003C000000060000000200000000000000929B19400000000000001E40000000000000404000000000C22416400000000000001C4000000000000034400C000000130000002A0D00003C000000060000000200000000000000929B194000
310
00000000001E4000000000000040400000000000001440000000000000224000000000000034400C00000013000000320D00003C00000006000000020000000000000000001840000000000000224000000000000040400000000000001440000000000000224000000000000034400C000000130000003A0D00003C000000
310
060000000200000000000000000018400000000000002240000000000000404000000000C2241640000000000000264000000000000034400C00000013000000420D00003C000000060000000200000000000000929B19400000000000002540000000000000404000000000C2241640000000000000264000000000000034
310
400C000000130000004A0D00003C000000060000000200000000000000929B1940000000000000254000000000000040400000000000001C40000000C09EED284000000000000034400C00000013000000520D00003C00000006000000020000000000000000001E4000000000373227400000000000004040000000000000
310
1C40000000C09EED284000000000000034400C000000130000005A0D00003C00000006000000020000000000000000001E400000000037322740000000000000404000000000000022400000000000002A4000000000000034400C00000013000000620D00003C000000060000000200000000000000000022400000000000
310
002840000000000000404000000000000022400000000000002A4000000000000034400C000000130000006A0D00003C00000006000000020000000000000000002240000000000000284000000000000040400000000000002640000000C09EED284000000000000034400C00000013000000720D00003C00000006000000
310
020000000000000000002540000000003732274000000000000040400000000000002640000000C09EED284000000000000034400C000000130000007A0D00003C0000000600000002000000000000000000254000000000373227400000000000004040000000C09EED2840000000000000264000000000000034400C0000
310
0013000000820D00003C0000000600000002000000000000003732274000000000000025400000000000004040000000C09EED2840000000000000264000000000000034400C000000130000008A0D00003C00000006000000020000000000000037322740000000000000254000000000000040400000000000002A400000
310
00000000224000000000000034400C00000013000000920D00003C00000006000000020000000000000000002840000000000000224000000000000040400000000000002A40000000000000224000000000000034400C000000130000009A0D00003C00000006000000020000000000000000002840000000000000224000
310
00000000004040000000C09EED28400000000000001C4000000000000034400C00000013000000A20D00003C000000060000000200000000000000373227400000000000001E400000000000004040000000C09EED28400000000000001C4000000000000034400C00000013000000AA0D00003C0000000600000002000000
310
00000000373227400000000000001E400000000000004040000000000000264000000000C224164000000000000034400C00000013000000B20D00003C0000000600000002000000000000000000254000000000929B19400000000000004040000000000000264000000000C224164000000000000034400C000000130000
310
00BA0D00003C0000000600000002000000000000000000254000000000929B194000000000000040400000000000002240000000000000144000000000000034400C00000013000000C20D00003C00000006000000020000000000000000002240000000000000184000000000000040400000000000002240000000000000
310
144000000000000034400C00000013000000CA0D00003C00000006000000020000000000000000002240000000000000184000000000000040400000000000001C4000000000C224164000000000000034400C00000013000000D20D00003C00000006000000020000000000000000001E4000000000929B19400000000000
310
0040400000000000001C4000000000C224164000000000000034400C00000013000000DA0D00003C00000006000000020000000000000000001E4000000000929B1940000000000000404000000000C22416400000000000001C400000000000003440
100
AcDbSubDMesh
 71
     2
 72
     0
 91
        0
 92
      160
 10
82.0
 20
76.0
 30
4.0
 10
81.19615173339843
 20
79.0
 30
4.0
 10
79.0
 20
81.19615173339843
 30
4.0
 10
76.0
 20
82.0
 30
4.0
 10
76.0
 20
82.0
 30
10.0
 10
79.0
 20
81.19615173339843
 30
10.0
 10
81.19615173339843
 20
79.0
 30
10.0
 10
82.0
 20
76.0
 30
10.0
 10
82.0
 20
9.0
 30
10.0
 10
82.0
 20
9.0
 30
4.0
 10
9.0
 20
82.0
 30
10.0
 10
6.0
 20
81.19615173339843
 30
10.0
 10
3.803848266601562
 20
79.0
 30
10.0
 10
3.0
 20
76.0
 30
10.0
 10
3.0
 20
9.0
 30
10.0
 10
3.803848266601562
 20
6.0
 30
10.0
 10
6.0
 20
3.803848266601562
 30
10.0
 10
9.0
 20
3.0
 30
10.0
 10
76.0
 20
3.0
 30
10.0
 10
79.0
 20
3.803848266601562
 30
10.0
 10
81.19615173339843
 20
6.0
 30
10.0
 10
76.0
 20
3.0
 30
4.0
 10
79.0
 20
3.803848266601562
 30
4.0
 10
81.19615173339843
 20
6.0
 30
4.0
 10
9.0
 20
3.0
 30
4.0
 10
9.0
 20
82.0
 30
4.0
 10
6.0
 20
81.19615173339843
 30
4.0
 10
3.803848266601562
 20
79.0
 30
4.0
 10
3.0
 20
76.0
 30
4.0
 10
3.0
 20
9.0
 30
4.0
 10
3.803848266601562
 20
6.0
 30
4.0
 10
6.0
 20
3.803848266601562
 30
4.0
 10
0.0
 20
9.0
 30
10.0
 10
1.205772399902343
 20
4.5
 30
10.0
 10
4.5
 20
1.205772399902343
 30
10.0
 10
9.0
 20
0.0
 30
10.0
 10
9.0
 20
0.0
 30
20.0
 10
4.5
 20
1.205772399902343
 30
20.0
 10
1.205772399902343
 20
4.5
 30
20.0
 10
0.0
 20
9.0
 30
20.0
 10
0.0
 20
76.0
 30
20.0
 10
0.0
 20
76.0
 30
10.0
 10
76.0
 20
0.0
 30
20.0
 10
80.5
 20
1.205772399902343
 30
20.0
 10
83.79423522949219
 20
4.5
 30
20.0
 10
85.0
 20
9.0
 30
20.0
 10
85.0
 20
76.0
 30
20.0
 10
83.79423522949219
 20
80.5
 30
20.0
 10
80.5
 20
83.79423522949219
 30
20.0
 10
76.0
 20
85.0
 30
20.0
 10
9.0
 20
85.0
 30
20.0
 10
4.5
 20
83.79423522949219
 30
20.0
 10
1.205772399902343
 20
80.5
 30
20.0
 10
76.0
 20
0.0
 30
10.0
 10
80.5
 20
1.205772399902343
 30
10.0
 10
83.79423522949219
 20
4.5
 30
10.0
 10
85.0
 20
9.0
 30
10.0
 10
85.0
 20
76.0
 30
10.0
 10
83.79423522949219
 20
80.5
 30
10.0
 10
80.5
 20
83.79423522949219
 30
10.0
 10
76.0
 20
85.0
 30
10.0
 10
9.0
 20
85.0
 30
10.0
 10
4.5
 20
83.79423522949219
 30
10.0
 10
1.205772399902343
 20
80.5
 30
10.0
 10
79.0
 20
76.0
 30
32.0
 10
78.59807586669922
 20
77.5
 30
32.0
 10
77.5
 20
78.59807586669922
 30
32.0
 10
76.0
 20
79.0
 30
32.0
 10
74.5
 20
78.59807586669922
 30
32.0
 10
73.40193176269531
 20
77.5
 30
32.0
 10
73.0
 20
76.0
 30
32.0
 10
73.40193176269531
 20
74.5
 30
32.0
 10
74.5
 20
73.40193176269531
 30
32.0
 10
76.0
 20
73.0
 30
32.0
 10
77.5
 20
73.40193176269531
 30
32.0
 10
78.59807586669922
 20
74.5
 30
32.0
 10
80.0
 20
76.0
 30
20.0
 10
79.46410369873047
 20
74.0
 30
20.0
 10
78.0
 20
72.53590393066406
 30
20.0
 10
76.0
 20
72.0
 30
20.0
 10
74.0
 20
72.53590393066406
 30
20.0
 10
72.53590393066406
 20
74.0
 30
20.0
 10
72.0
 20
76.0
 30
20.0
 10
72.53590393066406
 20
78.0
 30
20.0
 10
74.0
 20
79.46410369873047
 30
20.0
 10
76.0
 20
80.0
 30
20.0
 10
78.0
 20
79.46410369873047
 30
20.0
 10
79.46410369873047
 20
78.0
 30
20.0
 10
79.0
 20
9.0
 30
32.0
 10
78.59807586669922
 20
10.5
 30
32.0
 10
77.5
 20
11.59807586669922
 30
32.0
 10
76.0
 20
12.0
 30
32.0
 10
74.5
 20
11.59807586669922
 30
32.0
 10
73.40193176269531
 20
10.5
 30
32.0
 10
73.0
 20
9.0
 30
32.0
 10
73.40193176269531
 20
7.5
 30
32.0
 10
74.5
 20
6.401924133300781
 30
32.0
 10
76.0
 20
6.0
 30
32.0
 10
77.5
 20
6.401924133300781
 30
32.0
 10
78.59807586669922
 20
7.5
 30
32.0
 10
80.0
 20
9.0
 30
20.0
 10
79.46410369873047
 20
7.0
 30
20.0
 10
78.0
 20
5.535896301269531
 30
20.0
 10
76.0
 20
5.0
 30
20.0
 10
74.0
 20
5.535896301269531
 30
20.0
 10
72.53590393066406
 20
7.0
 30
20.0
 10
72.0
 20
9.0
 30
20.0
 10
72.53590393066406
 20
11.0
 30
20.0
 10
74.0
 20
12.46410179138183
 30
20.0
 10
76.0
 20
13.0
 30
20.0
 10
78.0
 20
12.46410179138183
 30
20.0
 10
79.46410369873047
 20
11.0
 30
20.0
 10
6.0
 20
76.0
 30
32.0
 10
6.401924133300781
 20
74.5
 30
32.0
 10
7.5
 20
73.40193176269531
 30
32.0
 10
9.0
 20
73.0
 30
32.0
 10
10.5
 20
73.40193176269531
 30
32.0
 10
11.59807586669922
 20
74.5
 30
32.0
 10
12.0
 20
76.0
 30
32.0
 10
11.59807586669922
 20
77.5
 30
32.0
 10
10.5
 20
78.59807586669922
 30
32.0
 10
9.0
 20
79.0
 30
32.0
 10
7.5
 20
78.59807586669922
 30
32.0
 10
6.401924133300781
 20
77.5
 30
32.0
 10
5.0
 20
76.0
 30
20.0
 10
5.535896301269531
 20
78.0
 30
20.0
 10
7.0
 20
79.46410369873047
 30
20.0
 10
9.0
 20
80.0
 30
20.0
 10
11.0
 20
79.46410369873047
 30
20.0
 10
12.46410179138183
 20
78.0
 30
20.0
 10
13.0
 20
76.0
 30
20.0
 10
12.46410179138183
 20
74.0
 30
20.0
 10
11.0
 20
72.53590393066406
 30
20.0
 10
9.0
 20
72.0
 30
20.0
 10
7.0
 20
72.53590393066406
 30
20.0
 10
5.535896301269531
 20
74.0
 30
20.0
 10
6.0
 20
9.0
 30
32.0
 10
6.401924133300781
 20
7.5
 30
32.0
 10
7.5
 20
6.401924133300781
 30
32.0
 10
9.0
 20
6.0
 30
32.0
 10
10.5
 20
6.401924133300781
 30
32.0
 10
11.59807586669922
 20
7.5
 30
32.0
 10
12.0
 20
9.0
 30
32.0
 10
11.59807586669922
 20
10.5
 30
32.0
 10
10.5
 20
11.59807586669922
 30
32.0
 10
9.0
 20
12.0
 30
32.0
 10
7.5
 20
11.59807586669922
 30
32.0
 10
6.401924133300781
 20
10.5
 30
32.0
 10
5.0
 20
9.0
 30
20.0
 10
5.535896301269531
 20
11.0
 30
20.0
 10
7.0
 20
12.46410179138183
 30
20.0
 10
9.0
 20
13.0
 30
20.0
 10
11.0
 20
12.46410179138183
 30
20.0
 10
12.46410179138183
 20
11.0
 30
20.0
 10
13.0
 20
9.0
 30
20.0
 10
12.46410179138183
 20
7.0
 30
20.0
 10
11.0
 20
5.535896301269531
 30
20.0
 10
9.0
 20
5.0
 30
20.0
 10
7.0
 20
5.535896301269531
 30
20.0
 10
5.535896301269531
 20
7.0
 30
20.0
 93
     1184
 90
        3
 90
        7
 90
        0
 90
        6
 90
        3
 90
        6
 90
        0
 90
        1
 90
        3
 90
        6
 90
        1
 90
        5
 90
        3
 90
        5
 90
        1
 90
        2
 90
        3
 90
        5
 90
        2
 90
        4
 90
        3
 90
        4
 90
        2
 90
        3
 90
        3
 90
        0
 90
        7
 90
        9
 90
        3
 90
        9
 90
        7
 90
        8
 90
        3
 90
        6
 90
        4
 90
        7
 90
        3
 90
        7
 90
        4
 90
       10
 90
        3
 90
        7
 90
       10
 90
        8
 90
        3
 90
        8
 90
       10
 90
       13
 90
        3
 90
        8
 90
       13
 90
       18
 90
        3
 90
       18
 90
       13
 90
       14
 90
        3
 90
       18
 90
       14
 90
       17
 90
        3
 90
       17
 90
       14
 90
       16
 90
        3
 90
       16
 90
       14
 90
       15
 90
        3
 90
        6
 90
        5
 90
        4
 90
        3
 90
       11
 90
       12
 90
       10
 90
        3
 90
       10
 90
       12
 90
       13
 90
        3
 90
       18
 90
       19
 90
        8
 90
        3
 90
        8
 90
       19
 90
       20
 90
        3
 90
       18
 90
       21
 90
       19
 90
        3
 90
       19
 90
       21
 90
       22
 90
        3
 90
       19
 90
       22
 90
       20
 90
        3
 90
       20
 90
       22
 90
       23
 90
        3
 90
       20
 90
       23
 90
        8
 90
        3
 90
        8
 90
       23
 90
        9
 90
        3
 90
       21
 90
       18
 90
       24
 90
        3
 90
       24
 90
       18
 90
       17
 90
        3
 90
       10
 90
       25
 90
       11
 90
        3
 90
       11
 90
       25
 90
       26
 90
        3
 90
       11
 90
       26
 90
       12
 90
        3
 90
       12
 90
       26
 90
       27
 90
        3
 90
       12
 90
       27
 90
       13
 90
        3
 90
       13
 90
       27
 90
       28
 90
        3
 90
        4
 90
        3
 90
       10
 90
        3
 90
       10
 90
        3
 90
       25
 90
        3
 90
       14
 90
       29
 90
       15
 90
        3
 90
       15
 90
       29
 90
       30
 90
        3
 90
       15
 90
       30
 90
       16
 90
        3
 90
       16
 90
       30
 90
       31
 90
        3
 90
       16
 90
       31
 90
       17
 90
        3
 90
       17
 90
       31
 90
       24
 90
        3
 90
        2
 90
        1
 90
        3
 90
        3
 90
        3
 90
        1
 90
        0
 90
        3
 90
        3
 90
        0
 90
       29
 90
        3
 90
       29
 90
        0
 90
       24
 90
        3
 90
       29
 90
       24
 90
       31
 90
        3
 90
        0
 90
        9
 90
       24
 90
        3
 90
       24
 90
        9
 90
       21
 90
        3
 90
       21
 90
        9
 90
       22
 90
        3
 90
       22
 90
        9
 90
       23
 90
        3
 90
       31
 90
       30
 90
       29
 90
        3
 90
       29
 90
       28
 90
        3
 90
        3
 90
        3
 90
       28
 90
       25
 90
        3
 90
       25
 90
       28
 90
       27
 90
        3
 90
       25
 90
       27
 90
       26
 90
        3
 90
       13
 90
       28
 90
       14
 90
        3
 90
       14
 90
       28
 90
       29
 90
        3
 90
       39
 90
       32
 90
       38
 90
        3
 90
       38
 90
       32
 90
       33
 90
        3
 90
       38
 90
       33
 90
       37
 90
        3
 90
       37
 90
       33
 90
       34
 90
        3
 90
       37
 90
       34
 90
       36
 90
        3
 90
       36
 90
       34
 90
       35
 90
        3
 90
       32
 90
       39
 90
       41
 90
        3
 90
       41
 90
       39
 90
       40
 90
        3
 90
       38
 90
       37
 90
       39
 90
        3
 90
       39
 90
       37
 90
       36
 90
        3
 90
       39
 90
       36
 90
       42
 90
        3
 90
       43
 90
       45
 90
       42
 90
        3
 90
       42
 90
       45
 90
       40
 90
        3
 90
       42
 90
       40
 90
       39
 90
        3
 90
       43
 90
       44
 90
       45
 90
        3
 90
       40
 90
       45
 90
       50
 90
        3
 90
       50
 90
       45
 90
       46
 90
        3
 90
       50
 90
       46
 90
       49
 90
        3
 90
       49
 90
       46
 90
       47
 90
        3
 90
       49
 90
       47
 90
       48
 90
        3
 90
       51
 90
       52
 90
       50
 90
        3
 90
       50
 90
       52
 90
       40
 90
        3
 90
       42
 90
       53
 90
       43
 90
        3
 90
       43
 90
       53
 90
       54
 90
        3
 90
       43
 90
       54
 90
       44
 90
        3
 90
       44
 90
       54
 90
       55
 90
        3
 90
       44
 90
       55
 90
       45
 90
        3
 90
       45
 90
       55
 90
       56
 90
        3
 90
       45
 90
       56
 90
       46
 90
        3
 90
       46
 90
       56
 90
       57
 90
        3
 90
       46
 90
       57
 90
       47
 90
        3
 90
       47
 90
       57
 90
       58
 90
        3
 90
       47
 90
       58
 90
       48
 90
        3
 90
       48
 90
       58
 90
       59
 90
        3
 90
       48
 90
       59
 90
       49
 90
        3
 90
       49
 90
       59
 90
       60
 90
        3
 90
       50
 90
       61
 90
       51
 90
        3
 90
       51
 90
       61
 90
       62
 90
        3
 90
       51
 90
       62
 90
       52
 90
        3
 90
       52
 90
       62
 90
       63
 90
        3
 90
       52
 90
       63
 90
       40
 90
        3
 90
       40
 90
       63
 90
       41
 90
        3
 90
       34
 90
       32
 90
       35
 90
        3
 90
       35
 90
       32
 90
       57
 90
        3
 90
       35
 90
       57
 90
       56
 90
        3
 90
       34
 90
       33
 90
       32
 90
        3
 90
       57
 90
       32
 90
       60
 90
        3
 90
       60
 90
       32
 90
       41
 90
        3
 90
       60
 90
       41
 90
       61
 90
        3
 90
       61
 90
       41
 90
       63
 90
        3
 90
       61
 90
       63
 90
       62
 90
        3
 90
       59
 90
       58
 90
       60
 90
        3
 90
       60
 90
       58
 90
       57
 90
        3
 90
       55
 90
       54
 90
       56
 90
        3
 90
       56
 90
       54
 90
       53
 90
        3
 90
       56
 90
       53
 90
       35
 90
        3
 90
       36
 90
       35
 90
       42
 90
        3
 90
       42
 90
       35
 90
       53
 90
        3
 90
       49
 90
       60
 90
       50
 90
        3
 90
       50
 90
       60
 90
       61
 90
        3
 90
       65
 90
       69
 90
       64
 90
        3
 90
       64
 90
       69
 90
       70
 90
        3
 90
       64
 90
       70
 90
       75
 90
        3
 90
       75
 90
       70
 90
       71
 90
        3
 90
       75
 90
       71
 90
       74
 90
        3
 90
       74
 90
       71
 90
       72
 90
        3
 90
       74
 90
       72
 90
       73
 90
        3
 90
       69
 90
       65
 90
       68
 90
        3
 90
       68
 90
       65
 90
       66
 90
        3
 90
       68
 90
       66
 90
       67
 90
        3
 90
       77
 90
       81
 90
       76
 90
        3
 90
       76
 90
       81
 90
       82
 90
        3
 90
       76
 90
       82
 90
       87
 90
        3
 90
       87
 90
       82
 90
       83
 90
        3
 90
       87
 90
       83
 90
       86
 90
        3
 90
       86
 90
       83
 90
       84
 90
        3
 90
       86
 90
       84
 90
       85
 90
        3
 90
       81
 90
       77
 90
       80
 90
        3
 90
       80
 90
       77
 90
       78
 90
        3
 90
       80
 90
       78
 90
       79
 90
        3
 90
       87
 90
       65
 90
       76
 90
        3
 90
       76
 90
       65
 90
       64
 90
        3
 90
       76
 90
       64
 90
       77
 90
        3
 90
       77
 90
       64
 90
       75
 90
        3
 90
       77
 90
       75
 90
       78
 90
        3
 90
       78
 90
       75
 90
       74
 90
        3
 90
       78
 90
       74
 90
       79
 90
        3
 90
       79
 90
       74
 90
       73
 90
        3
 90
       79
 90
       73
 90
       80
 90
        3
 90
       80
 90
       73
 90
       72
 90
        3
 90
       80
 90
       72
 90
       81
 90
        3
 90
       81
 90
       72
 90
       71
 90
        3
 90
       81
 90
       71
 90
       82
 90
        3
 90
       82
 90
       71
 90
       70
 90
        3
 90
       82
 90
       70
 90
       83
 90
        3
 90
       83
 90
       70
 90
       69
 90
        3
 90
       83
 90
       69
 90
       84
 90
        3
 90
       84
 90
       69
 90
       68
 90
        3
 90
       84
 90
       68
 90
       85
 90
        3
 90
       85
 90
       68
 90
       67
 90
        3
 90
       85
 90
       67
 90
       86
 90
        3
 90
       86
 90
       67
 90
       66
 90
        3
 90
       86
 90
       66
 90
       87
 90
        3
 90
       87
 90
       66
 90
       65
 90
        3
 90
       89
 90
       93
 90
       88
 90
        3
 90
       88
 90
       93
 90
       94
 90
        3
 90
       88
 90
       94
 90
       99
 90
        3
 90
       99
 90
       94
 90
       95
 90
        3
 90
       99
 90
       95
 90
       98
 90
        3
 90
       98
 90
       95
 90
       96
 90
        3
 90
       98
 90
       96
 90
       97
 90
        3
 90
       93
 90
       89
 90
       92
 90
        3
 90
       92
 90
       89
 90
       90
 90
        3
 90
       92
 90
       90
 90
       91
 90
        3
 90
      101
 90
      105
 90
      100
 90
        3
 90
      100
 90
      105
 90
      106
 90
        3
 90
      100
 90
      106
 90
      111
 90
        3
 90
      111
 90
      106
 90
      107
 90
        3
 90
      111
 90
      107
 90
      110
 90
        3
 90
      110
 90
      107
 90
      108
 90
        3
 90
      110
 90
      108
 90
      109
 90
        3
 90
      105
 90
      101
 90
      104
 90
        3
 90
      104
 90
      101
 90
      102
 90
        3
 90
      104
 90
      102
 90
      103
 90
        3
 90
      111
 90
       89
 90
      100
 90
        3
 90
      100
 90
       89
 90
       88
 90
        3
 90
      100
 90
       88
 90
      101
 90
        3
 90
      101
 90
       88
 90
       99
 90
        3
 90
      101
 90
       99
 90
      102
 90
        3
 90
      102
 90
       99
 90
       98
 90
        3
 90
      102
 90
       98
 90
      103
 90
        3
 90
      103
 90
       98
 90
       97
 90
        3
 90
      103
 90
       97
 90
      104
 90
        3
 90
      104
 90
       97
 90
       96
 90
        3
 90
      104
 90
       96
 90
      105
 90
        3
 90
      105
 90
       96
 90
       95
 90
        3
 90
      105
 90
       95
 90
      106
 90
        3
 90
      106
 90
       95
 90
       94
 90
        3
 90
      106
 90
       94
 90
      107
 90
        3
 90
      107
 90
       94
 90
       93
 90
        3
 90
      107
 90
       93
 90
      108
 90
        3
 90
      108
 90
       93
 90
       92
 90
        3
 90
      108
 90
       92
 90
      109
 90
        3
 90
      109
 90
       92
 90
       91
 90
        3
 90
      109
 90
       91
 90
      110
 90
        3
 90
      110
 90
       91
 90
       90
 90
        3
 90
      110
 90
       90
 90
      111
 90
        3
 90
      111
 90
       90
 90
       89
 90
        3
 90
      113
 90
      117
 90
      112
 90
        3
 90
      112
 90
      117
 90
      118
 90
        3
 90
      112
 90
      118
 90
      123
 90
        3
 90
      123
 90
      118
 90
      119
 90
        3
 90
      123
 90
      119
 90
      122
 90
        3
 90
      122
 90
      119
 90
      120
 90
        3
 90
      122
 90
      120
 90
      121
 90
        3
 90
      117
 90
      113
 90
      116
 90
        3
 90
      116
 90
      113
 90
      114
 90
        3
 90
      116
 90
      114
 90
      115
 90
        3
 90
      125
 90
      129
 90
      124
 90
        3
 90
      124
 90
      129
 90
      130
 90
        3
 90
      124
 90
      130
 90
      135
 90
        3
 90
      135
 90
      130
 90
      131
 90
        3
 90
      135
 90
      131
 90
      134
 90
        3
 90
      134
 90
      131
 90
      132
 90
        3
 90
      134
 90
      132
 90
      133
 90
        3
 90
      129
 90
      125
 90
      128
 90
        3
 90
      128
 90
      125
 90
      126
 90
        3
 90
      128
 90
      126
 90
      127
 90
        3
 90
      135
 90
      113
 90
      124
 90
        3
 90
      124
 90
      113
 90
      112
 90
        3
 90
      124
 90
      112
 90
      125
 90
        3
 90
      125
 90
      112
 90
      123
 90
        3
 90
      125
 90
      123
 90
      126
 90
        3
 90
      126
 90
      123
 90
      122
 90
        3
 90
      126
 90
      122
 90
      127
 90
        3
 90
      127
 90
      122
 90
      121
 90
        3
 90
      127
 90
      121
 90
      128
 90
        3
 90
      128
 90
      121
 90
      120
 90
        3
 90
      128
 90
      120
 90
      129
 90
        3
 90
      129
 90
      120
 90
      119
 90
        3
 90
      129
 90
      119
 90
      130
 90
        3
 90
      130
 90
      119
 90
      118
 90
        3
 90
      130
 90
      118
 90
      131
 90
        3
 90
      131
 90
      118
 90
      117
 90
        3
 90
      131
 90
      117
 90
      132
 90
        3
 90
      132
 90
      117
 90
      116
 90
        3
 90
      132
 90
      116
 90
      133
 90
        3
 90
      133
 90
      116
 90
      115
 90
        3
 90
      133
 90
      115
 90
      134
 90
        3
 90
      134
 90
      115
 90
      114
 90
        3
 90
      134
 90
      114
 90
      135
 90
        3
 90
      135
 90
      114
 90
      113
 90
        3
 90
      137
 90
      141
 90
      136
 90
        3
 90
      136
 90
      141
 90
      142
 90
        3
 90
      136
 90
      142
 90
      147
 90
        3
 90
      147
 90
      142
 90
      143
 90
        3
 90
      147
 90
      143
 90
      146
 90
        3
 90
      146
 90
      143
 90
      144
 90
        3
 90
      146
 90
      144
 90
      145
 90
        3
 90
      141
 90
      137
 90
      140
 90
        3
 90
      140
 90
      137
 90
      138
 90
        3
 90
      140
 90
      138
 90
      139
 90
        3
 90
      149
 90
      153
 90
      148
 90
        3
 90
      148
 90
      153
 90
      154
 90
        3
 90
      148
 90
      154
 90
      159
 90
        3
 90
      159
 90
      154
 90
      155
 90
        3
 90
      159
 90
      155
 90
      158
 90
        3
 90
      158
 90
      155
 90
      156
 90
        3
 90
      158
 90
      156
 90
      157
 90
        3
 90
      153
 90
      149
 90
      152
 90
        3
 90
      152
 90
      149
 90
      150
 90
        3
 90
      152
 90
      150
 90
      151
 90
        3
 90
      159
 90
      137
 90
      148
 90
        3
 90
      148
 90
      137
 90
      136
 90
        3
 90
      148
 90
      136
 90
      149
 90
        3
 90
      149
 90
      136
 90
      147
 90
        3
 90
      149
 90
      147
 90
      150
 90
        3
 90
      150
 90
      147
 90
      146
 90
        3
 90
      150
 90
      146
 90
      151
 90
        3
 90
      151
 90
      146
 90
      145
 90
        3
 90
      151
 90
      145
 90
      152
 90
        3
 90
      152
 90
      145
 90
      144
 90
        3
 90
      152
 90
      144
 90
      153
 90
        3
 90
      153
 90
      144
 90
      143
 90
        3
 90
      153
 90
      143
 90
      154
 90
        3
 90
      154
 90
      143
 90
      142
 90
        3
 90
      154
 90
      142
 90
      155
 90
        3
 90
      155
 90
      142
 90
      141
 90
        3
 90
      155
 90
      141
 90
      156
 90
        3
 90
      156
 90
      141
 90
      140
 90
        3
 90
      156
 90
      140
 90
      157
 90
        3
 90
      157
 90
      140
 90
      139
 90
        3
 90
      157
 90
      139
 90
      158
 90
        3
 90
      158
 90
      139
 90
      138
 90
        3
 90
      158
 90
      138
 90
      159
 90
        3
 90
      159
 90
      138
 90
      137
 94
      444
 90
        0
 90
        7
 90
        0
 90
        6
 90
        6
 90
        7
 90
        0
 90
        1
 90
        1
 90
        6
 90
        1
 90
        5
 90
        5
 90
        6
 90
        1
 90
        2
 90
        2
 90
        5
 90
        2
 90
        4
 90
        4
 90
        5
 90
        2
 90
        3
 90
        3
 90
        4
 90
        7
 90
        9
 90
        0
 90
        9
 90
        7
 90
        8
 90
        8
 90
        9
 90
        4
 90
        6
 90
        4
 90
        7
 90
        4
 90
       10
 90
        7
 90
       10
 90
        8
 90
       10
 90
       10
 90
       13
 90
        8
 90
       13
 90
       13
 90
       18
 90
        8
 90
       18
 90
       13
 90
       14
 90
       14
 90
       18
 90
       14
 90
       17
 90
       17
 90
       18
 90
       14
 90
       16
 90
       16
 90
       17
 90
       14
 90
       15
 90
       15
 90
       16
 90
       11
 90
       12
 90
       10
 90
       12
 90
       10
 90
       11
 90
       12
 90
       13
 90
       18
 90
       19
 90
        8
 90
       19
 90
       19
 90
       20
 90
        8
 90
       20
 90
       18
 90
       21
 90
       19
 90
       21
 90
       21
 90
       22
 90
       19
 90
       22
 90
       20
 90
       22
 90
       22
 90
       23
 90
       20
 90
       23
 90
        8
 90
       23
 90
        9
 90
       23
 90
       18
 90
       24
 90
       21
 90
       24
 90
       17
 90
       24
 90
       10
 90
       25
 90
       11
 90
       25
 90
       25
 90
       26
 90
       11
 90
       26
 90
       12
 90
       26
 90
       26
 90
       27
 90
       12
 90
       27
 90
       13
 90
       27
 90
       27
 90
       28
 90
       13
 90
       28
 90
        3
 90
       10
 90
        3
 90
       25
 90
       14
 90
       29
 90
       15
 90
       29
 90
       29
 90
       30
 90
       15
 90
       30
 90
       16
 90
       30
 90
       30
 90
       31
 90
       16
 90
       31
 90
       17
 90
       31
 90
       24
 90
       31
 90
        1
 90
        3
 90
        0
 90
        3
 90
        0
 90
       29
 90
        3
 90
       29
 90
        0
 90
       24
 90
       24
 90
       29
 90
       29
 90
       31
 90
        9
 90
       24
 90
        9
 90
       21
 90
        9
 90
       22
 90
       28
 90
       29
 90
        3
 90
       28
 90
       25
 90
       28
 90
       25
 90
       27
 90
       14
 90
       28
 90
       32
 90
       39
 90
       32
 90
       38
 90
       38
 90
       39
 90
       32
 90
       33
 90
       33
 90
       38
 90
       33
 90
       37
 90
       37
 90
       38
 90
       33
 90
       34
 90
       34
 90
       37
 90
       34
 90
       36
 90
       36
 90
       37
 90
       34
 90
       35
 90
       35
 90
       36
 90
       39
 90
       41
 90
       32
 90
       41
 90
       39
 90
       40
 90
       40
 90
       41
 90
       37
 90
       39
 90
       36
 90
       39
 90
       36
 90
       42
 90
       39
 90
       42
 90
       43
 90
       45
 90
       42
 90
       45
 90
       42
 90
       43
 90
       40
 90
       45
 90
       40
 90
       42
 90
       43
 90
       44
 90
       44
 90
       45
 90
       45
 90
       50
 90
       40
 90
       50
 90
       45
 90
       46
 90
       46
 90
       50
 90
       46
 90
       49
 90
       49
 90
       50
 90
       46
 90
       47
 90
       47
 90
       49
 90
       47
 90
       48
 90
       48
 90
       49
 90
       51
 90
       52
 90
       50
 90
       52
 90
       50
 90
       51
 90
       40
 90
       52
 90
       42
 90
       53
 90
       43
 90
       53
 90
       53
 90
       54
 90
       43
 90
       54
 90
       44
 90
       54
 90
       54
 90
       55
 90
       44
 90
       55
 90
       45
 90
       55
 90
       55
 90
       56
 90
       45
 90
       56
 90
       46
 90
       56
 90
       56
 90
       57
 90
       46
 90
       57
 90
       47
 90
       57
 90
       57
 90
       58
 90
       47
 90
       58
 90
       48
 90
       58
 90
       58
 90
       59
 90
       48
 90
       59
 90
       49
 90
       59
 90
       59
 90
       60
 90
       49
 90
       60
 90
       50
 90
       61
 90
       51
 90
       61
 90
       61
 90
       62
 90
       51
 90
       62
 90
       52
 90
       62
 90
       62
 90
       63
 90
       52
 90
       63
 90
       40
 90
       63
 90
       41
 90
       63
 90
       32
 90
       34
 90
       32
 90
       35
 90
       32
 90
       57
 90
       35
 90
       57
 90
       35
 90
       56
 90
       32
 90
       60
 90
       57
 90
       60
 90
       41
 90
       60
 90
       41
 90
       61
 90
       60
 90
       61
 90
       61
 90
       63
 90
       58
 90
       60
 90
       54
 90
       56
 90
       53
 90
       56
 90
       35
 90
       53
 90
       35
 90
       42
 90
       50
 90
       60
 90
       65
 90
       69
 90
       64
 90
       69
 90
       64
 90
       65
 90
       69
 90
       70
 90
       64
 90
       70
 90
       70
 90
       75
 90
       64
 90
       75
 90
       70
 90
       71
 90
       71
 90
       75
 90
       71
 90
       74
 90
       74
 90
       75
 90
       71
 90
       72
 90
       72
 90
       74
 90
       72
 90
       73
 90
       73
 90
       74
 90
       65
 90
       68
 90
       68
 90
       69
 90
       65
 90
       66
 90
       66
 90
       68
 90
       66
 90
       67
 90
       67
 90
       68
 90
       77
 90
       81
 90
       76
 90
       81
 90
       76
 90
       77
 90
       81
 90
       82
 90
       76
 90
       82
 90
       82
 90
       87
 90
       76
 90
       87
 90
       82
 90
       83
 90
       83
 90
       87
 90
       83
 90
       86
 90
       86
 90
       87
 90
       83
 90
       84
 90
       84
 90
       86
 90
       84
 90
       85
 90
       85
 90
       86
 90
       77
 90
       80
 90
       80
 90
       81
 90
       77
 90
       78
 90
       78
 90
       80
 90
       78
 90
       79
 90
       79
 90
       80
 90
       65
 90
       87
 90
       65
 90
       76
 90
       64
 90
       76
 90
       64
 90
       77
 90
       75
 90
       77
 90
       75
 90
       78
 90
       74
 90
       78
 90
       74
 90
       79
 90
       73
 90
       79
 90
       73
 90
       80
 90
       72
 90
       80
 90
       72
 90
       81
 90
       71
 90
       81
 90
       71
 90
       82
 90
       70
 90
       82
 90
       70
 90
       83
 90
       69
 90
       83
 90
       69
 90
       84
 90
       68
 90
       84
 90
       68
 90
       85
 90
       67
 90
       85
 90
       67
 90
       86
 90
       66
 90
       86
 90
       66
 90
       87
 90
       89
 90
       93
 90
       88
 90
       93
 90
       88
 90
       89
 90
       93
 90
       94
 90
       88
 90
       94
 90
       94
 90
       99
 90
       88
 90
       99
 90
       94
 90
       95
 90
       95
 90
       99
 90
       95
 90
       98
 90
       98
 90
       99
 90
       95
 90
       96
 90
       96
 90
       98
 90
       96
 90
       97
 90
       97
 90
       98
 90
       89
 90
       92
 90
       92
 90
       93
 90
       89
 90
       90
 90
       90
 90
       92
 90
       90
 90
       91
 90
       91
 90
       92
 90
      101
 90
      105
 90
      100
 90
      105
 90
      100
 90
      101
 90
      105
 90
      106
 90
      100
 90
      106
 90
      106
 90
      111
 90
      100
 90
      111
 90
      106
 90
      107
 90
      107
 90
      111
 90
      107
 90
      110
 90
      110
 90
      111
 90
      107
 90
      108
 90
      108
 90
      110
 90
      108
 90
      109
 90
      109
 90
      110
 90
      101
 90
      104
 90
      104
 90
      105
 90
      101
 90
      102
 90
      102
 90
      104
 90
      102
 90
      103
 90
      103
 90
      104
 90
       89
 90
      111
 90
       89
 90
      100
 90
       88
 90
      100
 90
       88
 90
      101
 90
       99
 90
      101
 90
       99
 90
      102
 90
       98
 90
      102
 90
       98
 90
      103
 90
       97
 90
      103
 90
       97
 90
      104
 90
       96
 90
      104
 90
       96
 90
      105
 90
       95
 90
      105
 90
       95
 90
      106
 90
       94
 90
      106
 90
       94
 90
      107
 90
       93
 90
      107
 90
       93
 90
      108
 90
       92
 90
      108
 90
       92
 90
      109
 90
       91
 90
      109
 90
       91
 90
      110
 90
       90
 90
      110
 90
       90
 90
      111
 90
      113
 90
      117
 90
      112
 90
      117
 90
      112
 90
      113
 90
      117
 90
      118
 90
      112
 90
      118
 90
      118
 90
      123
 90
      112
 90
      123
 90
      118
 90
      119
 90
      119
 90
      123
 90
      119
 90
      122
 90
      122
 90
      123
 90
      119
 90
      120
 90
      120
 90
      122
 90
      120
 90
      121
 90
      121
 90
      122
 90
      113
 90
      116
 90
      116
 90
      117
 90
      113
 90
      114
 90
      114
 90
      116
 90
      114
 90
      115
 90
      115
 90
      116
 90
      125
 90
      129
 90
      124
 90
      129
 90
      124
 90
      125
 90
      129
 90
      130
 90
      124
 90
      130
 90
      130
 90
      135
 90
      124
 90
      135
 90
      130
 90
      131
 90
      131
 90
      135
 90
      131
 90
      134
 90
      134
 90
      135
 90
      131
 90
      132
 90
      132
 90
      134
 90
      132
 90
      133
 90
      133
 90
      134
 90
      125
 90
      128
 90
      128
 90
      129
 90
      125
 90
      126
 90
      126
 90
      128
 90
      126
 90
      127
 90
      127
 90
      128
 90
      113
 90
      135
 90
      113
 90
      124
 90
      112
 90
      124
 90
      112
 90
      125
 90
      123
 90
      125
 90
      123
 90
      126
 90
      122
 90
      126
 90
      122
 90
      127
 90
      121
 90
      127
 90
      121
 90
      128
 90
      120
 90
      128
 90
      120
 90
      129
 90
      119
 90
      129
 90
      119
 90
      130
 90
      118
 90
      130
 90
      118
 90
      131
 90
      117
 90
      131
 90
      117
 90
      132
 90
      116
 90
      132
 90
      116
 90
      133
 90
      115
 90
      133
 90
      115
 90
      134
 90
      114
 90
      134
 90
      114
 90
      135
 90
      137
 90
      141
 90
      136
 90
      141
 90
      136
 90
      137
 90
      141
 90
      142
 90
      136
 90
      142
 90
      142
 90
      147
 90
      136
 90
      147
 90
      142
 90
      143
 90
      143
 90
      147
 90
      143
 90
      146
 90
      146
 90
      147
 90
      143
 90
      144
 90
      144
 90
      146
 90
      144
 90
      145
 90
      145
 90
      146
 90
      137
 90
      140
 90
      140
 90
      141
 90
      137
 90
      138
 90
      138
 90
      140
 90
      138
 90
      139
 90
      139
 90
      140
 90
      149
 90
      153
 90
      148
 90
      153
 90
      148
 90
      149
 90
      153
 90
      154
 90
      148
 90
      154
 90
      154
 90
      159
 90
      148
 90
      159
 90
      154
 90
      155
 90
      155
 90
      159
 90
      155
 90
      158
 90
      158
 90
      159
 90
      155
 90
      156
 90
      156
 90
      158
 90
      156
 90
      157
 90
      157
 90
      158
 90
      149
 90
      152
 90
      152
 90
      153
 90
      149
 90
      150
 90
      150
 90
      152
 90
      150
 90
      151
 90
      151
 90
      152
 90
      137
 90
      159
 90
      137
 90
      148
 90
      136
 90
      148
 90
      136
 90
      149
 90
      147
 90
      149
 90
      147
 90
      150
 90
      146
 90
      150
 90
      146
 90
      151
 90
      145
 90
      151
 90
      145
 90
      152
 90
      144
 90
      152
 90
      144
 90
      153
 90
      143
 90
      153
 90
      143
 90
      154
 90
      142
 90
      154
 90
      142
 90
      155
 90
      141
 90
      155
 90
      141
 90
      156
 90
      140
 90
      156
 90
      140
 90
      157
 90
      139
 90
      157
 90
      139
 90
      158
 90
      138
 90
      158
 90
      138
 90
      159
 95
      444
140
0.0
140
0.0
140
0.0
140
0.0
140
0.0
140
0.0
140
0.0
140
0.0
140
0.0
140
0.0
140
0.0
140
0.0
140
0.0
140
0.0
140
0.0
140
0.0
140
0.0
140
0.0
140
0.0
140
0.0
140
0.0
140
0.0
140
0.0
140
0.0
140
0.0
140
0.0
140
0.0
140
0.0
140
0.0
140
0.0
140
0.0
140
0.0
140
0.0
140
0.0
140
0.0
140
0.0
140
0.0
140
0.0
140
0.0
140
0.0
140
0.0
140
0.0
140
0.0
140
0.0
140
0.0
140
0.0
140
0.0
140
0.0
140
0.0
140
0.0
140
0.0
140
0.0
140
0.0
140
0.0
140
0.0
140
0.0
140
0.0
140
0.0
140
0.0
140
0.0
140
0.0
140
0.0
140
0.0
140
0.0
140
0.0
140
0.0
140
0.0
140
0.0
140
0.0
140
0.0
140
0.0
140
0.0
140
0.0
140
0.0
140
0.0
140
0.0
140
0.0
140
0.0
140
0.0
140
0.0
140
0.0
140
0.0
140
0.0
140
0.0
140
0.0
140
0.0
140
0.0
140
0.0
140
0.0
140
0.0
140
0.0
140
0.0
140
0.0
140
0.0
140
0.0
140
0.0
140
0.0
140
0.0
140
0.0
140
0.0
140
0.0
140
0.0
140
0.0
140
0.0
140
0.0
140
0.0
140
0.0
140
0.0
140
0.0
140
0.0
140
0.0
140
0.0
140
0.0
140
0.0
140
0.0
140
0.0
140
0.0
140
0.0
140
0.0
140
0.0
140
0.0
140
0.0
140
0.0
140
0.0
140
0.0
140
0.0
140
0.0
140
0.0
140
0.0
140
0.0
140
0.0
140
0.0
140
0.0
140
0.0
140
0.0
140
0.0
140
0.0
140
0.0
140
0.0
140
0.0
140
0.0
140
0.0
140
0.0
140
0.0
140
0.0
140
0.0
140
0.0
140
0.0
140
0.0
140
0.0
140
0.0
140
0.0
140
0.0
140
0.0
140
0.0
140
0.0
140
0.0
140
0.0
140
0.0
140
0.0
140
0.0
140
0.0
140
0.0
140
0.0
140
0.0
140
0.0
140
0.0
140
0.0
140
0.0
140
0.0
140
0.0
140
0.0
140
0.0
140
0.0
140
0.0
140
0.0
140
0.0
140
0.0
140
0.0
140
0.0
140
0.0
140
0.0
140
0.0
140
0.0
140
0.0
140
0.0
140
0.0
140
0.0
140
0.0
140
0.0
140
0.0
140
0.0
140
0.0
140
0.0
140
0.0
140
0.0
140
0.0
140
0.0
140
0.0
140
0.0
140
0.0
140
0.0
140
0.0
140
0.0
140
0.0
140
0.0
140
0.0
140
0.0
140
0.0
140
0.0
140
0.0
140
0.0
140
0.0
140
0.0
140
0.0
140
0.0
140
0.0
140
0.0
140
0.0
140
0.0
140
0.0
140
0.0
140
0.0
140
0.0
140
0.0
140
0.0
140
0.0
140
0.0
140
0.0
140
0.0
140
0.0
140
0.0
140
0.0
140
0.0
140
0.0
140
0.0
140
0.0
140
0.0
140
0.0
140
0.0
140
0.0
140
0.0
140
0.0
140
0.0
140
0.0
140
0.0
140
0.0
140
0.0
140
0.0
140
0.0
140
0.0
140
0.0
140
0.0
140
0.0
140
0.0
140
0.0
140
0.0
140
0.0
140
0.0
140
0.0
140
0.0
140
0.0
140
0.0
140
0.0
140
0.0
140
0.0
140
0.0
140
0.0
140
0.0
140
0.0
140
0.0
140
0.0
140
0.0
140
0.0
140
0.0
140
0.0
140
0.0
140
0.0
140
0.0
140
0.0
140
0.0
140
0.0
140
0.0
140
0.0
140
0.0
140
0.0
140
0.0
140
0.0
140
0.0
140
0.0
140
0.0
140
0.0
140
0.0
140
0.0
140
0.0
140
0.0
140
0.0
140
0.0
140
0.0
140
0.0
140
0.0
140
0.0
140
0.0
140
0.0
140
0.0
140
0.0
140
0.0
140
0.0
140
0.0
140
0.0
140
0.0
140
0.0
140
0.0
140
0.0
140
0.0
140
0.0
140
0.0
140
0.0
140
0.0
140
0.0
140
0.0
140
0.0
140
0.0
140
0.0
140
0.0
140
0.0
140
0.0
140
0.0
140
0.0
140
0.0
140
0.0
140
0.0
140
0.0
140
0.0
140
0.0
140
0.0
140
0.0
140
0.0
140
0.0
140
0.0
140
0.0
140
0.0
140
0.0
140
0.0
140
0.0
140
0.0
140
0.0
140
0.0
140
0.0
140
0.0
140
0.0
140
0.0
140
0.0
140
0.0
140
0.0
140
0.0
140
0.0
140
0.0
140
0.0
140
0.0
140
0.0
140
0.0
140
0.0
140
0.0
140
0.0
140
0.0
140
0.0
140
0.0
140
0.0
140
0.0
140
0.0
140
0.0
140
0.0
140
0.0
140
0.0
140
0.0
140
0.0
140
0.0
140
0.0
140
0.0
140
0.0
140
0.0
140
0.0
140
0.0
140
0.0
140
0.0
140
0.0
140
0.0
140
0.0
140
0.0
140
0.0
140
0.0
140
0.0
140
0.0
140
0.0
140
0.0
140
0.0
140
0.0
140
0.0
140
0.0
140
0.0
140
0.0
140
0.0
140
0.0
140
0.0
140
0.0
140
0.0
140
0.0
140
0.0
140
0.0
140
0.0
140
0.0
140
0.0
140
0.0
140
0.0
140
0.0
140
0.0
140
0.0
140
0.0
140
0.0
140
0.0
140
0.0
140
0.0
140
0.0
140
0.0
140
0.0
140
0.0
140
0.0
140
0.0
140
0.0
140
0.0
140
0.0
140
0.0
140
0.0
140
0.0
140
0.0
140
0.0
140
0.0
140
0.0
140
0.0
140
0.0
140
0.0
140
0.0
140
0.0
 90
        0
  0
ENDSEC
  0
SECTION
  2
OBJECTS
  0
DICTIONARY
  5
C
330
0
100
AcDbDictionary
281
     1
  3
ACAD_COLOR
350
DC
  3
ACAD_DETAILVIEWSTYLE
350
F5
  3
ACAD_GROUP
350
D
  3
ACAD_LAYOUT
350
1A
  3
ACAD_MATERIAL
350
AA
  3
ACAD_MLEADERSTYLE
350
F1
  3
ACAD_MLINESTYLE
350
17
  3
ACAD_PLOTSETTINGS
350
19
  3
ACAD_PLOTSTYLENAME
350
E
  3
ACAD_SCALELIST
350
DF
  3
ACAD_SECTIONVIEWSTYLE
350
F3
  3
ACAD_TABLESTYLE
350
DD
  3
ACAD_VISUALSTYLE
350
C3
  3
ACDB_RECOMPOSE_DATA
350
18A
  3
AcDbVariableDictionary
350
17E
  0
DICTIONARY
  5
DC
102
{ACAD_REACTORS
330
C
102
}
330
C
100
AcDbDictionary
281
     1
  0
DICTIONARY
  5
F5
102
{ACAD_REACTORS
330
C
102
}
330
C
100
AcDbDictionary
281
     1
  3
Imperial24
350
F6
  0
DICTIONARY
  5
D
102
{ACAD_REACTORS
330
C
102
}
330
C
100
AcDbDictionary
281
     1
  0
DICTIONARY
  5
1A
102
{ACAD_REACTORS
330
C
102
}
330
C
100
AcDbDictionary
281
     1
  3
Layout1
350
1E
  3
Layout2
350
26
  3
Model
350
22
  0
DICTIONARY
  5
AA
102
{ACAD_REACTORS
330
C
102
}
330
C
100
AcDbDictionary
281
     1
  3
ByBlock
350
B3
  3
ByLayer
350
AB
  3
Global
350
BB
  0
DICTIONARY
  5
F1
102
{ACAD_REACTORS
330
C
102
}
330
C
100
AcDbDictionary
281
     1
  3
Standard
350
F2
  0
DICTIONARY
  5
17
102
{ACAD_REACTORS
330
C
102
}
330
C
100
AcDbDictionary
281
     1
  3
Standard
350
18
  0
DICTIONARY
  5
19
102
{ACAD_REACTORS
330
C
102
}
330
C
100
AcDbDictionary
281
     1
  0
ACDBDICTIONARYWDFLT
  5
E
102
{ACAD_REACTORS
330
C
102
}
330
C
100
AcDbDictionary
281
     1
  3
ByLayer
350
2D
  3
Normal
350
F
100
AcDbDictionaryWithDefault
340
F
  0
DICTIONARY
  5
DF
102
{ACAD_REACTORS
330
C
102
}
330
C
100
AcDbDictionary
281
     1
  3
A0
350
E0
  3
A1
350
E1
  3
A2
350
E2
  3
A3
350
E3
  3
A4
350
E4
  3
A5
350
E5
  3
A6
350
E6
  3
A7
350
E7
  3
A8
350
E8
  3
A9
350
E9
  3
B0
350
EA
  3
B1
350
EB
  3
B2
350
EC
  3
B3
350
ED
  3
B4
350
EE
  3
B5
350
EF
  3
B6
350
F0
  0
DICTIONARY
  5
F3
102
{ACAD_REACTORS
330
C
102
}
330
C
100
AcDbDictionary
281
     1
  3
Imperial24
350
F4
  0
DICTIONARY
  5
DD
102
{ACAD_REACTORS
330
C
102
}
330
C
100
AcDbDictionary
281
     1
  3
Standard
350
DE
  0
DICTIONARY
  5
C3
102
{ACAD_REACTORS
330
C
102
}
330
C
100
AcDbDictionary
281
     1
  3
2dWireframe
350
C9
  3
Basic
350
C8
  3
Brighten
350
CF
  3
ColorChange
350
D3
  3
Conceptual
350
CC
  3
Dim
350
CE
  3
EdgeColorOff
350
DB
  3
Facepattern
350
D2
  3
Flat
350
C4
  3
FlatWithEdges
350
C5
  3
Gouraud
350
C6
  3
GouraudWithEdges
350
C7
  3
Hidden
350
CB
  3
JitterOff
350
D9
  3
Linepattern
350
D1
  3
OverhangOff
350
DA
  3
Realistic
350
CD
  3
Shaded
350
D8
  3
Shaded with edges
350
D7
  3
Shades of Gray
350
D4
  3
Sketchy
350
D5
  3
Thicken
350
D0
  3
Wireframe
350
CA
  3
X-Ray
350
D6
  0
XRECORD
  5
18A
102
{ACAD_REACTORS
330
C
102
}
330
C
100
AcDbXrecord
280
     1
 90
        1
330
DE
  0
DICTIONARY
  5
17E
102
{ACAD_REACTORS
330
C
102
}
330
C
100
AcDbDictionary
281
     1
  3
CANNOSCALE
350
184
  3
CMLEADERSTYLE
350
180
  3
CTABLESTYLE
350
17F
  3
CVIEWDETAILSTYLE
350
181
  3
CVIEWSECTIONSTYLE
350
182
  3
LAYEREVAL
350
186
  3
LAYERNOTIFY
350
187
  3
LIGHTINGUNITS
350
185
  3
MSLTSCALE
350
183
  0
ACDBDETAILVIEWSTYLE
  5
F6
102
{ACAD_XDICTIONARY
360
1BF
102
}
102
{ACAD_REACTORS
330
F5
102
}
330
F5
100
AcDbModelDocViewStyle
 70
     0
  3
Imperial24
290
     0
100
AcDbDetailViewStyle
 70
     0
 71
     0
 90
        3
 71
     1
340
11
 62
   256
 40
0.24
340
0
 62
   256
 40
0.24
300

 40
0.36
280
     3
 71
     2
340
16
 90
       25
 62
   256
 71
     3
340
11
 62
   256
 40
0.24
 90
        1
 40
0.75
 90
        1
300
%<\AcVar ViewType \f "%tc1">% %<\AcVar ViewDetailId>%\PSCALE %<\AcVar ViewScale \f "%sn">%
 71
     4
340
16
 90
       25
 62
   256
340
16
 90
       25
 62
   256
280
     0
  0
LAYOUT
  5
1E
102
{ACAD_REACTORS
330
1A
102
}
330
1A
100
AcDbPlotSettings
  1

  2
\\KTXNTBDC\CASF2PN1
  4

  6

 40
0.0
 41
0.0
 42
0.0
 43
0.0
 44
0.0
 45
0.0
 46
0.0
 47
0.0
 48
0.0
 49
0.0
140
0.0
141
0.0
142
1.0
143
1.0
 70
   688
 72
     0
 73
     0
 74
     5
  7

 75
    16
147
1.0
 76
     0
 77
     2
 78
   300
148
0.0
149
0.0
100
AcDbLayout
  1
Layout1
 70
     1
 71
     1
 10
0.0
 20
0.0
 11
12.0
 21
9.0
 12
0.0
 22
0.0
 32
0.0
 14
1.000000000000000E+20
 24
1.000000000000000E+20
 34
1.000000000000000E+20
 15
-1.000000000000000E+20
 25
-1.000000000000000E+20
 35
-1.000000000000000E+20
146
0.0
 13
0.0
 23
0.0
 33
0.0
 16
1.0
 26
0.0
 36
0.0
 17
0.0
 27
1.0
 37
0.0
 76
     0
330
1B
  0
LAYOUT
  5
26
102
{ACAD_REACTORS
330
1A
102
}
330
1A
100
AcDbPlotSettings
  1

  2
\\KTXNTBDC\CASF2PN1
  4

  6

 40
0.0
 41
0.0
 42
0.0
 43
0.0
 44
0.0
 45
0.0
 46
0.0
 47
0.0
 48
0.0
 49
0.0
140
0.0
141
0.0
142
1.0
143
1.0
 70
   688
 72
     0
 73
     0
 74
     5
  7

 75
    16
147
1.0
 76
     0
 77
     2
 78
   300
148
0.0
149
0.0
100
AcDbLayout
  1
Layout2
 70
     1
 71
     2
 10
0.0
 20
0.0
 11
12.0
 21
9.0
 12
0.0
 22
0.0
 32
0.0
 14
0.0
 24
0.0
 34
0.0
 15
0.0
 25
0.0
 35
0.0
146
0.0
 13
0.0
 23
0.0
 33
0.0
 16
1.0
 26
0.0
 36
0.0
 17
0.0
 27
1.0
 37
0.0
 76
     0
330
23
  0
LAYOUT
  5
22
102
{ACAD_REACTORS
330
1A
102
}
330
1A
100
AcDbPlotSettings
  1

  2
\\KTXNTBDC\CASF2PN1
  4

  6

 40
0.0
 41
0.0
 42
0.0
 43
0.0
 44
0.0
 45
0.0
 46
0.0
 47
0.0
 48
0.0
 49
0.0
140
0.0
141
0.0
142
1.0
143
1.0
 70
  1712
 72
     0
 73
     0
 74
     0
  7

 75
     0
147
1.0
 76
     0
 77
     2
 78
   300
148
0.0
149
0.0
100
AcDbLayout
  1
Model
 70
     1
 71
     0
 10
0.0
 20
0.0
 11
12.0
 21
9.0
 12
0.0
 22
0.0
 32
0.0
 14
0.0
 24
0.0
 34
0.0
 15
0.0
 25
0.0
 35
0.0
146
0.0
 13
0.0
 23
0.0
 33
0.0
 16
1.0
 26
0.0
 36
0.0
 17
0.0
 27
1.0
 37
0.0
 76
     0
330
1F
  0
MATERIAL
  5
B3
102
{ACAD_XDICTIONARY
360
B4
102
}
102
{ACAD_REACTORS
330
AA
102
}
330
AA
100
AcDbMaterial
  1
ByBlock
 72
     0
 43
0.0208333333333333
 43
0.0
 43
0.0
 43
0.0
 43
0.0
 43
0.0208333333333333
 43
0.0
 43
0.0
 43
0.0
 43
0.0
 43
1.0
 43
0.0
 43
0.0
 43
0.0
 43
0.0
 43
1.0
 77
     0
 47
0.0208333333333333
 47
0.0
 47
0.0
 47
0.0
 47
0.0
 47
0.0208333333333333
 47
0.0
 47
0.0
 47
0.0
 47
0.0
 47
1.0
 47
0.0
 47
0.0
 47
0.0
 47
0.0
 47
1.0
171
     0
 49
0.0208333333333333
 49
0.0
 49
0.0
 49
0.0
 49
0.0
 49
0.0208333333333333
 49
0.0
 49
0.0
 49
0.0
 49
0.0
 49
1.0
 49
0.0
 49
0.0
 49
0.0
 49
0.0
 49
1.0
175
     0
142
0.0208333333333333
142
0.0
142
0.0
142
0.0
142
0.0
142
0.0208333333333333
142
0.0
142
0.0
142
0.0
142
0.0
142
1.0
142
0.0
142
0.0
142
0.0
142
0.0
142
1.0
179
     0
144
0.0208333333333333
144
0.0
144
0.0
144
0.0
144
0.0
144
0.0208333333333333
144
0.0
144
0.0
144
0.0
144
0.0
144
1.0
144
0.0
144
0.0
144
0.0
144
0.0
144
1.0
147
0.0208333333333333
147
0.0
147
0.0
147
0.0
147
0.0
147
0.0208333333333333
147
0.0
147
0.0
147
0.0
147
0.0
147
1.0
147
0.0
147
0.0
147
0.0
147
0.0
147
1.0
  0
MATERIAL
  5
AB
102
{ACAD_XDICTIONARY
360
AC
102
}
102
{ACAD_REACTORS
330
AA
102
}
330
AA
100
AcDbMaterial
  1
ByLayer
 72
     0
 43
0.0208333333333333
 43
0.0
 43
0.0
 43
0.0
 43
0.0
 43
0.0208333333333333
 43
0.0
 43
0.0
 43
0.0
 43
0.0
 43
1.0
 43
0.0
 43
0.0
 43
0.0
 43
0.0
 43
1.0
 77
     0
 47
0.0208333333333333
 47
0.0
 47
0.0
 47
0.0
 47
0.0
 47
0.0208333333333333
 47
0.0
 47
0.0
 47
0.0
 47
0.0
 47
1.0
 47
0.0
 47
0.0
 47
0.0
 47
0.0
 47
1.0
171
     0
 49
0.0208333333333333
 49
0.0
 49
0.0
 49
0.0
 49
0.0
 49
0.0208333333333333
 49
0.0
 49
0.0
 49
0.0
 49
0.0
 49
1.0
 49
0.0
 49
0.0
 49
0.0
 49
0.0
 49
1.0
175
     0
142
0.0208333333333333
142
0.0
142
0.0
142
0.0
142
0.0
142
0.0208333333333333
142
0.0
142
0.0
142
0.0
142
0.0
142
1.0
142
0.0
142
0.0
142
0.0
142
0.0
142
1.0
179
     0
144
0.0208333333333333
144
0.0
144
0.0
144
0.0
144
0.0
144
0.0208333333333333
144
0.0
144
0.0
144
0.0
144
0.0
144
1.0
144
0.0
144
0.0
144
0.0
144
0.0
144
1.0
147
0.0208333333333333
147
0.0
147
0.0
147
0.0
147
0.0
147
0.0208333333333333
147
0.0
147
0.0
147
0.0
147
0.0
147
1.0
147
0.0
147
0.0
147
0.0
147
0.0
147
1.0
  0
MATERIAL
  5
BB
102
{ACAD_XDICTIONARY
360
BC
102
}
102
{ACAD_REACTORS
330
AA
102
}
330
AA
100
AcDbMaterial
  1
Global
 72
     0
 43
0.0208333333333333
 43
0.0
 43
0.0
 43
0.0
 43
0.0
 43
0.0208333333333333
 43
0.0
 43
0.0
 43
0.0
 43
0.0
 43
1.0
 43
0.0
 43
0.0
 43
0.0
 43
0.0
 43
1.0
 77
     0
 47
0.0208333333333333
 47
0.0
 47
0.0
 47
0.0
 47
0.0
 47
0.0208333333333333
 47
0.0
 47
0.0
 47
0.0
 47
0.0
 47
1.0
 47
0.0
 47
0.0
 47
0.0
 47
0.0
 47
1.0
171
     0
 49
0.0208333333333333
 49
0.0
 49
0.0
 49
0.0
 49
0.0
 49
0.0208333333333333
 49
0.0
 49
0.0
 49
0.0
 49
0.0
 49
1.0
 49
0.0
 49
0.0
 49
0.0
 49
0.0
 49
1.0
175
     0
142
0.0208333333333333
142
0.0
142
0.0
142
0.0
142
0.0
142
0.0208333333333333
142
0.0
142
0.0
142
0.0
142
0.0
142
1.0
142
0.0
142
0.0
142
0.0
142
0.0
142
1.0
179
     0
144
0.0208333333333333
144
0.0
144
0.0
144
0.0
144
0.0
144
0.0208333333333333
144
0.0
144
0.0
144
0.0
144
0.0
144
1.0
144
0.0
144
0.0
144
0.0
144
0.0
144
1.0
147
0.0208333333333333
147
0.0
147
0.0
147
0.0
147
0.0
147
0.0208333333333333
147
0.0
147
0.0
147
0.0
147
0.0
147
1.0
147
0.0
147
0.0
147
0.0
147
0.0
147
1.0
  0
MLEADERSTYLE
  5
F2
102
{ACAD_XDICTIONARY
360
1BB
102
}
102
{ACAD_REACTORS
330
F1
102
}
330
F1
100
AcDbMLeaderStyle
179
     2
170
     2
171
     1
172
     0
 90
        2
 40
0.0
 41
0.0
173
     1
 91
-1056964608
340
14
 92
       -2
290
     1
 42
0.09
291
     1
 43
0.36
  3
Standard
 44
0.18
300

342
11
174
     1
178
     6
175
     1
176
     0
 93
-1056964608
 45
0.18
292
     0
297
     0
 46
0.18
 94
-1056964608
 47
1.0
 49
1.0
140
1.0
293
     1
141
0.0
294
     1
177
     0
142
1.0
295
     0
296
     0
143
0.125
271
     0
272
     9
273
     9
  0
MLINESTYLE
  5
18
102
{ACAD_REACTORS
330
17
102
}
330
17
100
AcDbMlineStyle
  2
STANDARD
 70
     0
  3

 62
   256
 51
90.0
 52
90.0
 71
     2
 49
0.5
 62
   256
  6
BYLAYER
 49
-0.5
 62
   256
  6
BYLAYER
  0
ACDBPLACEHOLDER
  5
2D
102
{ACAD_REACTORS
330
E
102
}
330
E
  0
ACDBPLACEHOLDER
  5
F
102
{ACAD_REACTORS
330
E
102
}
330
E
  0
SCALE
  5
E0
102
{ACAD_REACTORS
330
DF
102
}
330
DF
100
AcDbScale
 70
     0
300
1:1
140
1.0
141
1.0
290
     1
  0
SCALE
  5
E1
102
{ACAD_REACTORS
330
DF
102
}
330
DF
100
AcDbScale
 70
     0
300
1/128" = 1'-0"
140
0.0078125
141
12.0
290
     0
  0
SCALE
  5
E2
102
{ACAD_REACTORS
330
DF
102
}
330
DF
100
AcDbScale
 70
     0
300
1/64" = 1'-0"
140
0.015625
141
12.0
290
     0
  0
SCALE
  5
E3
102
{ACAD_REACTORS
330
DF
102
}
330
DF
100
AcDbScale
 70
     0
300
1/32" = 1'-0"
140
0.03125
141
12.0
290
     0
  0
SCALE
  5
E4
102
{ACAD_REACTORS
330
DF
102
}
330
DF
100
AcDbScale
 70
     0
300
1/16" = 1'-0"
140
0.0625
141
12.0
290
     0
  0
SCALE
  5
E5
102
{ACAD_REACTORS
330
DF
102
}
330
DF
100
AcDbScale
 70
     0
300
3/32" = 1'-0"
140
0.09375
141
12.0
290
     0
  0
SCALE
  5
E6
102
{ACAD_REACTORS
330
DF
102
}
330
DF
100
AcDbScale
 70
     0
300
1/8" = 1'-0"
140
0.125
141
12.0
290
     0
  0
SCALE
  5
E7
102
{ACAD_REACTORS
330
DF
102
}
330
DF
100
AcDbScale
 70
     0
300
3/16" = 1'-0"
140
0.1875
141
12.0
290
     0
  0
SCALE
  5
E8
102
{ACAD_REACTORS
330
DF
102
}
330
DF
100
AcDbScale
 70
     0
300
1/4" = 1'-0"
140
0.25
141
12.0
290
     0
  0
SCALE
  5
E9
102
{ACAD_REACTORS
330
DF
102
}
330
DF
100
AcDbScale
 70
     0
300
3/8" = 1'-0"
140
0.375
141
12.0
290
     0
  0
SCALE
  5
EA
102
{ACAD_REACTORS
330
DF
102
}
330
DF
100
AcDbScale
 70
     0
300
1/2" = 1'-0"
140
0.5
141
12.0
290
     0
  0
SCALE
  5
EB
102
{ACAD_REACTORS
330
DF
102
}
330
DF
100
AcDbScale
 70
     0
300
3/4" = 1'-0"
140
0.75
141
12.0
290
     0
  0
SCALE
  5
EC
102
{ACAD_REACTORS
330
DF
102
}
330
DF
100
AcDbScale
 70
     0
300
1" = 1'-0"
140
1.0
141
12.0
290
     0
  0
SCALE
  5
ED
102
{ACAD_REACTORS
330
DF
102
}
330
DF
100
AcDbScale
 70
     0
300
1-1/2" = 1'-0"
140
1.5
141
12.0
290
     0
  0
SCALE
  5
EE
102
{ACAD_REACTORS
330
DF
102
}
330
DF
100
AcDbScale
 70
     0
300
3" = 1'-0"
140
3.0
141
12.0
290
     0
  0
SCALE
  5
EF
102
{ACAD_REACTORS
330
DF
102
}
330
DF
100
AcDbScale
 70
     0
300
6" = 1'-0"
140
6.0
141
12.0
290
     0
  0
SCALE
  5
F0
102
{ACAD_REACTORS
330
DF
102
}
330
DF
100
AcDbScale
 70
     0
300
1'-0" = 1'-0"
140
12.0
141
12.0
290
     0
  0
ACDBSECTIONVIEWSTYLE
  5
F4
102
{ACAD_XDICTIONARY
360
1BD
102
}
102
{ACAD_REACTORS
330
F3
102
}
330
F3
100
AcDbModelDocViewStyle
 70
     0
  3
Imperial24
290
     0
100
AcDbSectionViewStyle
 70
     0
 71
     0
 90
       78
 71
     1
340
11
 62
   256
 40
0.24
340
0
340
0
 62
   256
 40
0.24
300
I, O, Q, S, X, Z
 40
0.48
 90
        3
 40
0.18
 90
        1
 71
     2
340
16
 90
       25
 62
   256
340
16
 90
       50
 62
   256
 40
0.24
 40
0.0
 40
0.24
 71
     3
340
11
 62
   256
 40
0.24
 90
        1
 40
0.75
 90
        1
300
%<\AcVar ViewType \f "%tc1">% %<\AcVar ViewSectionStartId>%-%<\AcVar ViewSectionEndId>%\PSCALE %<\AcVar ViewScale \f "%sn">%
 71
     4
 62
   256
 62
   257
300
ANSI31
 40
1.0
 90
        0
290
     0
290
     0
 90
        6
 40
0.0
 40
1.570796326794896
 40
0.2617993877991494
 40
1.308996938995747
 40
-0.2617993877991494
 40
1.832595714594046
  0
TABLESTYLE
  5
DE
102
{ACAD_XDICTIONARY
360
188
102
}
102
{ACAD_REACTORS
330
DD
102
}
330
DD
100
AcDbTableStyle
280
     0
  3
Standard
 70
     0
 71
     0
 40
0.06
 41
0.06
280
     0
281
     0
  7
Standard
140
0.18
170
     2
 62
     0
 63
     7
283
     0
 90
      512
 91
        0
  1

274
    -2
284
     1
 64
     0
275
    -2
285
     1
 65
     0
276
    -2
286
     1
 66
     0
277
    -2
287
     1
 67
     0
278
    -2
288
     1
 68
     0
279
    -2
289
     1
 69
     0
  7
Standard
140
0.25
170
     5
 62
     0
 63
     7
283
     0
 90
      512
 91
        0
  1

274
    -2
284
     1
 64
     0
275
    -2
285
     1
 65
     0
276
    -2
286
     1
 66
     0
277
    -2
287
     1
 67
     0
278
    -2
288
     1
 68
     0
279
    -2
289
     1
 69
     0
  7
Standard
140
0.18
170
     5
 62
     0
 63
     7
283
     0
 90
      512
 91
        0
  1

274
    -2
284
     1
 64
     0
275
    -2
285
     1
 65
     0
276
    -2
286
     1
 66
     0
277
    -2
287
     1
 67
     0
278
    -2
288
     1
 68
     0
279
    -2
289
     1
 69
     0
  0
VISUALSTYLE
  5
C9
102
{ACAD_XDICTIONARY
360
195
102
}
102
{ACAD_REACTORS
330
C3
102
}
330
C3
100
AcDbVisualStyle
  2
2dWireframe
 70
     4
177
     2
291
     0
 71
     0
176
     1
 72
     2
176
     1
 73
     0
176
     1
 90
        0
176
     1
 40
0.6
176
     1
 41
30.0
176
     1
 63
     7
421
 16777215
176
     1
 74
     1
176
     1
 91
        4
176
     1
 64
     7
176
     1
 65
   257
176
     1
 75
     1
176
     1
175
     1
176
     1
 42
1.0
176
     1
 92
        0
176
     1
 66
   257
176
     1
 43
1.0
176
     1
 76
     1
176
     1
 77
     6
176
     1
 78
     2
176
     1
 67
     7
176
     1
 79
     5
176
     1
170
     0
176
     1
171
     0
176
     1
290
     0
176
     1
 93
        1
176
     1
 44
0.0
176
     1
173
     0
176
     1
1001
ACAD
1000
AcDbSavedByObjectVersion
1070
     0
  0
VISUALSTYLE
  5
C8
102
{ACAD_XDICTIONARY
360
193
102
}
102
{ACAD_REACTORS
330
C3
102
}
330
C3
100
AcDbVisualStyle
  2
Basic
 70
     7
177
     2
291
     1
 71
     1
176
     1
 72
     0
176
     1
 73
     1
176
     1
 90
        0
176
     1
 40
0.6
176
     1
 41
30.0
176
     1
 63
     7
421
 16777215
176
     1
 74
     0
176
     1
 91
        4
176
     1
 64
     7
176
     1
 65
   257
176
     1
 75
     1
176
     1
175
     1
176
     1
 42
1.0
176
     1
 92
        8
176
     1
 66
     7
176
     1
 43
1.0
176
     1
 76
     1
176
     1
 77
     6
176
     1
 78
     2
176
     1
 67
     7
176
     1
 79
     5
176
     1
170
     0
176
     1
171
     0
176
     1
290
     0
176
     1
 93
        1
176
     1
 44
0.0
176
     1
173
     0
176
     1
1001
ACAD
1000
AcDbSavedByObjectVersion
1070
     0
  0
VISUALSTYLE
  5
CF
102
{ACAD_XDICTIONARY
360
1A1
102
}
102
{ACAD_REACTORS
330
C3
102
}
330
C3
100
AcDbVisualStyle
  2
Brighten
 70
    12
177
     2
291
     1
 71
     2
176
     1
 72
     2
176
     1
 73
     0
176
     1
 90
        0
176
     1
 40
0.6
176
     1
 41
30.0
176
     1
 63
     7
421
 16777215
176
     1
 74
     1
176
     1
 91
        4
176
     1
 64
     7
176
     1
 65
   257
176
     1
 75
     1
176
     1
175
     1
176
     1
 42
1.0
176
     1
 92
        8
176
     1
 66
     7
176
     1
 43
1.0
176
     1
 76
     1
176
     1
 77
     6
176
     1
 78
     2
176
     1
 67
     7
176
     1
 79
     5
176
     1
170
     0
176
     1
171
     0
176
     1
290
     0
176
     1
 93
        1
176
     1
 44
50.0
176
     1
173
     0
176
     1
1001
ACAD
1000
AcDbSavedByObjectVersion
1070
     0
  0
VISUALSTYLE
  5
D3
102
{ACAD_XDICTIONARY
360
1A9
102
}
102
{ACAD_REACTORS
330
C3
102
}
330
C3
100
AcDbVisualStyle
  2
ColorChange
 70
    16
177
     2
291
     1
 71
     2
176
     1
 72
     2
176
     1
 73
     3
176
     1
 90
        0
176
     1
 40
0.6
176
     1
 41
30.0
176
     1
 63
     8
421
  8421504
176
     1
 74
     1
176
     1
 91
        4
176
     1
 64
     7
176
     1
 65
   257
176
     1
 75
     1
176
     1
175
     1
176
     1
 42
1.0
176
     1
 92
        8
176
     1
 66
     8
424
  8421504
176
     1
 43
1.0
176
     1
 76
     1
176
     1
 77
     6
176
     1
 78
     2
176
     1
 67
     7
176
     1
 79
     5
176
     1
170
     0
176
     1
171
     0
176
     1
290
     0
176
     1
 93
        1
176
     1
 44
0.0
176
     1
173
     0
176
     1
1001
ACAD
1000
AcDbSavedByObjectVersion
1070
     0
  0
VISUALSTYLE
  5
CC
102
{ACAD_XDICTIONARY
360
19B
102
}
102
{ACAD_REACTORS
330
C3
102
}
330
C3
100
AcDbVisualStyle
  2
Conceptual
 70
     9
177
     2
291
     0
 71
     3
176
     1
 72
     2
176
     1
 73
     0
176
     1
 90
        0
176
     1
 40
0.6
176
     1
 41
30.0
176
     1
 63
     7
421
 16777215
176
     1
 74
     2
176
     1
 91
        2
176
     1
 64
     7
176
     1
 65
   257
176
     1
 75
     1
176
     1
175
     1
176
     1
 42
179.0
176
     1
 92
        8
176
     1
 66
     7
176
     1
 43
1.0
176
     1
 76
     1
176
     1
 77
     6
176
     1
 78
     2
176
     1
 67
     7
176
     1
 79
     3
176
     1
170
     0
176
     1
171
     0
176
     1
290
     0
176
     1
 93
        1
176
     1
 44
0.0
176
     1
173
     0
176
     1
1001
ACAD
1000
AcDbSavedByObjectVersion
1070
     0
  0
VISUALSTYLE
  5
CE
102
{ACAD_XDICTIONARY
360
19F
102
}
102
{ACAD_REACTORS
330
C3
102
}
330
C3
100
AcDbVisualStyle
  2
Dim
 70
    11
177
     2
291
     1
 71
     2
176
     1
 72
     2
176
     1
 73
     0
176
     1
 90
        0
176
     1
 40
0.6
176
     1
 41
30.0
176
     1
 63
     7
421
 16777215
176
     1
 74
     1
176
     1
 91
        4
176
     1
 64
     7
176
     1
 65
   257
176
     1
 75
     1
176
     1
175
     1
176
     1
 42
1.0
176
     1
 92
        8
176
     1
 66
     7
176
     1
 43
1.0
176
     1
 76
     1
176
     1
 77
     6
176
     1
 78
     2
176
     1
 67
     7
176
     1
 79
     5
176
     1
170
     0
176
     1
171
     0
176
     1
290
     0
176
     1
 93
        1
176
     1
 44
-50.0
176
     1
173
     0
176
     1
1001
ACAD
1000
AcDbSavedByObjectVersion
1070
     0
  0
VISUALSTYLE
  5
DB
102
{ACAD_XDICTIONARY
360
1B9
102
}
102
{ACAD_REACTORS
330
C3
102
}
330
C3
100
AcDbVisualStyle
  2
EdgeColorOff
 70
    22
177
     2
291
     1
 71
     2
176
     0
 72
     2
176
     0
 73
     0
176
     0
 90
        0
176
     0
 40
0.6
176
     0
 41
30.0
176
     0
 63
     7
421
 16777215
176
     0
 74
     1
176
     0
 91
        4
176
     0
 64
     7
176
     0
 65
   257
176
     0
 75
     1
176
     0
175
     1
176
     0
 42
1.0
176
     0
 92
        8
176
     2
 66
     7
176
     0
 43
1.0
176
     0
 76
     1
176
     0
 77
     6
176
     0
 78
     2
176
     0
 67
     7
176
     0
 79
     5
176
     0
170
     0
176
     0
171
     0
176
     0
290
     0
176
     0
 93
        1
176
     0
 44
0.0
176
     0
173
     0
176
     0
1001
ACAD
1000
AcDbSavedByObjectVersion
1070
     0
  0
VISUALSTYLE
  5
D2
102
{ACAD_XDICTIONARY
360
1A7
102
}
102
{ACAD_REACTORS
330
C3
102
}
330
C3
100
AcDbVisualStyle
  2
Facepattern
 70
    15
177
     2
291
     1
 71
     2
176
     1
 72
     2
176
     1
 73
     0
176
     1
 90
        0
176
     1
 40
0.6
176
     1
 41
30.0
176
     1
 63
     7
421
 16777215
176
     1
 74
     1
176
     1
 91
        4
176
     1
 64
     7
176
     1
 65
   257
176
     1
 75
     1
176
     1
175
     1
176
     1
 42
1.0
176
     1
 92
        8
176
     1
 66
     7
176
     1
 43
1.0
176
     1
 76
     1
176
     1
 77
     6
176
     1
 78
     2
176
     1
 67
     7
176
     1
 79
     5
176
     1
170
     0
176
     1
171
     0
176
     1
290
     0
176
     1
 93
        1
176
     1
 44
0.0
176
     1
173
     0
176
     1
1001
ACAD
1000
AcDbSavedByObjectVersion
1070
     0
  0
VISUALSTYLE
  5
C4
102
{ACAD_XDICTIONARY
360
18B
102
}
102
{ACAD_REACTORS
330
C3
102
}
330
C3
100
AcDbVisualStyle
  2
Flat
 70
     0
177
     2
291
     1
 71
     2
176
     1
 72
     1
176
     1
 73
     1
176
     1
 90
        2
176
     1
 40
0.6
176
     1
 41
30.0
176
     1
 63
     7
421
 16777215
176
     1
 74
     0
176
     1
 91
        0
176
     1
 64
     7
176
     1
 65
   257
176
     1
 75
     1
176
     1
175
     1
176
     1
 42
1.0
176
     1
 92
        8
176
     1
 66
     7
176
     1
 43
1.0
176
     1
 76
     1
176
     1
 77
     6
176
     1
 78
     2
176
     1
 67
     7
176
     1
 79
     5
176
     1
170
     0
176
     1
171
     0
176
     1
290
     0
176
     1
 93
       13
176
     1
 44
0.0
176
     1
173
     0
176
     1
1001
ACAD
1000
AcDbSavedByObjectVersion
1070
     0
  0
VISUALSTYLE
  5
C5
102
{ACAD_XDICTIONARY
360
18D
102
}
102
{ACAD_REACTORS
330
C3
102
}
330
C3
100
AcDbVisualStyle
  2
FlatWithEdges
 70
     1
177
     2
291
     1
 71
     2
176
     1
 72
     1
176
     1
 73
     1
176
     1
 90
        2
176
     1
 40
0.6
176
     1
 41
30.0
176
     1
 63
     7
421
 16777215
176
     1
 74
     1
176
     1
 91
        0
176
     1
 64
     7
176
     1
 65
   257
176
     1
 75
     1
176
     1
175
     1
176
     1
 42
1.0
176
     1
 92
        0
176
     1
 66
   257
176
     1
 43
1.0
176
     1
 76
     1
176
     1
 77
     6
176
     1
 78
     2
176
     1
 67
     7
176
     1
 79
     5
176
     1
170
     0
176
     1
171
     0
176
     1
290
     0
176
     1
 93
       13
176
     1
 44
0.0
176
     1
173
     0
176
     1
1001
ACAD
1000
AcDbSavedByObjectVersion
1070
     0
  0
VISUALSTYLE
  5
C6
102
{ACAD_XDICTIONARY
360
18F
102
}
102
{ACAD_REACTORS
330
C3
102
}
330
C3
100
AcDbVisualStyle
  2
Gouraud
 70
     2
177
     2
291
     1
 71
     2
176
     1
 72
     2
176
     1
 73
     1
176
     1
 90
        2
176
     1
 40
0.6
176
     1
 41
30.0
176
     1
 63
     7
421
 16777215
176
     1
 74
     0
176
     1
 91
        0
176
     1
 64
     7
176
     1
 65
   257
176
     1
 75
     1
176
     1
175
     1
176
     1
 42
1.0
176
     1
 92
        0
176
     1
 66
     7
176
     1
 43
1.0
176
     1
 76
     1
176
     1
 77
     6
176
     1
 78
     2
176
     1
 67
     7
176
     1
 79
     5
176
     1
170
     0
176
     1
171
     0
176
     1
290
     0
176
     1
 93
       13
176
     1
 44
0.0
176
     1
173
     0
176
     1
1001
ACAD
1000
AcDbSavedByObjectVersion
1070
     0
  0
VISUALSTYLE
  5
C7
102
{ACAD_XDICTIONARY
360
191
102
}
102
{ACAD_REACTORS
330
C3
102
}
330
C3
100
AcDbVisualStyle
  2
GouraudWithEdges
 70
     3
177
     2
291
     1
 71
     2
176
     1
 72
     2
176
     1
 73
     1
176
     1
 90
        2
176
     1
 40
0.6
176
     1
 41
30.0
176
     1
 63
     7
421
 16777215
176
     1
 74
     1
176
     1
 91
        0
176
     1
 64
     7
176
     1
 65
   257
176
     1
 75
     1
176
     1
175
     1
176
     1
 42
1.0
176
     1
 92
        0
176
     1
 66
   257
176
     1
 43
1.0
176
     1
 76
     1
176
     1
 77
     6
176
     1
 78
     2
176
     1
 67
     7
176
     1
 79
     5
176
     1
170
     0
176
     1
171
     0
176
     1
290
     0
176
     1
 93
       13
176
     1
 44
0.0
176
     1
173
     0
176
     1
1001
ACAD
1000
AcDbSavedByObjectVersion
1070
     0
  0
VISUALSTYLE
  5
CB
102
{ACAD_XDICTIONARY
360
199
102
}
102
{ACAD_REACTORS
330
C3
102
}
330
C3
100
AcDbVisualStyle
  2
Hidden
 70
     6
177
     2
291
     0
 71
     1
176
     1
 72
     2
176
     1
 73
     2
176
     1
 90
        0
176
     1
 40
0.6
176
     1
 41
30.0
176
     1
 63
     7
421
 16777215
176
     1
 74
     2
176
     1
 91
        2
176
     1
 64
     7
176
     1
 65
   257
176
     1
 75
     2
176
     1
175
     1
176
     1
 42
40.0
176
     1
 92
        0
176
     1
 66
   257
176
     1
 43
1.0
176
     1
 76
     1
176
     1
 77
     6
176
     1
 78
     2
176
     1
 67
     7
176
     1
 79
     3
176
     1
170
     0
176
     1
171
     0
176
     1
290
     0
176
     1
 93
        1
176
     1
 44
0.0
176
     1
173
     0
176
     1
1001
ACAD
1000
AcDbSavedByObjectVersion
1070
     0
  0
VISUALSTYLE
  5
D9
102
{ACAD_XDICTIONARY
360
1B5
102
}
102
{ACAD_REACTORS
330
C3
102
}
330
C3
100
AcDbVisualStyle
  2
JitterOff
 70
    20
177
     2
291
     1
 71
     2
176
     0
 72
     2
176
     0
 73
     0
176
     0
 90
        0
176
     0
 40
0.6
176
     0
 41
30.0
176
     0
 63
     7
421
 16777215
176
     0
 74
     1
176
     0
 91
        4
176
     0
 64
     7
176
     0
 65
   257
176
     0
 75
     1
176
     0
175
     1
176
     0
 42
1.0
176
     0
 92
       10
176
     2
 66
     7
176
     0
 43
1.0
176
     0
 76
     1
176
     0
 77
     6
176
     0
 78
     2
176
     0
 67
     7
176
     0
 79
     5
176
     0
170
     0
176
     0
171
     0
176
     0
290
     0
176
     0
 93
        1
176
     0
 44
0.0
176
     0
173
     0
176
     0
1001
ACAD
1000
AcDbSavedByObjectVersion
1070
     0
  0
VISUALSTYLE
  5
D1
102
{ACAD_XDICTIONARY
360
1A5
102
}
102
{ACAD_REACTORS
330
C3
102
}
330
C3
100
AcDbVisualStyle
  2
Linepattern
 70
    14
177
     2
291
     1
 71
     2
176
     1
 72
     2
176
     1
 73
     0
176
     1
 90
        0
176
     1
 40
0.6
176
     1
 41
30.0
176
     1
 63
     7
421
 16777215
176
     1
 74
     1
176
     1
 91
        4
176
     1
 64
     7
176
     1
 65
   257
176
     1
 75
     7
176
     1
175
     7
176
     1
 42
1.0
176
     1
 92
        8
176
     1
 66
     7
176
     1
 43
1.0
176
     1
 76
     1
176
     1
 77
     6
176
     1
 78
     2
176
     1
 67
     7
176
     1
 79
     5
176
     1
170
     0
176
     1
171
     0
176
     1
290
     0
176
     1
 93
        1
176
     1
 44
0.0
176
     1
173
     0
176
     1
1001
ACAD
1000
AcDbSavedByObjectVersion
1070
     0
  0
VISUALSTYLE
  5
DA
102
{ACAD_XDICTIONARY
360
1B7
102
}
102
{ACAD_REACTORS
330
C3
102
}
330
C3
100
AcDbVisualStyle
  2
OverhangOff
 70
    21
177
     2
291
     1
 71
     2
176
     0
 72
     2
176
     0
 73
     0
176
     0
 90
        0
176
     0
 40
0.6
176
     0
 41
30.0
176
     0
 63
     7
421
 16777215
176
     0
 74
     1
176
     0
 91
        4
176
     0
 64
     7
176
     0
 65
   257
176
     0
 75
     1
176
     0
175
     1
176
     0
 42
1.0
176
     0
 92
        9
176
     2
 66
     7
176
     0
 43
1.0
176
     0
 76
     1
176
     0
 77
     6
176
     0
 78
     2
176
     0
 67
     7
176
     0
 79
     5
176
     0
170
     0
176
     0
171
     0
176
     0
290
     0
176
     0
 93
        1
176
     0
 44
0.0
176
     0
173
     0
176
     0
1001
ACAD
1000
AcDbSavedByObjectVersion
1070
     0
  0
VISUALSTYLE
  5
CD
102
{ACAD_XDICTIONARY
360
19D
102
}
102
{ACAD_REACTORS
330
C3
102
}
330
C3
100
AcDbVisualStyle
  2
Realistic
 70
     8
177
     2
291
     0
 71
     2
176
     1
 72
     3
176
     1
 73
     0
176
     1
 90
        2
176
     1
 40
0.6
176
     1
 41
30.0
176
     1
 63
     7
421
 16777215
176
     1
 74
     0
176
     1
 91
        0
176
     1
 64
     7
176
     1
 65
   257
176
     1
 75
     1
176
     1
175
     1
176
     1
 42
1.0
176
     1
 92
        8
176
     1
 66
   257
176
     1
 43
1.0
176
     1
 76
     1
176
     1
 77
     6
176
     1
 78
     2
176
     1
 67
     7
176
     1
 79
     3
176
     1
170
     0
176
     1
171
     0
176
     1
290
     0
176
     1
 93
       13
176
     1
 44
0.0
176
     1
173
     0
176
     1
1001
ACAD
1000
AcDbSavedByObjectVersion
1070
     0
  0
VISUALSTYLE
  5
D8
102
{ACAD_XDICTIONARY
360
1B3
102
}
102
{ACAD_REACTORS
330
C3
102
}
330
C3
100
AcDbVisualStyle
  2
Shaded
 70
    27
177
     2
291
     0
 71
     2
176
     1
 72
     2
176
     1
 73
     1
176
     1
 90
        2
176
     1
 40
0.6
176
     1
 41
30.0
176
     1
 63
     7
421
 16777215
176
     1
 74
     0
176
     1
 91
        4
176
     1
 64
     7
176
     1
 65
   257
176
     1
 75
     1
176
     1
175
     1
176
     1
 42
1.0
176
     1
 92
        8
176
     1
 66
   257
176
     1
 43
1.0
176
     1
 76
     1
176
     1
 77
     6
176
     1
 78
     2
176
     1
 67
     8
425
  7895160
176
     1
 79
     3
176
     1
170
     0
176
     1
171
     0
176
     1
290
     0
176
     1
 93
        5
176
     1
 44
0.0
176
     1
173
     0
176
     1
1001
ACAD
1000
AcDbSavedByObjectVersion
1070
     0
  0
VISUALSTYLE
  5
D7
102
{ACAD_XDICTIONARY
360
1B1
102
}
102
{ACAD_REACTORS
330
C3
102
}
330
C3
100
AcDbVisualStyle
  2
Shaded with edges
 70
    26
177
     2
291
     0
 71
     2
176
     1
 72
     2
176
     1
 73
     1
176
     1
 90
        2
176
     1
 40
0.6
176
     1
 41
30.0
176
     1
 63
     7
421
 16777215
176
     1
 74
     1
176
     1
 91
        2
176
     1
 64
     7
176
     1
 65
   257
176
     1
 75
     2
176
     1
175
     1
176
     1
 42
1.0
176
     1
 92
        8
176
     1
 66
   257
176
     1
 43
1.0
176
     1
 76
     1
176
     1
 77
     6
176
     1
 78
     2
176
     1
 67
     7
176
     1
 79
     3
176
     1
170
     0
176
     1
171
     0
176
     1
290
     0
176
     1
 93
        5
176
     1
 44
0.0
176
     1
173
     0
176
     1
1001
ACAD
1000
AcDbSavedByObjectVersion
1070
     0
  0
VISUALSTYLE
  5
D4
102
{ACAD_XDICTIONARY
360
1AB
102
}
102
{ACAD_REACTORS
330
C3
102
}
330
C3
100
AcDbVisualStyle
  2
Shades of Gray
 70
    23
177
     2
291
     0
 71
     2
176
     1
 72
     2
176
     1
 73
     3
176
     1
 90
        0
176
     1
 40
0.6
176
     1
 41
30.0
176
     1
 63
     7
421
 16777215
176
     1
 74
     2
176
     1
 91
        2
176
     1
 64
     7
176
     1
 65
     7
176
     1
 75
     1
176
     1
175
     1
176
     1
 42
40.0
176
     1
 92
        8
176
     1
 66
     7
176
     1
 43
1.0
176
     1
 76
     1
176
     1
 77
     6
176
     1
 78
     2
176
     1
 67
     7
176
     1
 79
     3
176
     1
170
     0
176
     1
171
     0
176
     1
290
     0
176
     1
 93
        1
176
     1
 44
0.0
176
     1
173
     0
176
     1
1001
ACAD
1000
AcDbSavedByObjectVersion
1070
     0
  0
VISUALSTYLE
  5
D5
102
{ACAD_XDICTIONARY
360
1AD
102
}
102
{ACAD_REACTORS
330
C3
102
}
330
C3
100
AcDbVisualStyle
  2
Sketchy
 70
    24
177
     2
291
     0
 71
     1
176
     1
 72
     2
176
     1
 73
     2
176
     1
 90
        0
176
     1
 40
0.6
176
     1
 41
30.0
176
     1
 63
     7
421
 16777215
176
     1
 74
     2
176
     1
 91
        2
176
     1
 64
     7
176
     1
 65
     7
176
     1
 75
     1
176
     1
175
     1
176
     1
 42
40.0
176
     1
 92
       11
176
     1
 66
     7
176
     1
 43
1.0
176
     1
 76
     1
176
     1
 77
     6
176
     1
 78
     2
176
     1
 67
     7
176
     1
 79
     6
176
     1
170
     0
176
     1
171
     0
176
     1
290
     0
176
     1
 93
        1
176
     1
 44
0.0
176
     1
173
     0
176
     1
1001
ACAD
1000
AcDbSavedByObjectVersion
1070
     0
  0
VISUALSTYLE
  5
D0
102
{ACAD_XDICTIONARY
360
1A3
102
}
102
{ACAD_REACTORS
330
C3
102
}
330
C3
100
AcDbVisualStyle
  2
Thicken
 70
    13
177
     2
291
     1
 71
     2
176
     1
 72
     2
176
     1
 73
     0
176
     1
 90
        0
176
     1
 40
0.6
176
     1
 41
30.0
176
     1
 63
     7
421
 16777215
176
     1
 74
     1
176
     1
 91
        4
176
     1
 64
     7
176
     1
 65
   257
176
     1
 75
     1
176
     1
175
     1
176
     1
 42
1.0
176
     1
 92
       12
176
     1
 66
     7
176
     1
 43
1.0
176
     1
 76
     1
176
     1
 77
     6
176
     1
 78
     2
176
     1
 67
     7
176
     1
 79
     5
176
     1
170
     0
176
     1
171
     0
176
     1
290
     0
176
     1
 93
        1
176
     1
 44
0.0
176
     1
173
     0
176
     1
1001
ACAD
1000
AcDbSavedByObjectVersion
1070
     0
  0
VISUALSTYLE
  5
CA
102
{ACAD_XDICTIONARY
360
197
102
}
102
{ACAD_REACTORS
330
C3
102
}
330
C3
100
AcDbVisualStyle
  2
Wireframe
 70
     5
177
     2
291
     0
 71
     0
176
     1
 72
     2
176
     1
 73
     0
176
     1
 90
        0
176
     1
 40
0.6
176
     1
 41
30.0
176
     1
 63
     7
421
 16777215
176
     1
 74
     1
176
     1
 91
        4
176
     1
 64
     7
176
     1
 65
   257
176
     1
 75
     1
176
     1
175
     1
176
     1
 42
1.0
176
     1
 92
        0
176
     1
 66
   257
176
     1
 43
1.0
176
     1
 76
     1
176
     1
 77
     6
176
     1
 78
     2
176
     1
 67
     7
176
     1
 79
     3
176
     1
170
     0
176
     1
171
     0
176
     1
290
     0
176
     1
 93
        1
176
     1
 44
0.0
176
     1
173
     0
176
     1
1001
ACAD
1000
AcDbSavedByObjectVersion
1070
     0
  0
VISUALSTYLE
  5
D6
102
{ACAD_XDICTIONARY
360
1AF
102
}
102
{ACAD_REACTORS
330
C3
102
}
330
C3
100
AcDbVisualStyle
  2
X-Ray
 70
    25
177
     2
291
     0
 71
     2
176
     1
 72
     2
176
     1
 73
     1
176
     1
 90
        1
176
     1
 40
0.5
176
     1
 41
30.0
176
     1
 63
     7
421
 16777215
176
     1
 74
     1
176
     1
 91
        0
176
     1
 64
     7
176
     1
 65
   257
176
     1
 75
     1
176
     1
175
     1
176
     1
 42
1.0
176
     1
 92
        8
176
     1
 66
     7
176
     1
 43
1.0
176
     1
 76
     1
176
     1
 77
     6
176
     1
 78
     2
176
     1
 67
     7
176
     1
 79
     3
176
     1
170
     0
176
     1
171
     0
176
     1
290
     0
176
     1
 93
       13
176
     1
 44
0.0
176
     1
173
     0
176
     1
1001
ACAD
1000
AcDbSavedByObjectVersion
1070
     0
  0
DICTIONARYVAR
  5
184
102
{ACAD_REACTORS
330
17E
102
}
330
17E
100
DictionaryVariables
280
     0
  1
1:1
  0
DICTIONARYVAR
  5
180
102
{ACAD_REACTORS
330
17E
102
}
330
17E
100
DictionaryVariables
280
     0
  1
STANDARD
  0
DICTIONARYVAR
  5
17F
102
{ACAD_REACTORS
330
17E
102
}
330
17E
100
DictionaryVariables
280
     0
  1
STANDARD
  0
DICTIONARYVAR
  5
181
102
{ACAD_REACTORS
330
17E
102
}
330
17E
100
DictionaryVariables
280
     0
  1
Imperial24
  0
DICTIONARYVAR
  5
182
102
{ACAD_REACTORS
330
17E
102
}
330
17E
100
DictionaryVariables
280
     0
  1
Imperial24
  0
DICTIONARYVAR
  5
186
102
{ACAD_REACTORS
330
17E
102
}
330
17E
100
DictionaryVariables
280
     0
  1
1
  0
DICTIONARYVAR
  5
187
102
{ACAD_REACTORS
330
17E
102
}
330
17E
100
DictionaryVariables
280
     0
  1
15
  0
DICTIONARYVAR
  5
185
102
{ACAD_REACTORS
330
17E
102
}
330
17E
100
DictionaryVariables
280
     0
  1
0
  0
DICTIONARYVAR
  5
183
102
{ACAD_REACTORS
330
17E
102
}
330
17E
100
DictionaryVariables
280
     0
  1
0
  0
DICTIONARY
  5
1BF
330
F6
100
AcDbDictionary
280
     1
281
     1
  3
ACAD_XREC_ROUNDTRIP
360
1C0
  0
DICTIONARY
  5
B4
330
B3
100
AcDbDictionary
280
     1
281
     1
  3
BUMPTILE
360
B6
  3
DIFFUSETILE
360
B5
  3
OPACITYTILE
360
B9
  3
REFLECTIONTILE
360
B8
  3
REFRACTIONTILE
360
BA
  3
SPECULARTILE
360
B7
  0
DICTIONARY
  5
AC
330
AB
100
AcDbDictionary
280
     1
281
     1
  3
BUMPTILE
360
AE
  3
DIFFUSETILE
360
AD
  3
OPACITYTILE
360
B1
  3
REFLECTIONTILE
360
B0
  3
REFRACTIONTILE
360
B2
  3
SPECULARTILE
360
AF
  0
DICTIONARY
  5
BC
330
BB
100
AcDbDictionary
280
     1
281
     1
  3
BUMPTILE
360
BE
  3
DIFFUSETILE
360
BD
  3
OPACITYTILE
360
C1
  3
REFLECTIONTILE
360
C0
  3
REFRACTIONTILE
360
C2
  3
SPECULARTILE
360
BF
  0
DICTIONARY
  5
1BB
330
F2
100
AcDbDictionary
280
     1
281
     1
  3
ACAD_XREC_ROUNDTRIP
360
1BC
  0
DICTIONARY
  5
1BD
330
F4
100
AcDbDictionary
280
     1
281
     1
  3
ACAD_XREC_ROUNDTRIP
360
1BE
  0
DICTIONARY
  5
188
330
DE
100
AcDbDictionary
280
     1
281
     1
  3
ACAD_ROUNDTRIP_2008_TABLESTYLE_CELLSTYLEMAP
360
189
  0
DICTIONARY
  5
195
330
C9
100
AcDbDictionary
280
     1
281
     1
  3
ACAD_XREC_ROUNDTRIP
360
196
  0
DICTIONARY
  5
193
330
C8
100
AcDbDictionary
280
     1
281
     1
  3
ACAD_XREC_ROUNDTRIP
360
194
  0
DICTIONARY
  5
1A1
330
CF
100
AcDbDictionary
280
     1
281
     1
  3
ACAD_XREC_ROUNDTRIP
360
1A2
  0
DICTIONARY
  5
1A9
330
D3
100
AcDbDictionary
280
     1
281
     1
  3
ACAD_XREC_ROUNDTRIP
360
1AA
  0
DICTIONARY
  5
19B
330
CC
100
AcDbDictionary
280
     1
281
     1
  3
ACAD_XREC_ROUNDTRIP
360
19C
  0
DICTIONARY
  5
19F
330
CE
100
AcDbDictionary
280
     1
281
     1
  3
ACAD_XREC_ROUNDTRIP
360
1A0
  0
DICTIONARY
  5
1B9
330
DB
100
AcDbDictionary
280
     1
281
     1
  3
ACAD_XREC_ROUNDTRIP
360
1BA
  0
DICTIONARY
  5
1A7
330
D2
100
AcDbDictionary
280
     1
281
     1
  3
ACAD_XREC_ROUNDTRIP
360
1A8
  0
DICTIONARY
  5
18B
330
C4
100
AcDbDictionary
280
     1
281
     1
  3
ACAD_XREC_ROUNDTRIP
360
18C
  0
DICTIONARY
  5
18D
330
C5
100
AcDbDictionary
280
     1
281
     1
  3
ACAD_XREC_ROUNDTRIP
360
18E
  0
DICTIONARY
  5
18F
330
C6
100
AcDbDictionary
280
     1
281
     1
  3
ACAD_XREC_ROUNDTRIP
360
190
  0
DICTIONARY
  5
191
330
C7
100
AcDbDictionary
280
     1
281
     1
  3
ACAD_XREC_ROUNDTRIP
360
192
  0
DICTIONARY
  5
199
330
CB
100
AcDbDictionary
280
     1
281
     1
  3
ACAD_XREC_ROUNDTRIP
360
19A
  0
DICTIONARY
  5
1B5
330
D9
100
AcDbDictionary
280
     1
281
     1
  3
ACAD_XREC_ROUNDTRIP
360
1B6
  0
DICTIONARY
  5
1A5
330
D1
100
AcDbDictionary
280
     1
281
     1
  3
ACAD_XREC_ROUNDTRIP
360
1A6
  0
DICTIONARY
  5
1B7
330
DA
100
AcDbDictionary
280
     1
281
     1
  3
ACAD_XREC_ROUNDTRIP
360
1B8
  0
DICTIONARY
  5
19D
330
CD
100
AcDbDictionary
280
     1
281
     1
  3
ACAD_XREC_ROUNDTRIP
360
19E
  0
DICTIONARY
  5
1B3
330
D8
100
AcDbDictionary
280
     1
281
     1
  3
ACAD_XREC_ROUNDTRIP
360
1B4
  0
DICTIONARY
  5
1B1
330
D7
100
AcDbDictionary
280
     1
281
     1
  3
ACAD_XREC_ROUNDTRIP
360
1B2
  0
DICTIONARY
  5
1AB
330
D4
100
AcDbDictionary
280
     1
281
     1
  3
ACAD_XREC_ROUNDTRIP
360
1AC
  0
DICTIONARY
  5
1AD
330
D5
100
AcDbDictionary
280
     1
281
     1
  3
ACAD_XREC_ROUNDTRIP
360
1AE
  0
DICTIONARY
  5
1A3
330
D0
100
AcDbDictionary
280
     1
281
     1
  3
ACAD_XREC_ROUNDTRIP
360
1A4
  0
DICTIONARY
  5
197
330
CA
100
AcDbDictionary
280
     1
281
     1
  3
ACAD_XREC_ROUNDTRIP
360
198
  0
DICTIONARY
  5
1AF
330
D6
100
AcDbDictionary
280
     1
281
     1
  3
ACAD_XREC_ROUNDTRIP
360
1B0
  0
XRECORD
  5
1C0
102
{ACAD_REACTORS
330
1BF
102
}
330
1BF
100
AcDbXrecord
280
     1
102
DISPLAYNAME
  1
Imperial24
102
FLAGS
 90
        0
  0
XRECORD
  5
B6
102
{ACAD_REACTORS
330
B4
102
}
330
B4
100
AcDbXrecord
280
     1
270
     1
271
     1
  0
XRECORD
  5
B5
102
{ACAD_REACTORS
330
B4
102
}
330
B4
100
AcDbXrecord
280
     1
270
     1
271
     1
  0
XRECORD
  5
B9
102
{ACAD_REACTORS
330
B4
102
}
330
B4
100
AcDbXrecord
280
     1
270
     1
271
     1
  0
XRECORD
  5
B8
102
{ACAD_REACTORS
330
B4
102
}
330
B4
100
AcDbXrecord
280
     1
270
     1
271
     1
  0
XRECORD
  5
BA
102
{ACAD_REACTORS
330
B4
102
}
330
B4
100
AcDbXrecord
280
     1
270
     1
271
     1
  0
XRECORD
  5
B7
102
{ACAD_REACTORS
330
B4
102
}
330
B4
100
AcDbXrecord
280
     1
270
     1
271
     1
  0
XRECORD
  5
AE
102
{ACAD_REACTORS
330
AC
102
}
330
AC
100
AcDbXrecord
280
     1
270
     1
271
     1
  0
XRECORD
  5
AD
102
{ACAD_REACTORS
330
AC
102
}
330
AC
100
AcDbXrecord
280
     1
270
     1
271
     1
  0
XRECORD
  5
B1
102
{ACAD_REACTORS
330
AC
102
}
330
AC
100
AcDbXrecord
280
     1
270
     1
271
     1
  0
XRECORD
  5
B0
102
{ACAD_REACTORS
330
AC
102
}
330
AC
100
AcDbXrecord
280
     1
270
     1
271
     1
  0
XRECORD
  5
B2
102
{ACAD_REACTORS
330
AC
102
}
330
AC
100
AcDbXrecord
280
     1
270
     1
271
     1
  0
XRECORD
  5
AF
102
{ACAD_REACTORS
330
AC
102
}
330
AC
100
AcDbXrecord
280
     1
270
     1
271
     1
  0
XRECORD
  5
BE
102
{ACAD_REACTORS
330
BC
102
}
330
BC
100
AcDbXrecord
280
     1
270
     1
271
     1
  0
XRECORD
  5
BD
102
{ACAD_REACTORS
330
BC
102
}
330
BC
100
AcDbXrecord
280
     1
270
     1
271
     1
  0
XRECORD
  5
C1
102
{ACAD_REACTORS
330
BC
102
}
330
BC
100
AcDbXrecord
280
     1
270
     1
271
     1
  0
XRECORD
  5
C0
102
{ACAD_REACTORS
330
BC
102
}
330
BC
100
AcDbXrecord
280
     1
270
     1
271
     1
  0
XRECORD
  5
C2
102
{ACAD_REACTORS
330
BC
102
}
330
BC
100
AcDbXrecord
280
     1
270
     1
271
     1
  0
XRECORD
  5
BF
102
{ACAD_REACTORS
330
BC
102
}
330
BC
100
AcDbXrecord
280
     1
270
     1
271
     1
  0
XRECORD
  5
1BC
102
{ACAD_REACTORS
330
1BB
102
}
330
1BB
100
AcDbXrecord
280
     1
102
ACAD_ROUNDTRIP_2012_MLEADER_STYLE
298
     1
  0
XRECORD
  5
1BE
102
{ACAD_REACTORS
330
1BD
102
}
330
1BD
100
AcDbXrecord
280
     1
102
DISPLAYNAME
  1
Imperial24
102
FLAGS
 90
        0
  0
CELLSTYLEMAP
  5
189
102
{ACAD_REACTORS
330
188
102
}
330
188
100
AcDbCellStyleMap
 90
        3
300
CELLSTYLE
  1
TABLEFORMAT_BEGIN
 90
        5
170
     1
 91
        0
 92
    32768
 62
   257
 93
        1
300
CONTENTFORMAT
  1
CONTENTFORMAT_BEGIN
 90
        0
 91
        0
 92
      512
 93
        0
300

 40
0.0
140
1.0
 94
        5
 62
     0
340
11
144
0.25
309
CONTENTFORMAT_END
171
     0
 94
        0
309
TABLEFORMAT_END
  1
CELLSTYLE_BEGIN
 90
        1
 91
        1
300
_TITLE
309
CELLSTYLE_END
300
CELLSTYLE
  1
TABLEFORMAT_BEGIN
 90
        5
170
     1
 91
        0
 92
        0
 62
   257
 93
        1
300
CONTENTFORMAT
  1
CONTENTFORMAT_BEGIN
 90
        0
 91
        0
 92
      512
 93
        0
300

 40
0.0
140
1.0
 94
        5
 62
     0
340
11
144
0.18
309
CONTENTFORMAT_END
171
     0
 94
        0
309
TABLEFORMAT_END
  1
CELLSTYLE_BEGIN
 90
        2
 91
        1
300
_HEADER
309
CELLSTYLE_END
300
CELLSTYLE
  1
TABLEFORMAT_BEGIN
 90
        5
170
     1
 91
        0
 92
        0
 62
   257
 93
        1
300
CONTENTFORMAT
  1
CONTENTFORMAT_BEGIN
 90
        0
 91
        0
 92
      512
 93
        0
300

 40
0.0
140
1.0
 94
        2
 62
     0
340
11
144
0.18
309
CONTENTFORMAT_END
171
     0
 94
        0
309
TABLEFORMAT_END
  1
CELLSTYLE_BEGIN
 90
        3
 91
        2
300
_DATA
309
CELLSTYLE_END
  0
XRECORD
  5
196
102
{ACAD_REACTORS
330
195
102
}
330
195
100
AcDbXrecord
280
     1
102
RTVSPost2010Prop28
280
     1
102
RTVSPost2010PropOp28
 70
     1
102
RTVSPost2010Prop29
280
     1
102
RTVSPost2010PropOp29
 70
     1
102
RTVSPost2010Prop30
280
     0
102
RTVSPost2010PropOp30
 70
     1
102
RTVSPost2010Prop31
280
     0
102
RTVSPost2010PropOp31
 70
     1
102
RTVSPost2010Prop32
280
     0
102
RTVSPost2010PropOp32
 70
     1
102
RTVSPost2010Prop33
280
     0
102
RTVSPost2010PropOp33
 70
     1
102
RTVSPost2010Prop34
280
     0
102
RTVSPost2010PropOp34
 70
     1
102
RTVSPost2010Prop35
280
     0
102
RTVSPost2010PropOp35
 70
     1
102
RTVSPost2010Prop36
280
     0
102
RTVSPost2010PropOp36
 70
     1
102
RTVSPost2010Prop37
 90
       50
102
RTVSPost2010PropOp37
 70
     1
102
RTVSPost2010Prop38
140
0.0
102
RTVSPost2010PropOp38
 70
     1
102
RTVSPost2010Prop39
140
1.0
102
RTVSPost2010PropOp39
 70
     1
102
RTVSPost2010Prop40
 90
        0
102
RTVSPost2010PropOp40
 70
     1
102
RTVSPost2010Prop41ColorIndex
 90
       18
102
RTVSPost2010Prop41ColorRGB
 90
        0
102
RTVSPost2010PropOp41
 70
     1
102
RTVSPost2010Prop42
 90
       50
102
RTVSPost2010PropOp42
 70
     1
102
RTVSPost2010Prop43
 90
        3
102
RTVSPost2010PropOp43
 70
     1
102
RTVSPost2010Prop44ColorIndex
 90
        5
102
RTVSPost2010Prop44ColorRGB
 90
      255
102
RTVSPost2010PropOp44
 70
     1
102
RTVSPost2010Prop45
280
     0
102
RTVSPost2010PropOp45
 70
     1
102
RTVSPost2010Prop46
 90
       50
102
RTVSPost2010PropOp46
 70
     1
102
RTVSPost2010Prop47
 90
       50
102
RTVSPost2010PropOp47
 70
     1
102
RTVSPost2010Prop48
 90
       50
102
RTVSPost2010PropOp48
 70
     1
102
RTVSPost2010Prop49
280
     0
102
RTVSPost2010PropOp49
 70
     1
102
RTVSPost2010Prop50
 90
       50
102
RTVSPost2010PropOp50
 70
     1
102
RTVSPost2010Prop51ColorIndex
 90
      256
102
RTVSPost2010Prop51ColorRGB
 90
-16777216
102
RTVSPost2010PropOp51
 70
     0
102
RTVSPost2010Prop52
140
1.0
102
RTVSPost2010PropOp52
 70
     0
102
RTVSPost2010Prop53
 90
        2
102
RTVSPost2010PropOp53
 70
     1
102
RTVSPost2010Prop54
  1
strokes_ogs.tif
102
RTVSPost2010PropOp54
 70
     1
102
RTVSPost2010Prop55
280
     0
102
RTVSPost2010PropOp55
 70
     1
102
RTVSPost2010Prop56
140
1.0
102
RTVSPost2010PropOp56
 70
     1
102
RTVSPost2010Prop57
140
1.0
102
RTVSPost2010PropOp57
 70
     1
  0
XRECORD
  5
194
102
{ACAD_REACTORS
330
193
102
}
330
193
100
AcDbXrecord
280
     1
102
RTVSPost2010Prop28
280
     0
102
RTVSPost2010PropOp28
 70
     1
102
RTVSPost2010Prop29
280
     1
102
RTVSPost2010PropOp29
 70
     1
102
RTVSPost2010Prop30
280
     1
102
RTVSPost2010PropOp30
 70
     1
102
RTVSPost2010Prop31
280
     0
102
RTVSPost2010PropOp31
 70
     1
102
RTVSPost2010Prop32
280
     0
102
RTVSPost2010PropOp32
 70
     1
102
RTVSPost2010Prop33
280
     0
102
RTVSPost2010PropOp33
 70
     1
102
RTVSPost2010Prop34
280
     0
102
RTVSPost2010PropOp34
 70
     1
102
RTVSPost2010Prop35
280
     0
102
RTVSPost2010PropOp35
 70
     1
102
RTVSPost2010Prop36
280
     0
102
RTVSPost2010PropOp36
 70
     1
102
RTVSPost2010Prop37
 90
       50
102
RTVSPost2010PropOp37
 70
     1
102
RTVSPost2010Prop38
140
0.0
102
RTVSPost2010PropOp38
 70
     1
102
RTVSPost2010Prop39
140
1.0
102
RTVSPost2010PropOp39
 70
     1
102
RTVSPost2010Prop40
 90
        0
102
RTVSPost2010PropOp40
 70
     1
102
RTVSPost2010Prop41ColorIndex
 90
       18
102
RTVSPost2010Prop41ColorRGB
 90
        0
102
RTVSPost2010PropOp41
 70
     1
102
RTVSPost2010Prop42
 90
       50
102
RTVSPost2010PropOp42
 70
     1
102
RTVSPost2010Prop43
 90
        3
102
RTVSPost2010PropOp43
 70
     1
102
RTVSPost2010Prop44ColorIndex
 90
        5
102
RTVSPost2010Prop44ColorRGB
 90
      255
102
RTVSPost2010PropOp44
 70
     1
102
RTVSPost2010Prop45
280
     0
102
RTVSPost2010PropOp45
 70
     1
102
RTVSPost2010Prop46
 90
       50
102
RTVSPost2010PropOp46
 70
     1
102
RTVSPost2010Prop47
 90
       50
102
RTVSPost2010PropOp47
 70
     1
102
RTVSPost2010Prop48
 90
       50
102
RTVSPost2010PropOp48
 70
     1
102
RTVSPost2010Prop49
280
     0
102
RTVSPost2010PropOp49
 70
     1
102
RTVSPost2010Prop50
 90
       50
102
RTVSPost2010PropOp50
 70
     1
102
RTVSPost2010Prop51ColorIndex
 90
      256
102
RTVSPost2010Prop51ColorRGB
 90
-16777216
102
RTVSPost2010PropOp51
 70
     0
102
RTVSPost2010Prop52
140
1.0
102
RTVSPost2010PropOp52
 70
     0
102
RTVSPost2010Prop53
 90
        2
102
RTVSPost2010PropOp53
 70
     1
102
RTVSPost2010Prop54
  1
strokes_ogs.tif
102
RTVSPost2010PropOp54
 70
     1
102
RTVSPost2010Prop55
280
     0
102
RTVSPost2010PropOp55
 70
     1
102
RTVSPost2010Prop56
140
1.0
102
RTVSPost2010PropOp56
 70
     1
102
RTVSPost2010Prop57
140
1.0
102
RTVSPost2010PropOp57
 70
     1
  0
XRECORD
  5
1A2
102
{ACAD_REACTORS
330
1A1
102
}
330
1A1
100
AcDbXrecord
280
     1
102
RTVSPost2010Prop28
280
     0
102
RTVSPost2010PropOp28
 70
     1
102
RTVSPost2010Prop29
280
     1
102
RTVSPost2010PropOp29
 70
     1
102
RTVSPost2010Prop30
280
     1
102
RTVSPost2010PropOp30
 70
     1
102
RTVSPost2010Prop31
280
     0
102
RTVSPost2010PropOp31
 70
     1
102
RTVSPost2010Prop32
280
     0
102
RTVSPost2010PropOp32
 70
     1
102
RTVSPost2010Prop33
280
     0
102
RTVSPost2010PropOp33
 70
     1
102
RTVSPost2010Prop34
280
     0
102
RTVSPost2010PropOp34
 70
     1
102
RTVSPost2010Prop35
280
     0
102
RTVSPost2010PropOp35
 70
     1
102
RTVSPost2010Prop36
280
     0
102
RTVSPost2010PropOp36
 70
     1
102
RTVSPost2010Prop37
 90
       50
102
RTVSPost2010PropOp37
 70
     1
102
RTVSPost2010Prop38
140
0.0
102
RTVSPost2010PropOp38
 70
     1
102
RTVSPost2010Prop39
140
1.0
102
RTVSPost2010PropOp39
 70
     1
102
RTVSPost2010Prop40
 90
        0
102
RTVSPost2010PropOp40
 70
     1
102
RTVSPost2010Prop41ColorIndex
 90
       18
102
RTVSPost2010Prop41ColorRGB
 90
        0
102
RTVSPost2010PropOp41
 70
     1
102
RTVSPost2010Prop42
 90
       50
102
RTVSPost2010PropOp42
 70
     1
102
RTVSPost2010Prop43
 90
        3
102
RTVSPost2010PropOp43
 70
     1
102
RTVSPost2010Prop44ColorIndex
 90
        5
102
RTVSPost2010Prop44ColorRGB
 90
      255
102
RTVSPost2010PropOp44
 70
     1
102
RTVSPost2010Prop45
280
     0
102
RTVSPost2010PropOp45
 70
     1
102
RTVSPost2010Prop46
 90
       50
102
RTVSPost2010PropOp46
 70
     1
102
RTVSPost2010Prop47
 90
       50
102
RTVSPost2010PropOp47
 70
     1
102
RTVSPost2010Prop48
 90
       50
102
RTVSPost2010PropOp48
 70
     1
102
RTVSPost2010Prop49
280
     0
102
RTVSPost2010PropOp49
 70
     1
102
RTVSPost2010Prop50
 90
       50
102
RTVSPost2010PropOp50
 70
     1
102
RTVSPost2010Prop51ColorIndex
 90
      256
102
RTVSPost2010Prop51ColorRGB
 90
-16777216
102
RTVSPost2010PropOp51
 70
     0
102
RTVSPost2010Prop52
140
1.0
102
RTVSPost2010PropOp52
 70
     0
102
RTVSPost2010Prop53
 90
        2
102
RTVSPost2010PropOp53
 70
     1
102
RTVSPost2010Prop54
  1
strokes_ogs.tif
102
RTVSPost2010PropOp54
 70
     1
102
RTVSPost2010Prop55
280
     0
102
RTVSPost2010PropOp55
 70
     1
102
RTVSPost2010Prop56
140
1.0
102
RTVSPost2010PropOp56
 70
     1
102
RTVSPost2010Prop57
140
1.0
102
RTVSPost2010PropOp57
 70
     1
  0
XRECORD
  5
1AA
102
{ACAD_REACTORS
330
1A9
102
}
330
1A9
100
AcDbXrecord
280
     1
102
RTVSPost2010Prop28
280
     0
102
RTVSPost2010PropOp28
 70
     1
102
RTVSPost2010Prop29
280
     1
102
RTVSPost2010PropOp29
 70
     1
102
RTVSPost2010Prop30
280
     1
102
RTVSPost2010PropOp30
 70
     1
102
RTVSPost2010Prop31
280
     0
102
RTVSPost2010PropOp31
 70
     1
102
RTVSPost2010Prop32
280
     0
102
RTVSPost2010PropOp32
 70
     1
102
RTVSPost2010Prop33
280
     0
102
RTVSPost2010PropOp33
 70
     1
102
RTVSPost2010Prop34
280
     0
102
RTVSPost2010PropOp34
 70
     1
102
RTVSPost2010Prop35
280
     0
102
RTVSPost2010PropOp35
 70
     1
102
RTVSPost2010Prop36
280
     0
102
RTVSPost2010PropOp36
 70
     1
102
RTVSPost2010Prop37
 90
       50
102
RTVSPost2010PropOp37
 70
     1
102
RTVSPost2010Prop38
140
0.0
102
RTVSPost2010PropOp38
 70
     1
102
RTVSPost2010Prop39
140
1.0
102
RTVSPost2010PropOp39
 70
     1
102
RTVSPost2010Prop40
 90
        0
102
RTVSPost2010PropOp40
 70
     1
102
RTVSPost2010Prop41ColorIndex
 90
       18
102
RTVSPost2010Prop41ColorRGB
 90
        0
102
RTVSPost2010PropOp41
 70
     1
102
RTVSPost2010Prop42
 90
       50
102
RTVSPost2010PropOp42
 70
     1
102
RTVSPost2010Prop43
 90
        3
102
RTVSPost2010PropOp43
 70
     1
102
RTVSPost2010Prop44ColorIndex
 90
        5
102
RTVSPost2010Prop44ColorRGB
 90
      255
102
RTVSPost2010PropOp44
 70
     1
102
RTVSPost2010Prop45
280
     0
102
RTVSPost2010PropOp45
 70
     1
102
RTVSPost2010Prop46
 90
       50
102
RTVSPost2010PropOp46
 70
     1
102
RTVSPost2010Prop47
 90
       50
102
RTVSPost2010PropOp47
 70
     1
102
RTVSPost2010Prop48
 90
       50
102
RTVSPost2010PropOp48
 70
     1
102
RTVSPost2010Prop49
280
     0
102
RTVSPost2010PropOp49
 70
     1
102
RTVSPost2010Prop50
 90
       50
102
RTVSPost2010PropOp50
 70
     1
102
RTVSPost2010Prop51ColorIndex
 90
      256
102
RTVSPost2010Prop51ColorRGB
 90
-16777216
102
RTVSPost2010PropOp51
 70
     0
102
RTVSPost2010Prop52
140
1.0
102
RTVSPost2010PropOp52
 70
     0
102
RTVSPost2010Prop53
 90
        2
102
RTVSPost2010PropOp53
 70
     1
102
RTVSPost2010Prop54
  1
strokes_ogs.tif
102
RTVSPost2010PropOp54
 70
     1
102
RTVSPost2010Prop55
280
     0
102
RTVSPost2010PropOp55
 70
     1
102
RTVSPost2010Prop56
140
1.0
102
RTVSPost2010PropOp56
 70
     1
102
RTVSPost2010Prop57
140
1.0
102
RTVSPost2010PropOp57
 70
     1
  0
XRECORD
  5
19C
102
{ACAD_REACTORS
330
19B
102
}
330
19B
100
AcDbXrecord
280
     1
102
RTVSPost2010Prop28
280
     0
102
RTVSPost2010PropOp28
 70
     1
102
RTVSPost2010Prop29
280
     1
102
RTVSPost2010PropOp29
 70
     1
102
RTVSPost2010Prop30
280
     1
102
RTVSPost2010PropOp30
 70
     1
102
RTVSPost2010Prop31
280
     0
102
RTVSPost2010PropOp31
 70
     1
102
RTVSPost2010Prop32
280
     0
102
RTVSPost2010PropOp32
 70
     1
102
RTVSPost2010Prop33
280
     0
102
RTVSPost2010PropOp33
 70
     1
102
RTVSPost2010Prop34
280
     0
102
RTVSPost2010PropOp34
 70
     1
102
RTVSPost2010Prop35
280
     0
102
RTVSPost2010PropOp35
 70
     1
102
RTVSPost2010Prop36
280
     0
102
RTVSPost2010PropOp36
 70
     1
102
RTVSPost2010Prop37
 90
       50
102
RTVSPost2010PropOp37
 70
     1
102
RTVSPost2010Prop38
140
0.0
102
RTVSPost2010PropOp38
 70
     1
102
RTVSPost2010Prop39
140
1.0
102
RTVSPost2010PropOp39
 70
     1
102
RTVSPost2010Prop40
 90
        0
102
RTVSPost2010PropOp40
 70
     1
102
RTVSPost2010Prop41ColorIndex
 90
       18
102
RTVSPost2010Prop41ColorRGB
 90
        0
102
RTVSPost2010PropOp41
 70
     1
102
RTVSPost2010Prop42
 90
       50
102
RTVSPost2010PropOp42
 70
     1
102
RTVSPost2010Prop43
 90
        3
102
RTVSPost2010PropOp43
 70
     1
102
RTVSPost2010Prop44ColorIndex
 90
        5
102
RTVSPost2010Prop44ColorRGB
 90
      255
102
RTVSPost2010PropOp44
 70
     1
102
RTVSPost2010Prop45
280
     0
102
RTVSPost2010PropOp45
 70
     1
102
RTVSPost2010Prop46
 90
       50
102
RTVSPost2010PropOp46
 70
     1
102
RTVSPost2010Prop47
 90
       50
102
RTVSPost2010PropOp47
 70
     1
102
RTVSPost2010Prop48
 90
       50
102
RTVSPost2010PropOp48
 70
     1
102
RTVSPost2010Prop49
280
     0
102
RTVSPost2010PropOp49
 70
     1
102
RTVSPost2010Prop50
 90
       50
102
RTVSPost2010PropOp50
 70
     1
102
RTVSPost2010Prop51ColorIndex
 90
      256
102
RTVSPost2010Prop51ColorRGB
 90
-16777216
102
RTVSPost2010PropOp51
 70
     0
102
RTVSPost2010Prop52
140
1.0
102
RTVSPost2010PropOp52
 70
     0
102
RTVSPost2010Prop53
 90
        2
102
RTVSPost2010PropOp53
 70
     1
102
RTVSPost2010Prop54
  1
strokes_ogs.tif
102
RTVSPost2010PropOp54
 70
     1
102
RTVSPost2010Prop55
280
     0
102
RTVSPost2010PropOp55
 70
     1
102
RTVSPost2010Prop56
140
1.0
102
RTVSPost2010PropOp56
 70
     1
102
RTVSPost2010Prop57
140
1.0
102
RTVSPost2010PropOp57
 70
     1
  0
XRECORD
  5
1A0
102
{ACAD_REACTORS
330
19F
102
}
330
19F
100
AcDbXrecord
280
     1
102
RTVSPost2010Prop28
280
     0
102
RTVSPost2010PropOp28
 70
     1
102
RTVSPost2010Prop29
280
     1
102
RTVSPost2010PropOp29
 70
     1
102
RTVSPost2010Prop30
280
     1
102
RTVSPost2010PropOp30
 70
     1
102
RTVSPost2010Prop31
280
     0
102
RTVSPost2010PropOp31
 70
     1
102
RTVSPost2010Prop32
280
     0
102
RTVSPost2010PropOp32
 70
     1
102
RTVSPost2010Prop33
280
     0
102
RTVSPost2010PropOp33
 70
     1
102
RTVSPost2010Prop34
280
     0
102
RTVSPost2010PropOp34
 70
     1
102
RTVSPost2010Prop35
280
     0
102
RTVSPost2010PropOp35
 70
     1
102
RTVSPost2010Prop36
280
     0
102
RTVSPost2010PropOp36
 70
     1
102
RTVSPost2010Prop37
 90
       50
102
RTVSPost2010PropOp37
 70
     1
102
RTVSPost2010Prop38
140
0.0
102
RTVSPost2010PropOp38
 70
     1
102
RTVSPost2010Prop39
140
1.0
102
RTVSPost2010PropOp39
 70
     1
102
RTVSPost2010Prop40
 90
        0
102
RTVSPost2010PropOp40
 70
     1
102
RTVSPost2010Prop41ColorIndex
 90
       18
102
RTVSPost2010Prop41ColorRGB
 90
        0
102
RTVSPost2010PropOp41
 70
     1
102
RTVSPost2010Prop42
 90
       50
102
RTVSPost2010PropOp42
 70
     1
102
RTVSPost2010Prop43
 90
        3
102
RTVSPost2010PropOp43
 70
     1
102
RTVSPost2010Prop44ColorIndex
 90
        5
102
RTVSPost2010Prop44ColorRGB
 90
      255
102
RTVSPost2010PropOp44
 70
     1
102
RTVSPost2010Prop45
280
     0
102
RTVSPost2010PropOp45
 70
     1
102
RTVSPost2010Prop46
 90
       50
102
RTVSPost2010PropOp46
 70
     1
102
RTVSPost2010Prop47
 90
       50
102
RTVSPost2010PropOp47
 70
     1
102
RTVSPost2010Prop48
 90
       50
102
RTVSPost2010PropOp48
 70
     1
102
RTVSPost2010Prop49
280
     0
102
RTVSPost2010PropOp49
 70
     1
102
RTVSPost2010Prop50
 90
       50
102
RTVSPost2010PropOp50
 70
     1
102
RTVSPost2010Prop51ColorIndex
 90
      256
102
RTVSPost2010Prop51ColorRGB
 90
-16777216
102
RTVSPost2010PropOp51
 70
     0
102
RTVSPost2010Prop52
140
1.0
102
RTVSPost2010PropOp52
 70
     0
102
RTVSPost2010Prop53
 90
        2
102
RTVSPost2010PropOp53
 70
     1
102
RTVSPost2010Prop54
  1
strokes_ogs.tif
102
RTVSPost2010PropOp54
 70
     1
102
RTVSPost2010Prop55
280
     0
102
RTVSPost2010PropOp55
 70
     1
102
RTVSPost2010Prop56
140
1.0
102
RTVSPost2010PropOp56
 70
     1
102
RTVSPost2010Prop57
140
1.0
102
RTVSPost2010PropOp57
 70
     1
  0
XRECORD
  5
1BA
102
{ACAD_REACTORS
330
1B9
102
}
330
1B9
100
AcDbXrecord
280
     1
102
RTVSPost2010Prop28
280
     0
102
RTVSPost2010PropOp28
 70
     0
102
RTVSPost2010Prop29
280
     1
102
RTVSPost2010PropOp29
 70
     0
102
RTVSPost2010Prop30
280
     1
102
RTVSPost2010PropOp30
 70
     0
102
RTVSPost2010Prop31
280
     0
102
RTVSPost2010PropOp31
 70
     0
102
RTVSPost2010Prop32
280
     0
102
RTVSPost2010PropOp32
 70
     0
102
RTVSPost2010Prop33
280
     0
102
RTVSPost2010PropOp33
 70
     0
102
RTVSPost2010Prop34
280
     0
102
RTVSPost2010PropOp34
 70
     0
102
RTVSPost2010Prop35
280
     0
102
RTVSPost2010PropOp35
 70
     0
102
RTVSPost2010Prop36
280
     0
102
RTVSPost2010PropOp36
 70
     0
102
RTVSPost2010Prop37
 90
       50
102
RTVSPost2010PropOp37
 70
     0
102
RTVSPost2010Prop38
140
0.0
102
RTVSPost2010PropOp38
 70
     0
102
RTVSPost2010Prop39
140
1.0
102
RTVSPost2010PropOp39
 70
     0
102
RTVSPost2010Prop40
 90
        0
102
RTVSPost2010PropOp40
 70
     0
102
RTVSPost2010Prop41ColorIndex
 90
       18
102
RTVSPost2010Prop41ColorRGB
 90
        0
102
RTVSPost2010PropOp41
 70
     0
102
RTVSPost2010Prop42
 90
       50
102
RTVSPost2010PropOp42
 70
     0
102
RTVSPost2010Prop43
 90
        3
102
RTVSPost2010PropOp43
 70
     0
102
RTVSPost2010Prop44ColorIndex
 90
        5
102
RTVSPost2010Prop44ColorRGB
 90
      255
102
RTVSPost2010PropOp44
 70
     0
102
RTVSPost2010Prop45
280
     0
102
RTVSPost2010PropOp45
 70
     0
102
RTVSPost2010Prop46
 90
       50
102
RTVSPost2010PropOp46
 70
     0
102
RTVSPost2010Prop47
 90
       50
102
RTVSPost2010PropOp47
 70
     0
102
RTVSPost2010Prop48
 90
       50
102
RTVSPost2010PropOp48
 70
     0
102
RTVSPost2010Prop49
280
     0
102
RTVSPost2010PropOp49
 70
     0
102
RTVSPost2010Prop50
 90
       50
102
RTVSPost2010PropOp50
 70
     0
102
RTVSPost2010Prop51ColorIndex
 90
      256
102
RTVSPost2010Prop51ColorRGB
 90
-16777216
102
RTVSPost2010PropOp51
 70
     0
102
RTVSPost2010Prop52
140
1.0
102
RTVSPost2010PropOp52
 70
     0
102
RTVSPost2010Prop53
 90
        2
102
RTVSPost2010PropOp53
 70
     0
102
RTVSPost2010Prop54
  1
strokes_ogs.tif
102
RTVSPost2010PropOp54
 70
     0
102
RTVSPost2010Prop55
280
     0
102
RTVSPost2010PropOp55
 70
     0
102
RTVSPost2010Prop56
140
1.0
102
RTVSPost2010PropOp56
 70
     0
102
RTVSPost2010Prop57
140
1.0
102
RTVSPost2010PropOp57
 70
     0
  0
XRECORD
  5
1A8
102
{ACAD_REACTORS
330
1A7
102
}
330
1A7
100
AcDbXrecord
280
     1
102
RTVSPost2010Prop28
280
     0
102
RTVSPost2010PropOp28
 70
     1
102
RTVSPost2010Prop29
280
     1
102
RTVSPost2010PropOp29
 70
     1
102
RTVSPost2010Prop30
280
     1
102
RTVSPost2010PropOp30
 70
     1
102
RTVSPost2010Prop31
280
     0
102
RTVSPost2010PropOp31
 70
     1
102
RTVSPost2010Prop32
280
     0
102
RTVSPost2010PropOp32
 70
     1
102
RTVSPost2010Prop33
280
     0
102
RTVSPost2010PropOp33
 70
     1
102
RTVSPost2010Prop34
280
     0
102
RTVSPost2010PropOp34
 70
     1
102
RTVSPost2010Prop35
280
     0
102
RTVSPost2010PropOp35
 70
     1
102
RTVSPost2010Prop36
280
     0
102
RTVSPost2010PropOp36
 70
     1
102
RTVSPost2010Prop37
 90
       50
102
RTVSPost2010PropOp37
 70
     1
102
RTVSPost2010Prop38
140
0.0
102
RTVSPost2010PropOp38
 70
     1
102
RTVSPost2010Prop39
140
1.0
102
RTVSPost2010PropOp39
 70
     1
102
RTVSPost2010Prop40
 90
        0
102
RTVSPost2010PropOp40
 70
     1
102
RTVSPost2010Prop41ColorIndex
 90
       18
102
RTVSPost2010Prop41ColorRGB
 90
        0
102
RTVSPost2010PropOp41
 70
     1
102
RTVSPost2010Prop42
 90
       50
102
RTVSPost2010PropOp42
 70
     1
102
RTVSPost2010Prop43
 90
        3
102
RTVSPost2010PropOp43
 70
     1
102
RTVSPost2010Prop44ColorIndex
 90
        5
102
RTVSPost2010Prop44ColorRGB
 90
      255
102
RTVSPost2010PropOp44
 70
     1
102
RTVSPost2010Prop45
280
     0
102
RTVSPost2010PropOp45
 70
     1
102
RTVSPost2010Prop46
 90
       50
102
RTVSPost2010PropOp46
 70
     1
102
RTVSPost2010Prop47
 90
       50
102
RTVSPost2010PropOp47
 70
     1
102
RTVSPost2010Prop48
 90
       50
102
RTVSPost2010PropOp48
 70
     1
102
RTVSPost2010Prop49
280
     0
102
RTVSPost2010PropOp49
 70
     1
102
RTVSPost2010Prop50
 90
       50
102
RTVSPost2010PropOp50
 70
     1
102
RTVSPost2010Prop51ColorIndex
 90
      256
102
RTVSPost2010Prop51ColorRGB
 90
-16777216
102
RTVSPost2010PropOp51
 70
     0
102
RTVSPost2010Prop52
140
1.0
102
RTVSPost2010PropOp52
 70
     0
102
RTVSPost2010Prop53
 90
        2
102
RTVSPost2010PropOp53
 70
     1
102
RTVSPost2010Prop54
  1
strokes_ogs.tif
102
RTVSPost2010PropOp54
 70
     1
102
RTVSPost2010Prop55
280
     0
102
RTVSPost2010PropOp55
 70
     1
102
RTVSPost2010Prop56
140
1.0
102
RTVSPost2010PropOp56
 70
     1
102
RTVSPost2010Prop57
140
1.0
102
RTVSPost2010PropOp57
 70
     1
  0
XRECORD
  5
18C
102
{ACAD_REACTORS
330
18B
102
}
330
18B
100
AcDbXrecord
280
     1
102
RTVSPost2010Prop28
280
     0
102
RTVSPost2010PropOp28
 70
     1
102
RTVSPost2010Prop29
280
     1
102
RTVSPost2010PropOp29
 70
     1
102
RTVSPost2010Prop30
280
     1
102
RTVSPost2010PropOp30
 70
     1
102
RTVSPost2010Prop31
280
     0
102
RTVSPost2010PropOp31
 70
     1
102
RTVSPost2010Prop32
280
     0
102
RTVSPost2010PropOp32
 70
     1
102
RTVSPost2010Prop33
280
     0
102
RTVSPost2010PropOp33
 70
     1
102
RTVSPost2010Prop34
280
     0
102
RTVSPost2010PropOp34
 70
     1
102
RTVSPost2010Prop35
280
     0
102
RTVSPost2010PropOp35
 70
     1
102
RTVSPost2010Prop36
280
     0
102
RTVSPost2010PropOp36
 70
     1
102
RTVSPost2010Prop37
 90
       50
102
RTVSPost2010PropOp37
 70
     1
102
RTVSPost2010Prop38
140
0.0
102
RTVSPost2010PropOp38
 70
     1
102
RTVSPost2010Prop39
140
1.0
102
RTVSPost2010PropOp39
 70
     1
102
RTVSPost2010Prop40
 90
        0
102
RTVSPost2010PropOp40
 70
     1
102
RTVSPost2010Prop41ColorIndex
 90
       18
102
RTVSPost2010Prop41ColorRGB
 90
        0
102
RTVSPost2010PropOp41
 70
     1
102
RTVSPost2010Prop42
 90
       50
102
RTVSPost2010PropOp42
 70
     1
102
RTVSPost2010Prop43
 90
        3
102
RTVSPost2010PropOp43
 70
     1
102
RTVSPost2010Prop44ColorIndex
 90
        5
102
RTVSPost2010Prop44ColorRGB
 90
      255
102
RTVSPost2010PropOp44
 70
     1
102
RTVSPost2010Prop45
280
     0
102
RTVSPost2010PropOp45
 70
     1
102
RTVSPost2010Prop46
 90
       50
102
RTVSPost2010PropOp46
 70
     1
102
RTVSPost2010Prop47
 90
       50
102
RTVSPost2010PropOp47
 70
     1
102
RTVSPost2010Prop48
 90
       50
102
RTVSPost2010PropOp48
 70
     1
102
RTVSPost2010Prop49
280
     0
102
RTVSPost2010PropOp49
 70
     1
102
RTVSPost2010Prop50
 90
       50
102
RTVSPost2010PropOp50
 70
     1
102
RTVSPost2010Prop51ColorIndex
 90
      256
102
RTVSPost2010Prop51ColorRGB
 90
-16777216
102
RTVSPost2010PropOp51
 70
     0
102
RTVSPost2010Prop52
140
1.0
102
RTVSPost2010PropOp52
 70
     0
102
RTVSPost2010Prop53
 90
        2
102
RTVSPost2010PropOp53
 70
     1
102
RTVSPost2010Prop54
  1
strokes_ogs.tif
102
RTVSPost2010PropOp54
 70
     1
102
RTVSPost2010Prop55
280
     0
102
RTVSPost2010PropOp55
 70
     1
102
RTVSPost2010Prop56
140
1.0
102
RTVSPost2010PropOp56
 70
     1
102
RTVSPost2010Prop57
140
1.0
102
RTVSPost2010PropOp57
 70
     1
  0
XRECORD
  5
18E
102
{ACAD_REACTORS
330
18D
102
}
330
18D
100
AcDbXrecord
280
     1
102
RTVSPost2010Prop28
280
     0
102
RTVSPost2010PropOp28
 70
     1
102
RTVSPost2010Prop29
280
     1
102
RTVSPost2010PropOp29
 70
     1
102
RTVSPost2010Prop30
280
     1
102
RTVSPost2010PropOp30
 70
     1
102
RTVSPost2010Prop31
280
     0
102
RTVSPost2010PropOp31
 70
     1
102
RTVSPost2010Prop32
280
     0
102
RTVSPost2010PropOp32
 70
     1
102
RTVSPost2010Prop33
280
     0
102
RTVSPost2010PropOp33
 70
     1
102
RTVSPost2010Prop34
280
     0
102
RTVSPost2010PropOp34
 70
     1
102
RTVSPost2010Prop35
280
     0
102
RTVSPost2010PropOp35
 70
     1
102
RTVSPost2010Prop36
280
     0
102
RTVSPost2010PropOp36
 70
     1
102
RTVSPost2010Prop37
 90
       50
102
RTVSPost2010PropOp37
 70
     1
102
RTVSPost2010Prop38
140
0.0
102
RTVSPost2010PropOp38
 70
     1
102
RTVSPost2010Prop39
140
1.0
102
RTVSPost2010PropOp39
 70
     1
102
RTVSPost2010Prop40
 90
        0
102
RTVSPost2010PropOp40
 70
     1
102
RTVSPost2010Prop41ColorIndex
 90
       18
102
RTVSPost2010Prop41ColorRGB
 90
        0
102
RTVSPost2010PropOp41
 70
     1
102
RTVSPost2010Prop42
 90
       50
102
RTVSPost2010PropOp42
 70
     1
102
RTVSPost2010Prop43
 90
        3
102
RTVSPost2010PropOp43
 70
     1
102
RTVSPost2010Prop44ColorIndex
 90
        5
102
RTVSPost2010Prop44ColorRGB
 90
      255
102
RTVSPost2010PropOp44
 70
     1
102
RTVSPost2010Prop45
280
     0
102
RTVSPost2010PropOp45
 70
     1
102
RTVSPost2010Prop46
 90
       50
102
RTVSPost2010PropOp46
 70
     1
102
RTVSPost2010Prop47
 90
       50
102
RTVSPost2010PropOp47
 70
     1
102
RTVSPost2010Prop48
 90
       50
102
RTVSPost2010PropOp48
 70
     1
102
RTVSPost2010Prop49
280
     0
102
RTVSPost2010PropOp49
 70
     1
102
RTVSPost2010Prop50
 90
       50
102
RTVSPost2010PropOp50
 70
     1
102
RTVSPost2010Prop51ColorIndex
 90
      256
102
RTVSPost2010Prop51ColorRGB
 90
-16777216
102
RTVSPost2010PropOp51
 70
     0
102
RTVSPost2010Prop52
140
1.0
102
RTVSPost2010PropOp52
 70
     0
102
RTVSPost2010Prop53
 90
        2
102
RTVSPost2010PropOp53
 70
     1
102
RTVSPost2010Prop54
  1
strokes_ogs.tif
102
RTVSPost2010PropOp54
 70
     1
102
RTVSPost2010Prop55
280
     0
102
RTVSPost2010PropOp55
 70
     1
102
RTVSPost2010Prop56
140
1.0
102
RTVSPost2010PropOp56
 70
     1
102
RTVSPost2010Prop57
140
1.0
102
RTVSPost2010PropOp57
 70
     1
  0
XRECORD
  5
190
102
{ACAD_REACTORS
330
18F
102
}
330
18F
100
AcDbXrecord
280
     1
102
RTVSPost2010Prop28
280
     0
102
RTVSPost2010PropOp28
 70
     1
102
RTVSPost2010Prop29
280
     1
102
RTVSPost2010PropOp29
 70
     1
102
RTVSPost2010Prop30
280
     1
102
RTVSPost2010PropOp30
 70
     1
102
RTVSPost2010Prop31
280
     0
102
RTVSPost2010PropOp31
 70
     1
102
RTVSPost2010Prop32
280
     0
102
RTVSPost2010PropOp32
 70
     1
102
RTVSPost2010Prop33
280
     0
102
RTVSPost2010PropOp33
 70
     1
102
RTVSPost2010Prop34
280
     0
102
RTVSPost2010PropOp34
 70
     1
102
RTVSPost2010Prop35
280
     0
102
RTVSPost2010PropOp35
 70
     1
102
RTVSPost2010Prop36
280
     0
102
RTVSPost2010PropOp36
 70
     1
102
RTVSPost2010Prop37
 90
       50
102
RTVSPost2010PropOp37
 70
     1
102
RTVSPost2010Prop38
140
0.0
102
RTVSPost2010PropOp38
 70
     1
102
RTVSPost2010Prop39
140
1.0
102
RTVSPost2010PropOp39
 70
     1
102
RTVSPost2010Prop40
 90
        0
102
RTVSPost2010PropOp40
 70
     1
102
RTVSPost2010Prop41ColorIndex
 90
       18
102
RTVSPost2010Prop41ColorRGB
 90
        0
102
RTVSPost2010PropOp41
 70
     1
102
RTVSPost2010Prop42
 90
       50
102
RTVSPost2010PropOp42
 70
     1
102
RTVSPost2010Prop43
 90
        3
102
RTVSPost2010PropOp43
 70
     1
102
RTVSPost2010Prop44ColorIndex
 90
        5
102
RTVSPost2010Prop44ColorRGB
 90
      255
102
RTVSPost2010PropOp44
 70
     1
102
RTVSPost2010Prop45
280
     0
102
RTVSPost2010PropOp45
 70
     1
102
RTVSPost2010Prop46
 90
       50
102
RTVSPost2010PropOp46
 70
     1
102
RTVSPost2010Prop47
 90
       50
102
RTVSPost2010PropOp47
 70
     1
102
RTVSPost2010Prop48
 90
       50
102
RTVSPost2010PropOp48
 70
     1
102
RTVSPost2010Prop49
280
     0
102
RTVSPost2010PropOp49
 70
     1
102
RTVSPost2010Prop50
 90
       50
102
RTVSPost2010PropOp50
 70
     1
102
RTVSPost2010Prop51ColorIndex
 90
      256
102
RTVSPost2010Prop51ColorRGB
 90
-16777216
102
RTVSPost2010PropOp51
 70
     0
102
RTVSPost2010Prop52
140
1.0
102
RTVSPost2010PropOp52
 70
     0
102
RTVSPost2010Prop53
 90
        2
102
RTVSPost2010PropOp53
 70
     1
102
RTVSPost2010Prop54
  1
strokes_ogs.tif
102
RTVSPost2010PropOp54
 70
     1
102
RTVSPost2010Prop55
280
     0
102
RTVSPost2010PropOp55
 70
     1
102
RTVSPost2010Prop56
140
1.0
102
RTVSPost2010PropOp56
 70
     1
102
RTVSPost2010Prop57
140
1.0
102
RTVSPost2010PropOp57
 70
     1
  0
XRECORD
  5
192
102
{ACAD_REACTORS
330
191
102
}
330
191
100
AcDbXrecord
280
     1
102
RTVSPost2010Prop28
280
     0
102
RTVSPost2010PropOp28
 70
     1
102
RTVSPost2010Prop29
280
     1
102
RTVSPost2010PropOp29
 70
     1
102
RTVSPost2010Prop30
280
     1
102
RTVSPost2010PropOp30
 70
     1
102
RTVSPost2010Prop31
280
     0
102
RTVSPost2010PropOp31
 70
     1
102
RTVSPost2010Prop32
280
     0
102
RTVSPost2010PropOp32
 70
     1
102
RTVSPost2010Prop33
280
     0
102
RTVSPost2010PropOp33
 70
     1
102
RTVSPost2010Prop34
280
     0
102
RTVSPost2010PropOp34
 70
     1
102
RTVSPost2010Prop35
280
     0
102
RTVSPost2010PropOp35
 70
     1
102
RTVSPost2010Prop36
280
     0
102
RTVSPost2010PropOp36
 70
     1
102
RTVSPost2010Prop37
 90
       50
102
RTVSPost2010PropOp37
 70
     1
102
RTVSPost2010Prop38
140
0.0
102
RTVSPost2010PropOp38
 70
     1
102
RTVSPost2010Prop39
140
1.0
102
RTVSPost2010PropOp39
 70
     1
102
RTVSPost2010Prop40
 90
        0
102
RTVSPost2010PropOp40
 70
     1
102
RTVSPost2010Prop41ColorIndex
 90
       18
102
RTVSPost2010Prop41ColorRGB
 90
        0
102
RTVSPost2010PropOp41
 70
     1
102
RTVSPost2010Prop42
 90
       50
102
RTVSPost2010PropOp42
 70
     1
102
RTVSPost2010Prop43
 90
        3
102
RTVSPost2010PropOp43
 70
     1
102
RTVSPost2010Prop44ColorIndex
 90
        5
102
RTVSPost2010Prop44ColorRGB
 90
      255
102
RTVSPost2010PropOp44
 70
     1
102
RTVSPost2010Prop45
280
     0
102
RTVSPost2010PropOp45
 70
     1
102
RTVSPost2010Prop46
 90
       50
102
RTVSPost2010PropOp46
 70
     1
102
RTVSPost2010Prop47
 90
       50
102
RTVSPost2010PropOp47
 70
     1
102
RTVSPost2010Prop48
 90
       50
102
RTVSPost2010PropOp48
 70
     1
102
RTVSPost2010Prop49
280
     0
102
RTVSPost2010PropOp49
 70
     1
102
RTVSPost2010Prop50
 90
       50
102
RTVSPost2010PropOp50
 70
     1
102
RTVSPost2010Prop51ColorIndex
 90
      256
102
RTVSPost2010Prop51ColorRGB
 90
-16777216
102
RTVSPost2010PropOp51
 70
     0
102
RTVSPost2010Prop52
140
1.0
102
RTVSPost2010PropOp52
 70
     0
102
RTVSPost2010Prop53
 90
        2
102
RTVSPost2010PropOp53
 70
     1
102
RTVSPost2010Prop54
  1
strokes_ogs.tif
102
RTVSPost2010PropOp54
 70
     1
102
RTVSPost2010Prop55
280
     0
102
RTVSPost2010PropOp55
 70
     1
102
RTVSPost2010Prop56
140
1.0
102
RTVSPost2010PropOp56
 70
     1
102
RTVSPost2010Prop57
140
1.0
102
RTVSPost2010PropOp57
 70
     1
  0
XRECORD
  5
19A
102
{ACAD_REACTORS
330
199
102
}
330
199
100
AcDbXrecord
280
     1
102
RTVSPost2010Prop28
280
     0
102
RTVSPost2010PropOp28
 70
     1
102
RTVSPost2010Prop29
280
     1
102
RTVSPost2010PropOp29
 70
     1
102
RTVSPost2010Prop30
280
     1
102
RTVSPost2010PropOp30
 70
     1
102
RTVSPost2010Prop31
280
     0
102
RTVSPost2010PropOp31
 70
     1
102
RTVSPost2010Prop32
280
     0
102
RTVSPost2010PropOp32
 70
     1
102
RTVSPost2010Prop33
280
     0
102
RTVSPost2010PropOp33
 70
     1
102
RTVSPost2010Prop34
280
     0
102
RTVSPost2010PropOp34
 70
     1
102
RTVSPost2010Prop35
280
     0
102
RTVSPost2010PropOp35
 70
     1
102
RTVSPost2010Prop36
280
     0
102
RTVSPost2010PropOp36
 70
     1
102
RTVSPost2010Prop37
 90
       50
102
RTVSPost2010PropOp37
 70
     1
102
RTVSPost2010Prop38
140
0.0
102
RTVSPost2010PropOp38
 70
     1
102
RTVSPost2010Prop39
140
1.0
102
RTVSPost2010PropOp39
 70
     1
102
RTVSPost2010Prop40
 90
        0
102
RTVSPost2010PropOp40
 70
     1
102
RTVSPost2010Prop41ColorIndex
 90
       18
102
RTVSPost2010Prop41ColorRGB
 90
        0
102
RTVSPost2010PropOp41
 70
     1
102
RTVSPost2010Prop42
 90
       50
102
RTVSPost2010PropOp42
 70
     1
102
RTVSPost2010Prop43
 90
        3
102
RTVSPost2010PropOp43
 70
     1
102
RTVSPost2010Prop44ColorIndex
 90
        5
102
RTVSPost2010Prop44ColorRGB
 90
      255
102
RTVSPost2010PropOp44
 70
     1
102
RTVSPost2010Prop45
280
     0
102
RTVSPost2010PropOp45
 70
     1
102
RTVSPost2010Prop46
 90
       50
102
RTVSPost2010PropOp46
 70
     1
102
RTVSPost2010Prop47
 90
       50
102
RTVSPost2010PropOp47
 70
     1
102
RTVSPost2010Prop48
 90
       50
102
RTVSPost2010PropOp48
 70
     1
102
RTVSPost2010Prop49
280
     0
102
RTVSPost2010PropOp49
 70
     1
102
RTVSPost2010Prop50
 90
       50
102
RTVSPost2010PropOp50
 70
     1
102
RTVSPost2010Prop51ColorIndex
 90
      256
102
RTVSPost2010Prop51ColorRGB
 90
-16777216
102
RTVSPost2010PropOp51
 70
     0
102
RTVSPost2010Prop52
140
1.0
102
RTVSPost2010PropOp52
 70
     0
102
RTVSPost2010Prop53
 90
        2
102
RTVSPost2010PropOp53
 70
     1
102
RTVSPost2010Prop54
  1
strokes_ogs.tif
102
RTVSPost2010PropOp54
 70
     1
102
RTVSPost2010Prop55
280
     0
102
RTVSPost2010PropOp55
 70
     1
102
RTVSPost2010Prop56
140
1.0
102
RTVSPost2010PropOp56
 70
     1
102
RTVSPost2010Prop57
140
1.0
102
RTVSPost2010PropOp57
 70
     1
  0
XRECORD
  5
1B6
102
{ACAD_REACTORS
330
1B5
102
}
330
1B5
100
AcDbXrecord
280
     1
102
RTVSPost2010Prop28
280
     0
102
RTVSPost2010PropOp28
 70
     0
102
RTVSPost2010Prop29
280
     1
102
RTVSPost2010PropOp29
 70
     0
102
RTVSPost2010Prop30
280
     1
102
RTVSPost2010PropOp30
 70
     0
102
RTVSPost2010Prop31
280
     0
102
RTVSPost2010PropOp31
 70
     0
102
RTVSPost2010Prop32
280
     0
102
RTVSPost2010PropOp32
 70
     0
102
RTVSPost2010Prop33
280
     0
102
RTVSPost2010PropOp33
 70
     0
102
RTVSPost2010Prop34
280
     0
102
RTVSPost2010PropOp34
 70
     0
102
RTVSPost2010Prop35
280
     0
102
RTVSPost2010PropOp35
 70
     0
102
RTVSPost2010Prop36
280
     0
102
RTVSPost2010PropOp36
 70
     0
102
RTVSPost2010Prop37
 90
       50
102
RTVSPost2010PropOp37
 70
     0
102
RTVSPost2010Prop38
140
0.0
102
RTVSPost2010PropOp38
 70
     0
102
RTVSPost2010Prop39
140
1.0
102
RTVSPost2010PropOp39
 70
     0
102
RTVSPost2010Prop40
 90
        0
102
RTVSPost2010PropOp40
 70
     0
102
RTVSPost2010Prop41ColorIndex
 90
       18
102
RTVSPost2010Prop41ColorRGB
 90
        0
102
RTVSPost2010PropOp41
 70
     0
102
RTVSPost2010Prop42
 90
       50
102
RTVSPost2010PropOp42
 70
     0
102
RTVSPost2010Prop43
 90
        3
102
RTVSPost2010PropOp43
 70
     0
102
RTVSPost2010Prop44ColorIndex
 90
        5
102
RTVSPost2010Prop44ColorRGB
 90
      255
102
RTVSPost2010PropOp44
 70
     0
102
RTVSPost2010Prop45
280
     0
102
RTVSPost2010PropOp45
 70
     0
102
RTVSPost2010Prop46
 90
       50
102
RTVSPost2010PropOp46
 70
     0
102
RTVSPost2010Prop47
 90
       50
102
RTVSPost2010PropOp47
 70
     0
102
RTVSPost2010Prop48
 90
       50
102
RTVSPost2010PropOp48
 70
     0
102
RTVSPost2010Prop49
280
     0
102
RTVSPost2010PropOp49
 70
     0
102
RTVSPost2010Prop50
 90
       50
102
RTVSPost2010PropOp50
 70
     0
102
RTVSPost2010Prop51ColorIndex
 90
      256
102
RTVSPost2010Prop51ColorRGB
 90
-16777216
102
RTVSPost2010PropOp51
 70
     0
102
RTVSPost2010Prop52
140
1.0
102
RTVSPost2010PropOp52
 70
     0
102
RTVSPost2010Prop53
 90
        2
102
RTVSPost2010PropOp53
 70
     0
102
RTVSPost2010Prop54
  1
strokes_ogs.tif
102
RTVSPost2010PropOp54
 70
     0
102
RTVSPost2010Prop55
280
     0
102
RTVSPost2010PropOp55
 70
     0
102
RTVSPost2010Prop56
140
1.0
102
RTVSPost2010PropOp56
 70
     0
102
RTVSPost2010Prop57
140
1.0
102
RTVSPost2010PropOp57
 70
     0
  0
XRECORD
  5
1A6
102
{ACAD_REACTORS
330
1A5
102
}
330
1A5
100
AcDbXrecord
280
     1
102
RTVSPost2010Prop28
280
     0
102
RTVSPost2010PropOp28
 70
     1
102
RTVSPost2010Prop29
280
     1
102
RTVSPost2010PropOp29
 70
     1
102
RTVSPost2010Prop30
280
     1
102
RTVSPost2010PropOp30
 70
     1
102
RTVSPost2010Prop31
280
     0
102
RTVSPost2010PropOp31
 70
     1
102
RTVSPost2010Prop32
280
     0
102
RTVSPost2010PropOp32
 70
     1
102
RTVSPost2010Prop33
280
     0
102
RTVSPost2010PropOp33
 70
     1
102
RTVSPost2010Prop34
280
     0
102
RTVSPost2010PropOp34
 70
     1
102
RTVSPost2010Prop35
280
     0
102
RTVSPost2010PropOp35
 70
     1
102
RTVSPost2010Prop36
280
     0
102
RTVSPost2010PropOp36
 70
     1
102
RTVSPost2010Prop37
 90
       50
102
RTVSPost2010PropOp37
 70
     1
102
RTVSPost2010Prop38
140
0.0
102
RTVSPost2010PropOp38
 70
     1
102
RTVSPost2010Prop39
140
1.0
102
RTVSPost2010PropOp39
 70
     1
102
RTVSPost2010Prop40
 90
        0
102
RTVSPost2010PropOp40
 70
     1
102
RTVSPost2010Prop41ColorIndex
 90
       18
102
RTVSPost2010Prop41ColorRGB
 90
        0
102
RTVSPost2010PropOp41
 70
     1
102
RTVSPost2010Prop42
 90
       50
102
RTVSPost2010PropOp42
 70
     1
102
RTVSPost2010Prop43
 90
        3
102
RTVSPost2010PropOp43
 70
     1
102
RTVSPost2010Prop44ColorIndex
 90
        5
102
RTVSPost2010Prop44ColorRGB
 90
      255
102
RTVSPost2010PropOp44
 70
     1
102
RTVSPost2010Prop45
280
     0
102
RTVSPost2010PropOp45
 70
     1
102
RTVSPost2010Prop46
 90
       50
102
RTVSPost2010PropOp46
 70
     1
102
RTVSPost2010Prop47
 90
       50
102
RTVSPost2010PropOp47
 70
     1
102
RTVSPost2010Prop48
 90
       50
102
RTVSPost2010PropOp48
 70
     1
102
RTVSPost2010Prop49
280
     0
102
RTVSPost2010PropOp49
 70
     1
102
RTVSPost2010Prop50
 90
       50
102
RTVSPost2010PropOp50
 70
     1
102
RTVSPost2010Prop51ColorIndex
 90
      256
102
RTVSPost2010Prop51ColorRGB
 90
-16777216
102
RTVSPost2010PropOp51
 70
     0
102
RTVSPost2010Prop52
140
1.0
102
RTVSPost2010PropOp52
 70
     0
102
RTVSPost2010Prop53
 90
        2
102
RTVSPost2010PropOp53
 70
     1
102
RTVSPost2010Prop54
  1
strokes_ogs.tif
102
RTVSPost2010PropOp54
 70
     1
102
RTVSPost2010Prop55
280
     0
102
RTVSPost2010PropOp55
 70
     1
102
RTVSPost2010Prop56
140
1.0
102
RTVSPost2010PropOp56
 70
     1
102
RTVSPost2010Prop57
140
1.0
102
RTVSPost2010PropOp57
 70
     1
  0
XRECORD
  5
1B8
102
{ACAD_REACTORS
330
1B7
102
}
330
1B7
100
AcDbXrecord
280
     1
102
RTVSPost2010Prop28
280
     0
102
RTVSPost2010PropOp28
 70
     0
102
RTVSPost2010Prop29
280
     1
102
RTVSPost2010PropOp29
 70
     0
102
RTVSPost2010Prop30
280
     1
102
RTVSPost2010PropOp30
 70
     0
102
RTVSPost2010Prop31
280
     0
102
RTVSPost2010PropOp31
 70
     0
102
RTVSPost2010Prop32
280
     0
102
RTVSPost2010PropOp32
 70
     0
102
RTVSPost2010Prop33
280
     0
102
RTVSPost2010PropOp33
 70
     0
102
RTVSPost2010Prop34
280
     0
102
RTVSPost2010PropOp34
 70
     0
102
RTVSPost2010Prop35
280
     0
102
RTVSPost2010PropOp35
 70
     0
102
RTVSPost2010Prop36
280
     0
102
RTVSPost2010PropOp36
 70
     0
102
RTVSPost2010Prop37
 90
       50
102
RTVSPost2010PropOp37
 70
     0
102
RTVSPost2010Prop38
140
0.0
102
RTVSPost2010PropOp38
 70
     0
102
RTVSPost2010Prop39
140
1.0
102
RTVSPost2010PropOp39
 70
     0
102
RTVSPost2010Prop40
 90
        0
102
RTVSPost2010PropOp40
 70
     0
102
RTVSPost2010Prop41ColorIndex
 90
       18
102
RTVSPost2010Prop41ColorRGB
 90
        0
102
RTVSPost2010PropOp41
 70
     0
102
RTVSPost2010Prop42
 90
       50
102
RTVSPost2010PropOp42
 70
     0
102
RTVSPost2010Prop43
 90
        3
102
RTVSPost2010PropOp43
 70
     0
102
RTVSPost2010Prop44ColorIndex
 90
        5
102
RTVSPost2010Prop44ColorRGB
 90
      255
102
RTVSPost2010PropOp44
 70
     0
102
RTVSPost2010Prop45
280
     0
102
RTVSPost2010PropOp45
 70
     0
102
RTVSPost2010Prop46
 90
       50
102
RTVSPost2010PropOp46
 70
     0
102
RTVSPost2010Prop47
 90
       50
102
RTVSPost2010PropOp47
 70
     0
102
RTVSPost2010Prop48
 90
       50
102
RTVSPost2010PropOp48
 70
     0
102
RTVSPost2010Prop49
280
     0
102
RTVSPost2010PropOp49
 70
     0
102
RTVSPost2010Prop50
 90
       50
102
RTVSPost2010PropOp50
 70
     0
102
RTVSPost2010Prop51ColorIndex
 90
      256
102
RTVSPost2010Prop51ColorRGB
 90
-16777216
102
RTVSPost2010PropOp51
 70
     0
102
RTVSPost2010Prop52
140
1.0
102
RTVSPost2010PropOp52
 70
     0
102
RTVSPost2010Prop53
 90
        2
102
RTVSPost2010PropOp53
 70
     0
102
RTVSPost2010Prop54
  1
strokes_ogs.tif
102
RTVSPost2010PropOp54
 70
     0
102
RTVSPost2010Prop55
280
     0
102
RTVSPost2010PropOp55
 70
     0
102
RTVSPost2010Prop56
140
1.0
102
RTVSPost2010PropOp56
 70
     0
102
RTVSPost2010Prop57
140
1.0
102
RTVSPost2010PropOp57
 70
     0
  0
XRECORD
  5
19E
102
{ACAD_REACTORS
330
19D
102
}
330
19D
100
AcDbXrecord
280
     1
102
RTVSPost2010Prop28
280
     0
102
RTVSPost2010PropOp28
 70
     1
102
RTVSPost2010Prop29
280
     1
102
RTVSPost2010PropOp29
 70
     1
102
RTVSPost2010Prop30
280
     1
102
RTVSPost2010PropOp30
 70
     1
102
RTVSPost2010Prop31
280
     0
102
RTVSPost2010PropOp31
 70
     1
102
RTVSPost2010Prop32
280
     0
102
RTVSPost2010PropOp32
 70
     1
102
RTVSPost2010Prop33
280
     0
102
RTVSPost2010PropOp33
 70
     1
102
RTVSPost2010Prop34
280
     0
102
RTVSPost2010PropOp34
 70
     1
102
RTVSPost2010Prop35
280
     0
102
RTVSPost2010PropOp35
 70
     1
102
RTVSPost2010Prop36
280
     0
102
RTVSPost2010PropOp36
 70
     1
102
RTVSPost2010Prop37
 90
       50
102
RTVSPost2010PropOp37
 70
     1
102
RTVSPost2010Prop38
140
0.0
102
RTVSPost2010PropOp38
 70
     1
102
RTVSPost2010Prop39
140
1.0
102
RTVSPost2010PropOp39
 70
     1
102
RTVSPost2010Prop40
 90
        0
102
RTVSPost2010PropOp40
 70
     1
102
RTVSPost2010Prop41ColorIndex
 90
       18
102
RTVSPost2010Prop41ColorRGB
 90
        0
102
RTVSPost2010PropOp41
 70
     1
102
RTVSPost2010Prop42
 90
       50
102
RTVSPost2010PropOp42
 70
     1
102
RTVSPost2010Prop43
 90
        3
102
RTVSPost2010PropOp43
 70
     1
102
RTVSPost2010Prop44ColorIndex
 90
        5
102
RTVSPost2010Prop44ColorRGB
 90
      255
102
RTVSPost2010PropOp44
 70
     1
102
RTVSPost2010Prop45
280
     0
102
RTVSPost2010PropOp45
 70
     1
102
RTVSPost2010Prop46
 90
       50
102
RTVSPost2010PropOp46
 70
     1
102
RTVSPost2010Prop47
 90
       50
102
RTVSPost2010PropOp47
 70
     1
102
RTVSPost2010Prop48
 90
       50
102
RTVSPost2010PropOp48
 70
     1
102
RTVSPost2010Prop49
280
     0
102
RTVSPost2010PropOp49
 70
     1
102
RTVSPost2010Prop50
 90
       50
102
RTVSPost2010PropOp50
 70
     1
102
RTVSPost2010Prop51ColorIndex
 90
      256
102
RTVSPost2010Prop51ColorRGB
 90
-16777216
102
RTVSPost2010PropOp51
 70
     0
102
RTVSPost2010Prop52
140
1.0
102
RTVSPost2010PropOp52
 70
     0
102
RTVSPost2010Prop53
 90
        2
102
RTVSPost2010PropOp53
 70
     1
102
RTVSPost2010Prop54
  1
strokes_ogs.tif
102
RTVSPost2010PropOp54
 70
     1
102
RTVSPost2010Prop55
280
     0
102
RTVSPost2010PropOp55
 70
     1
102
RTVSPost2010Prop56
140
1.0
102
RTVSPost2010PropOp56
 70
     1
102
RTVSPost2010Prop57
140
1.0
102
RTVSPost2010PropOp57
 70
     1
  0
XRECORD
  5
1B4
102
{ACAD_REACTORS
330
1B3
102
}
330
1B3
100
AcDbXrecord
280
     1
102
RTVSPost2010Prop28
280
     0
102
RTVSPost2010PropOp28
 70
     1
102
RTVSPost2010Prop29
280
     1
102
RTVSPost2010PropOp29
 70
     1
102
RTVSPost2010Prop30
280
     1
102
RTVSPost2010PropOp30
 70
     1
102
RTVSPost2010Prop31
280
     0
102
RTVSPost2010PropOp31
 70
     1
102
RTVSPost2010Prop32
280
     0
102
RTVSPost2010PropOp32
 70
     1
102
RTVSPost2010Prop33
280
     0
102
RTVSPost2010PropOp33
 70
     1
102
RTVSPost2010Prop34
280
     0
102
RTVSPost2010PropOp34
 70
     1
102
RTVSPost2010Prop35
280
     0
102
RTVSPost2010PropOp35
 70
     1
102
RTVSPost2010Prop36
280
     0
102
RTVSPost2010PropOp36
 70
     1
102
RTVSPost2010Prop37
 90
       50
102
RTVSPost2010PropOp37
 70
     1
102
RTVSPost2010Prop38
140
0.0
102
RTVSPost2010PropOp38
 70
     1
102
RTVSPost2010Prop39
140
1.0
102
RTVSPost2010PropOp39
 70
     1
102
RTVSPost2010Prop40
 90
        0
102
RTVSPost2010PropOp40
 70
     1
102
RTVSPost2010Prop41ColorIndex
 90
       18
102
RTVSPost2010Prop41ColorRGB
 90
        0
102
RTVSPost2010PropOp41
 70
     1
102
RTVSPost2010Prop42
 90
       50
102
RTVSPost2010PropOp42
 70
     1
102
RTVSPost2010Prop43
 90
        3
102
RTVSPost2010PropOp43
 70
     1
102
RTVSPost2010Prop44ColorIndex
 90
        5
102
RTVSPost2010Prop44ColorRGB
 90
      255
102
RTVSPost2010PropOp44
 70
     1
102
RTVSPost2010Prop45
280
     0
102
RTVSPost2010PropOp45
 70
     1
102
RTVSPost2010Prop46
 90
       50
102
RTVSPost2010PropOp46
 70
     1
102
RTVSPost2010Prop47
 90
       50
102
RTVSPost2010PropOp47
 70
     1
102
RTVSPost2010Prop48
 90
       50
102
RTVSPost2010PropOp48
 70
     1
102
RTVSPost2010Prop49
280
     0
102
RTVSPost2010PropOp49
 70
     1
102
RTVSPost2010Prop50
 90
       50
102
RTVSPost2010PropOp50
 70
     1
102
RTVSPost2010Prop51ColorIndex
 90
      256
102
RTVSPost2010Prop51ColorRGB
 90
-16777216
102
RTVSPost2010PropOp51
 70
     0
102
RTVSPost2010Prop52
140
1.0
102
RTVSPost2010PropOp52
 70
     0
102
RTVSPost2010Prop53
 90
        2
102
RTVSPost2010PropOp53
 70
     1
102
RTVSPost2010Prop54
  1
strokes_ogs.tif
102
RTVSPost2010PropOp54
 70
     1
102
RTVSPost2010Prop55
280
     0
102
RTVSPost2010PropOp55
 70
     1
102
RTVSPost2010Prop56
140
1.0
102
RTVSPost2010PropOp56
 70
     1
102
RTVSPost2010Prop57
140
1.0
102
RTVSPost2010PropOp57
 70
     1
  0
XRECORD
  5
1B2
102
{ACAD_REACTORS
330
1B1
102
}
330
1B1
100
AcDbXrecord
280
     1
102
RTVSPost2010Prop28
280
     0
102
RTVSPost2010PropOp28
 70
     1
102
RTVSPost2010Prop29
280
     1
102
RTVSPost2010PropOp29
 70
     1
102
RTVSPost2010Prop30
280
     1
102
RTVSPost2010PropOp30
 70
     1
102
RTVSPost2010Prop31
280
     0
102
RTVSPost2010PropOp31
 70
     1
102
RTVSPost2010Prop32
280
     0
102
RTVSPost2010PropOp32
 70
     1
102
RTVSPost2010Prop33
280
     0
102
RTVSPost2010PropOp33
 70
     1
102
RTVSPost2010Prop34
280
     0
102
RTVSPost2010PropOp34
 70
     1
102
RTVSPost2010Prop35
280
     0
102
RTVSPost2010PropOp35
 70
     1
102
RTVSPost2010Prop36
280
     0
102
RTVSPost2010PropOp36
 70
     1
102
RTVSPost2010Prop37
 90
       50
102
RTVSPost2010PropOp37
 70
     1
102
RTVSPost2010Prop38
140
0.0
102
RTVSPost2010PropOp38
 70
     1
102
RTVSPost2010Prop39
140
1.0
102
RTVSPost2010PropOp39
 70
     1
102
RTVSPost2010Prop40
 90
        0
102
RTVSPost2010PropOp40
 70
     1
102
RTVSPost2010Prop41ColorIndex
 90
       18
102
RTVSPost2010Prop41ColorRGB
 90
        0
102
RTVSPost2010PropOp41
 70
     1
102
RTVSPost2010Prop42
 90
       50
102
RTVSPost2010PropOp42
 70
     1
102
RTVSPost2010Prop43
 90
        3
102
RTVSPost2010PropOp43
 70
     1
102
RTVSPost2010Prop44ColorIndex
 90
        5
102
RTVSPost2010Prop44ColorRGB
 90
      255
102
RTVSPost2010PropOp44
 70
     1
102
RTVSPost2010Prop45
280
     0
102
RTVSPost2010PropOp45
 70
     1
102
RTVSPost2010Prop46
 90
       50
102
RTVSPost2010PropOp46
 70
     1
102
RTVSPost2010Prop47
 90
       50
102
RTVSPost2010PropOp47
 70
     1
102
RTVSPost2010Prop48
 90
       50
102
RTVSPost2010PropOp48
 70
     1
102
RTVSPost2010Prop49
280
     0
102
RTVSPost2010PropOp49
 70
     1
102
RTVSPost2010Prop50
 90
       50
102
RTVSPost2010PropOp50
 70
     1
102
RTVSPost2010Prop51ColorIndex
 90
      256
102
RTVSPost2010Prop51ColorRGB
 90
-16777216
102
RTVSPost2010PropOp51
 70
     0
102
RTVSPost2010Prop52
140
1.0
102
RTVSPost2010PropOp52
 70
     0
102
RTVSPost2010Prop53
 90
        2
102
RTVSPost2010PropOp53
 70
     1
102
RTVSPost2010Prop54
  1
strokes_ogs.tif
102
RTVSPost2010PropOp54
 70
     1
102
RTVSPost2010Prop55
280
     0
102
RTVSPost2010PropOp55
 70
     1
102
RTVSPost2010Prop56
140
1.0
102
RTVSPost2010PropOp56
 70
     1
102
RTVSPost2010Prop57
140
1.0
102
RTVSPost2010PropOp57
 70
     1
  0
XRECORD
  5
1AC
102
{ACAD_REACTORS
330
1AB
102
}
330
1AB
100
AcDbXrecord
280
     1
102
RTVSPost2010Prop28
280
     0
102
RTVSPost2010PropOp28
 70
     1
102
RTVSPost2010Prop29
280
     1
102
RTVSPost2010PropOp29
 70
     1
102
RTVSPost2010Prop30
280
     1
102
RTVSPost2010PropOp30
 70
     1
102
RTVSPost2010Prop31
280
     0
102
RTVSPost2010PropOp31
 70
     1
102
RTVSPost2010Prop32
280
     0
102
RTVSPost2010PropOp32
 70
     1
102
RTVSPost2010Prop33
280
     0
102
RTVSPost2010PropOp33
 70
     1
102
RTVSPost2010Prop34
280
     0
102
RTVSPost2010PropOp34
 70
     1
102
RTVSPost2010Prop35
280
     0
102
RTVSPost2010PropOp35
 70
     1
102
RTVSPost2010Prop36
280
     0
102
RTVSPost2010PropOp36
 70
     1
102
RTVSPost2010Prop37
 90
       50
102
RTVSPost2010PropOp37
 70
     1
102
RTVSPost2010Prop38
140
0.0
102
RTVSPost2010PropOp38
 70
     1
102
RTVSPost2010Prop39
140
1.0
102
RTVSPost2010PropOp39
 70
     1
102
RTVSPost2010Prop40
 90
        0
102
RTVSPost2010PropOp40
 70
     1
102
RTVSPost2010Prop41ColorIndex
 90
       18
102
RTVSPost2010Prop41ColorRGB
 90
        0
102
RTVSPost2010PropOp41
 70
     1
102
RTVSPost2010Prop42
 90
       50
102
RTVSPost2010PropOp42
 70
     1
102
RTVSPost2010Prop43
 90
        3
102
RTVSPost2010PropOp43
 70
     1
102
RTVSPost2010Prop44ColorIndex
 90
        5
102
RTVSPost2010Prop44ColorRGB
 90
      255
102
RTVSPost2010PropOp44
 70
     1
102
RTVSPost2010Prop45
280
     0
102
RTVSPost2010PropOp45
 70
     1
102
RTVSPost2010Prop46
 90
       50
102
RTVSPost2010PropOp46
 70
     1
102
RTVSPost2010Prop47
 90
       50
102
RTVSPost2010PropOp47
 70
     1
102
RTVSPost2010Prop48
 90
       50
102
RTVSPost2010PropOp48
 70
     1
102
RTVSPost2010Prop49
280
     0
102
RTVSPost2010PropOp49
 70
     1
102
RTVSPost2010Prop50
 90
       50
102
RTVSPost2010PropOp50
 70
     1
102
RTVSPost2010Prop51ColorIndex
 90
      256
102
RTVSPost2010Prop51ColorRGB
 90
-16777216
102
RTVSPost2010PropOp51
 70
     0
102
RTVSPost2010Prop52
140
1.0
102
RTVSPost2010PropOp52
 70
     0
102
RTVSPost2010Prop53
 90
        2
102
RTVSPost2010PropOp53
 70
     1
102
RTVSPost2010Prop54
  1
strokes_ogs.tif
102
RTVSPost2010PropOp54
 70
     1
102
RTVSPost2010Prop55
280
     0
102
RTVSPost2010PropOp55
 70
     1
102
RTVSPost2010Prop56
140
1.0
102
RTVSPost2010PropOp56
 70
     1
102
RTVSPost2010Prop57
140
1.0
102
RTVSPost2010PropOp57
 70
     1
  0
XRECORD
  5
1AE
102
{ACAD_REACTORS
330
1AD
102
}
330
1AD
100
AcDbXrecord
280
     1
102
RTVSPost2010Prop28
280
     0
102
RTVSPost2010PropOp28
 70
     1
102
RTVSPost2010Prop29
280
     1
102
RTVSPost2010PropOp29
 70
     1
102
RTVSPost2010Prop30
280
     1
102
RTVSPost2010PropOp30
 70
     1
102
RTVSPost2010Prop31
280
     0
102
RTVSPost2010PropOp31
 70
     1
102
RTVSPost2010Prop32
280
     0
102
RTVSPost2010PropOp32
 70
     1
102
RTVSPost2010Prop33
280
     0
102
RTVSPost2010PropOp33
 70
     1
102
RTVSPost2010Prop34
280
     0
102
RTVSPost2010PropOp34
 70
     1
102
RTVSPost2010Prop35
280
     0
102
RTVSPost2010PropOp35
 70
     1
102
RTVSPost2010Prop36
280
     0
102
RTVSPost2010PropOp36
 70
     1
102
RTVSPost2010Prop37
 90
       50
102
RTVSPost2010PropOp37
 70
     1
102
RTVSPost2010Prop38
140
0.0
102
RTVSPost2010PropOp38
 70
     1
102
RTVSPost2010Prop39
140
1.0
102
RTVSPost2010PropOp39
 70
     1
102
RTVSPost2010Prop40
 90
        0
102
RTVSPost2010PropOp40
 70
     1
102
RTVSPost2010Prop41ColorIndex
 90
       18
102
RTVSPost2010Prop41ColorRGB
 90
        0
102
RTVSPost2010PropOp41
 70
     1
102
RTVSPost2010Prop42
 90
       50
102
RTVSPost2010PropOp42
 70
     1
102
RTVSPost2010Prop43
 90
        3
102
RTVSPost2010PropOp43
 70
     1
102
RTVSPost2010Prop44ColorIndex
 90
        5
102
RTVSPost2010Prop44ColorRGB
 90
      255
102
RTVSPost2010PropOp44
 70
     1
102
RTVSPost2010Prop45
280
     0
102
RTVSPost2010PropOp45
 70
     1
102
RTVSPost2010Prop46
 90
       50
102
RTVSPost2010PropOp46
 70
     1
102
RTVSPost2010Prop47
 90
       50
102
RTVSPost2010PropOp47
 70
     1
102
RTVSPost2010Prop48
 90
       50
102
RTVSPost2010PropOp48
 70
     1
102
RTVSPost2010Prop49
280
     0
102
RTVSPost2010PropOp49
 70
     1
102
RTVSPost2010Prop50
 90
       50
102
RTVSPost2010PropOp50
 70
     1
102
RTVSPost2010Prop51ColorIndex
 90
      256
102
RTVSPost2010Prop51ColorRGB
 90
-16777216
102
RTVSPost2010PropOp51
 70
     0
102
RTVSPost2010Prop52
140
1.0
102
RTVSPost2010PropOp52
 70
     0
102
RTVSPost2010Prop53
 90
        2
102
RTVSPost2010PropOp53
 70
     1
102
RTVSPost2010Prop54
  1
strokes_ogs.tif
102
RTVSPost2010PropOp54
 70
     1
102
RTVSPost2010Prop55
280
     0
102
RTVSPost2010PropOp55
 70
     1
102
RTVSPost2010Prop56
140
1.0
102
RTVSPost2010PropOp56
 70
     1
102
RTVSPost2010Prop57
140
1.0
102
RTVSPost2010PropOp57
 70
     1
  0
XRECORD
  5
1A4
102
{ACAD_REACTORS
330
1A3
102
}
330
1A3
100
AcDbXrecord
280
     1
102
RTVSPost2010Prop28
280
     0
102
RTVSPost2010PropOp28
 70
     1
102
RTVSPost2010Prop29
280
     1
102
RTVSPost2010PropOp29
 70
     1
102
RTVSPost2010Prop30
280
     1
102
RTVSPost2010PropOp30
 70
     1
102
RTVSPost2010Prop31
280
     0
102
RTVSPost2010PropOp31
 70
     1
102
RTVSPost2010Prop32
280
     0
102
RTVSPost2010PropOp32
 70
     1
102
RTVSPost2010Prop33
280
     0
102
RTVSPost2010PropOp33
 70
     1
102
RTVSPost2010Prop34
280
     0
102
RTVSPost2010PropOp34
 70
     1
102
RTVSPost2010Prop35
280
     0
102
RTVSPost2010PropOp35
 70
     1
102
RTVSPost2010Prop36
280
     0
102
RTVSPost2010PropOp36
 70
     1
102
RTVSPost2010Prop37
 90
       50
102
RTVSPost2010PropOp37
 70
     1
102
RTVSPost2010Prop38
140
0.0
102
RTVSPost2010PropOp38
 70
     1
102
RTVSPost2010Prop39
140
1.0
102
RTVSPost2010PropOp39
 70
     1
102
RTVSPost2010Prop40
 90
        0
102
RTVSPost2010PropOp40
 70
     1
102
RTVSPost2010Prop41ColorIndex
 90
       18
102
RTVSPost2010Prop41ColorRGB
 90
        0
102
RTVSPost2010PropOp41
 70
     1
102
RTVSPost2010Prop42
 90
       50
102
RTVSPost2010PropOp42
 70
     1
102
RTVSPost2010Prop43
 90
        3
102
RTVSPost2010PropOp43
 70
     1
102
RTVSPost2010Prop44ColorIndex
 90
        5
102
RTVSPost2010Prop44ColorRGB
 90
      255
102
RTVSPost2010PropOp44
 70
     1
102
RTVSPost2010Prop45
280
     0
102
RTVSPost2010PropOp45
 70
     1
102
RTVSPost2010Prop46
 90
       50
102
RTVSPost2010PropOp46
 70
     1
102
RTVSPost2010Prop47
 90
       50
102
RTVSPost2010PropOp47
 70
     1
102
RTVSPost2010Prop48
 90
       50
102
RTVSPost2010PropOp48
 70
     1
102
RTVSPost2010Prop49
280
     0
102
RTVSPost2010PropOp49
 70
     1
102
RTVSPost2010Prop50
 90
       50
102
RTVSPost2010PropOp50
 70
     1
102
RTVSPost2010Prop51ColorIndex
 90
      256
102
RTVSPost2010Prop51ColorRGB
 90
-16777216
102
RTVSPost2010PropOp51
 70
     0
102
RTVSPost2010Prop52
140
1.0
102
RTVSPost2010PropOp52
 70
     0
102
RTVSPost2010Prop53
 90
        2
102
RTVSPost2010PropOp53
 70
     1
102
RTVSPost2010Prop54
  1
strokes_ogs.tif
102
RTVSPost2010PropOp54
 70
     1
102
RTVSPost2010Prop55
280
     0
102
RTVSPost2010PropOp55
 70
     1
102
RTVSPost2010Prop56
140
1.0
102
RTVSPost2010PropOp56
 70
     1
102
RTVSPost2010Prop57
140
1.0
102
RTVSPost2010PropOp57
 70
     1
  0
XRECORD
  5
198
102
{ACAD_REACTORS
330
197
102
}
330
197
100
AcDbXrecord
280
     1
102
RTVSPost2010Prop28
280
     0
102
RTVSPost2010PropOp28
 70
     1
102
RTVSPost2010Prop29
280
     1
102
RTVSPost2010PropOp29
 70
     1
102
RTVSPost2010Prop30
280
     1
102
RTVSPost2010PropOp30
 70
     1
102
RTVSPost2010Prop31
280
     0
102
RTVSPost2010PropOp31
 70
     1
102
RTVSPost2010Prop32
280
     0
102
RTVSPost2010PropOp32
 70
     1
102
RTVSPost2010Prop33
280
     0
102
RTVSPost2010PropOp33
 70
     1
102
RTVSPost2010Prop34
280
     0
102
RTVSPost2010PropOp34
 70
     1
102
RTVSPost2010Prop35
280
     0
102
RTVSPost2010PropOp35
 70
     1
102
RTVSPost2010Prop36
280
     0
102
RTVSPost2010PropOp36
 70
     1
102
RTVSPost2010Prop37
 90
       50
102
RTVSPost2010PropOp37
 70
     1
102
RTVSPost2010Prop38
140
0.0
102
RTVSPost2010PropOp38
 70
     1
102
RTVSPost2010Prop39
140
1.0
102
RTVSPost2010PropOp39
 70
     1
102
RTVSPost2010Prop40
 90
        0
102
RTVSPost2010PropOp40
 70
     1
102
RTVSPost2010Prop41ColorIndex
 90
       18
102
RTVSPost2010Prop41ColorRGB
 90
        0
102
RTVSPost2010PropOp41
 70
     1
102
RTVSPost2010Prop42
 90
       50
102
RTVSPost2010PropOp42
 70
     1
102
RTVSPost2010Prop43
 90
        3
102
RTVSPost2010PropOp43
 70
     1
102
RTVSPost2010Prop44ColorIndex
 90
        5
102
RTVSPost2010Prop44ColorRGB
 90
      255
102
RTVSPost2010PropOp44
 70
     1
102
RTVSPost2010Prop45
280
     0
102
RTVSPost2010PropOp45
 70
     1
102
RTVSPost2010Prop46
 90
       50
102
RTVSPost2010PropOp46
 70
     1
102
RTVSPost2010Prop47
 90
       50
102
RTVSPost2010PropOp47
 70
     1
102
RTVSPost2010Prop48
 90
       50
102
RTVSPost2010PropOp48
 70
     1
102
RTVSPost2010Prop49
280
     0
102
RTVSPost2010PropOp49
 70
     1
102
RTVSPost2010Prop50
 90
       50
102
RTVSPost2010PropOp50
 70
     1
102
RTVSPost2010Prop51ColorIndex
 90
      256
102
RTVSPost2010Prop51ColorRGB
 90
-16777216
102
RTVSPost2010PropOp51
 70
     0
102
RTVSPost2010Prop52
140
1.0
102
RTVSPost2010PropOp52
 70
     0
102
RTVSPost2010Prop53
 90
        2
102
RTVSPost2010PropOp53
 70
     1
102
RTVSPost2010Prop54
  1
strokes_ogs.tif
102
RTVSPost2010PropOp54
 70
     1
102
RTVSPost2010Prop55
280
     0
102
RTVSPost2010PropOp55
 70
     1
102
RTVSPost2010Prop56
140
1.0
102
RTVSPost2010PropOp56
 70
     1
102
RTVSPost2010Prop57
140
1.0
102
RTVSPost2010PropOp57
 70
     1
  0
XRECORD
  5
1B0
102
{ACAD_REACTORS
330
1AF
102
}
330
1AF
100
AcDbXrecord
280
     1
102
RTVSPost2010Prop28
280
     0
102
RTVSPost2010PropOp28
 70
     1
102
RTVSPost2010Prop29
280
     1
102
RTVSPost2010PropOp29
 70
     1
102
RTVSPost2010Prop30
280
     1
102
RTVSPost2010PropOp30
 70
     1
102
RTVSPost2010Prop31
280
     0
102
RTVSPost2010PropOp31
 70
     1
102
RTVSPost2010Prop32
280
     0
102
RTVSPost2010PropOp32
 70
     1
102
RTVSPost2010Prop33
280
     0
102
RTVSPost2010PropOp33
 70
     1
102
RTVSPost2010Prop34
280
     0
102
RTVSPost2010PropOp34
 70
     1
102
RTVSPost2010Prop35
280
     0
102
RTVSPost2010PropOp35
 70
     1
102
RTVSPost2010Prop36
280
     0
102
RTVSPost2010PropOp36
 70
     1
102
RTVSPost2010Prop37
 90
       50
102
RTVSPost2010PropOp37
 70
     1
102
RTVSPost2010Prop38
140
0.0
102
RTVSPost2010PropOp38
 70
     1
102
RTVSPost2010Prop39
140
1.0
102
RTVSPost2010PropOp39
 70
     1
102
RTVSPost2010Prop40
 90
        0
102
RTVSPost2010PropOp40
 70
     1
102
RTVSPost2010Prop41ColorIndex
 90
       18
102
RTVSPost2010Prop41ColorRGB
 90
        0
102
RTVSPost2010PropOp41
 70
     1
102
RTVSPost2010Prop42
 90
       50
102
RTVSPost2010PropOp42
 70
     1
102
RTVSPost2010Prop43
 90
        3
102
RTVSPost2010PropOp43
 70
     1
102
RTVSPost2010Prop44ColorIndex
 90
        5
102
RTVSPost2010Prop44ColorRGB
 90
      255
102
RTVSPost2010PropOp44
 70
     1
102
RTVSPost2010Prop45
280
     0
102
RTVSPost2010PropOp45
 70
     1
102
RTVSPost2010Prop46
 90
       50
102
RTVSPost2010PropOp46
 70
     1
102
RTVSPost2010Prop47
 90
       50
102
RTVSPost2010PropOp47
 70
     1
102
RTVSPost2010Prop48
 90
       50
102
RTVSPost2010PropOp48
 70
     1
102
RTVSPost2010Prop49
280
     0
102
RTVSPost2010PropOp49
 70
     1
102
RTVSPost2010Prop50
 90
       50
102
RTVSPost2010PropOp50
 70
     1
102
RTVSPost2010Prop51ColorIndex
 90
      256
102
RTVSPost2010Prop51ColorRGB
 90
-16777216
102
RTVSPost2010PropOp51
 70
     0
102
RTVSPost2010Prop52
140
1.0
102
RTVSPost2010PropOp52
 70
     0
102
RTVSPost2010Prop53
 90
        2
102
RTVSPost2010PropOp53
 70
     1
102
RTVSPost2010Prop54
  1
strokes_ogs.tif
102
RTVSPost2010PropOp54
 70
     1
102
RTVSPost2010Prop55
280
     0
102
RTVSPost2010PropOp55
 70
     1
102
RTVSPost2010Prop56
140
1.0
102
RTVSPost2010PropOp56
 70
     1
102
RTVSPost2010Prop57
140
1.0
102
RTVSPost2010PropOp57
 70
     1
  0
ENDSEC
  0
EOF
