  0
SECTION
  2
HEADER
  9
$ACADVER
  1
AC1024
  9
$ACADMAINTVER
 70
   226
  9
$DWGCODEPAGE
  3
ANSI_1252
  9
$INSBASE
 10
0.0
 20
0.0
 30
0.0
  9
$EXTMIN
 10
1.000000000000000E+20
 20
1.000000000000000E+20
 30
1.000000000000000E+20
  9
$EXTMAX
 10
-1.000000000000000E+20
 20
-1.000000000000000E+20
 30
-1.000000000000000E+20
  9
$LIMMIN
 10
0.0
 20
0.0
  9
$LIMMAX
 10
12.0
 20
9.0
  9
$ORTHOMODE
 70
     0
  9
$REGENMODE
 70
     1
  9
$FILLMODE
 70
     1
  9
$QTEXTMODE
 70
     0
  9
$MIRRTEXT
 70
     1
  9
$LTSCALE
 40
1.0
  9
$ATTMODE
 70
     1
  9
$TEXTSIZE
 40
0.2
  9
$TRACEWID
 40
0.05
  9
$TEXTSTYLE
  7
Standard
  9
$CLAYER
  8
Konstruktion_Einfach
  9
$CELTYPE
  6
ByLayer
  9
$CECOLOR
 62
   256
  9
$CELTSCALE
 40
1.0
  9
$DISPSILH
 70
     0
  9
$DIMSCALE
 40
1.0
  9
$DIMASZ
 40
0.18
  9
$DIMEXO
 40
0.0625
  9
$DIMDLI
 40
0.38
  9
$DIMRND
 40
0.0
  9
$DIMDLE
 40
0.0
  9
$DIMEXE
 40
0.18
  9
$DIMTP
 40
0.0
  9
$DIMTM
 40
0.0
  9
$DIMTXT
 40
0.18
  9
$DIMCEN
 40
0.09
  9
$DIMTSZ
 40
0.0
  9
$DIMTOL
 70
     0
  9
$DIMLIM
 70
     0
  9
$DIMTIH
 70
     1
  9
$DIMTOH
 70
     1
  9
$DIMSE1
 70
     0
  9
$DIMSE2
 70
     0
  9
$DIMTAD
 70
     0
  9
$DIMZIN
 70
     0
  9
$DIMBLK
  1

  9
$DIMASO
 70
     1
  9
$DIMSHO
 70
     1
  9
$DIMPOST
  1

  9
$DIMAPOST
  1

  9
$DIMALT
 70
     0
  9
$DIMALTD
 70
     2
  9
$DIMALTF
 40
25.4
  9
$DIMLFAC
 40
1.0
  9
$DIMTOFL
 70
     0
  9
$DIMTVP
 40
0.0
  9
$DIMTIX
 70
     0
  9
$DIMSOXD
 70
     0
  9
$DIMSAH
 70
     0
  9
$DIMBLK1
  1

  9
$DIMBLK2
  1

  9
$DIMSTYLE
  2
Standard
  9
$DIMCLRD
 70
     0
  9
$DIMCLRE
 70
     0
  9
$DIMCLRT
 70
     0
  9
$DIMTFAC
 40
1.0
  9
$DIMGAP
 40
0.09
  9
$DIMJUST
 70
     0
  9
$DIMSD1
 70
     0
  9
$DIMSD2
 70
     0
  9
$DIMTOLJ
 70
     1
  9
$DIMTZIN
 70
     0
  9
$DIMALTZ
 70
     0
  9
$DIMALTTZ
 70
     0
  9
$DIMUPT
 70
     0
  9
$DIMDEC
 70
     4
  9
$DIMTDEC
 70
     4
  9
$DIMALTU
 70
     2
  9
$DIMALTTD
 70
     2
  9
$DIMTXSTY
  7
Standard
  9
$DIMAUNIT
 70
     0
  9
$DIMADEC
 70
     0
  9
$DIMALTRND
 40
0.0
  9
$DIMAZIN
 70
     0
  9
$DIMDSEP
 70
    46
  9
$DIMATFIT
 70
     3
  9
$DIMFRAC
 70
     0
  9
$DIMLDRBLK
  1

  9
$DIMLUNIT
 70
     2
  9
$DIMLWD
 70
    -2
  9
$DIMLWE
 70
    -2
  9
$DIMTMOVE
 70
     0
  9
$DIMFXL
 40
1.0
  9
$DIMFXLON
 70
     0
  9
$DIMJOGANG
 40
0.7853981633974483
  9
$DIMTFILL
 70
     0
  9
$DIMTFILLCLR
 70
     0
  9
$DIMARCSYM
 70
     0
  9
$DIMLTYPE
  6

  9
$DIMLTEX1
  6

  9
$DIMLTEX2
  6

  9
$DIMTXTDIRECTION
 70
     0
  9
$LUNITS
 70
     2
  9
$LUPREC
 70
     4
  9
$SKETCHINC
 40
0.1
  9
$FILLETRAD
 40
0.5
  9
$AUNITS
 70
     0
  9
$AUPREC
 70
     0
  9
$MENU
  1
.
  9
$ELEVATION
 40
0.0
  9
$PELEVATION
 40
0.0
  9
$THICKNESS
 40
0.0
  9
$LIMCHECK
 70
     0
  9
$CHAMFERA
 40
0.5
  9
$CHAMFERB
 40
0.5
  9
$CHAMFERC
 40
1.0
  9
$CHAMFERD
 40
0.0
  9
$SKPOLY
 70
     0
  9
$TDCREATE
 40
2451380.888761574
  9
$TDUCREATE
 40
2451380.805432396
  9
$TDUPDATE
 40
2451380.924513889
  9
$TDUUPDATE
 40
2451380.841180556
  9
$TDINDWG
 40
0.0075717940
  9
$TDUSRTIMER
 40
0.0075627546
  9
$USRTIMER
 70
     1
  9
$ANGBASE
 50
0.0
  9
$ANGDIR
 70
     0
  9
$PDMODE
 70
     0
  9
$PDSIZE
 40
0.0
  9
$PLINEWID
 40
0.0
  9
$SPLFRAME
 70
     0
  9
$SPLINETYPE
 70
     6
  9
$SPLINESEGS
 70
     8
  9
$HANDSEED
  5
49C
  9
$SURFTAB1
 70
     6
  9
$SURFTAB2
 70
     6
  9
$SURFTYPE
 70
     6
  9
$SURFU
 70
     6
  9
$SURFV
 70
     6
  9
$UCSBASE
  2

  9
$UCSNAME
  2

  9
$UCSORG
 10
0.0
 20
0.0
 30
0.0
  9
$UCSXDIR
 10
1.0
 20
0.0
 30
0.0
  9
$UCSYDIR
 10
0.0
 20
1.0
 30
0.0
  9
$UCSORTHOREF
  2

  9
$UCSORTHOVIEW
 70
     0
  9
$UCSORGTOP
 10
0.0
 20
0.0
 30
0.0
  9
$UCSORGBOTTOM
 10
0.0
 20
0.0
 30
0.0
  9
$UCSORGLEFT
 10
0.0
 20
0.0
 30
0.0
  9
$UCSORGRIGHT
 10
0.0
 20
0.0
 30
0.0
  9
$UCSORGFRONT
 10
0.0
 20
0.0
 30
0.0
  9
$UCSORGBACK
 10
0.0
 20
0.0
 30
0.0
  9
$PUCSBASE
  2

  9
$PUCSNAME
  2

  9
$PUCSORG
 10
0.0
 20
0.0
 30
0.0
  9
$PUCSXDIR
 10
1.0
 20
0.0
 30
0.0
  9
$PUCSYDIR
 10
0.0
 20
1.0
 30
0.0
  9
$PUCSORTHOREF
  2

  9
$PUCSORTHOVIEW
 70
     0
  9
$PUCSORGTOP
 10
0.0
 20
0.0
 30
0.0
  9
$PUCSORGBOTTOM
 10
0.0
 20
0.0
 30
0.0
  9
$PUCSORGLEFT
 10
0.0
 20
0.0
 30
0.0
  9
$PUCSORGRIGHT
 10
0.0
 20
0.0
 30
0.0
  9
$PUCSORGFRONT
 10
0.0
 20
0.0
 30
0.0
  9
$PUCSORGBACK
 10
0.0
 20
0.0
 30
0.0
  9
$USERI1
 70
     0
  9
$USERI2
 70
     0
  9
$USERI3
 70
     0
  9
$USERI4
 70
     0
  9
$USERI5
 70
     0
  9
$USERR1
 40
0.0
  9
$USERR2
 40
0.0
  9
$USERR3
 40
0.0
  9
$USERR4
 40
0.0
  9
$USERR5
 40
0.0
  9
$WORLDVIEW
 70
     1
  9
$SHADEDGE
 70
     3
  9
$SHADEDIF
 70
    70
  9
$TILEMODE
 70
     1
  9
$MAXACTVP
 70
    64
  9
$PINSBASE
 10
0.0
 20
0.0
 30
0.0
  9
$PLIMCHECK
 70
     0
  9
$PEXTMIN
 10
1.000000000000000E+20
 20
1.000000000000000E+20
 30
1.000000000000000E+20
  9
$PEXTMAX
 10
-1.000000000000000E+20
 20
-1.000000000000000E+20
 30
-1.000000000000000E+20
  9
$PLIMMIN
 10
0.0
 20
0.0
  9
$PLIMMAX
 10
12.0
 20
9.0
  9
$UNITMODE
 70
     0
  9
$VISRETAIN
 70
     1
  9
$PLINEGEN
 70
     0
  9
$PSLTSCALE
 70
     1
  9
$TREEDEPTH
 70
  3020
  9
$CMLSTYLE
  2
Standard
  9
$CMLJUST
 70
     0
  9
$CMLSCALE
 40
1.0
  9
$PROXYGRAPHICS
 70
     1
  9
$MEASUREMENT
 70
     0
  9
$CELWEIGHT
370
    -1
  9
$ENDCAPS
280
     0
  9
$JOINSTYLE
280
     0
  9
$LWDISPLAY
290
     0
  9
$INSUNITS
 70
     1
  9
$HYPERLINKBASE
  1

  9
$STYLESHEET
  1

  9
$XEDIT
290
     1
  9
$CEPSNTYPE
380
     0
  9
$PSTYLEMODE
290
     1
  9
$FINGERPRINTGUID
  2
{12F50282-3ED8-11D3-A8B7-0060B0F84BC6}
  9
$VERSIONGUID
  2
{12F50293-3ED8-11D3-A8B7-0060B0F84BC6}
  9
$EXTNAMES
290
     1
  9
$PSVPSCALE
 40
0.0
  9
$OLESTARTUP
290
     0
  9
$SORTENTS
280
   127
  9
$INDEXCTL
280
     0
  9
$HIDETEXT
280
     0
  9
$XCLIPFRAME
280
     2
  9
$HALOGAP
280
     0
  9
$OBSCOLOR
 70
   257
  9
$OBSLTYPE
280
     0
  9
$INTERSECTIONDISPLAY
280
     0
  9
$INTERSECTIONCOLOR
 70
   257
  9
$DIMASSOC
280
     1
  9
$PROJECTNAME
  1

  9
$CAMERADISPLAY
290
     0
  9
$LENSLENGTH
 40
50.0
  9
$CAMERAHEIGHT
 40
0.0
  9
$STEPSPERSEC
 40
2.0
  9
$STEPSIZE
 40
6.0
  9
$3DDWFPREC
 40
2.0
  9
$PSOLWIDTH
 40
0.25
  9
$PSOLHEIGHT
 40
4.0
  9
$LOFTANG1
 40
1.570796326794896
  9
$LOFTANG2
 40
1.570796326794896
  9
$LOFTMAG1
 40
0.0
  9
$LOFTMAG2
 40
0.0
  9
$LOFTPARAM
 70
     7
  9
$LOFTNORMALS
280
     1
  9
$LATITUDE
 40
37.795
  9
$LONGITUDE
 40
-122.394
  9
$NORTHDIRECTION
 40
0.0
  9
$TIMEZONE
 70
 -8000
  9
$LIGHTGLYPHDISPLAY
280
     1
  9
$TILEMODELIGHTSYNCH
280
     1
  9
$CMATERIAL
347
AB
  9
$SOLIDHIST
280
     0
  9
$SHOWHIST
280
     1
  9
$DWFFRAME
280
     2
  9
$DGNFRAME
280
     0
  9
$REALWORLDSCALE
290
     1
  9
$INTERFERECOLOR
 62
     1
  9
$INTERFEREOBJVS
345
CD
  9
$INTERFEREVPVS
346
CA
  9
$CSHADOW
280
     0
  9
$SHADOWPLANELOCATION
 40
0.0
  0
ENDSEC
  0
SECTION
  2
CLASSES
  0
CLASS
  1
ACDBDICTIONARYWDFLT
  2
AcDbDictionaryWithDefault
  3
ObjectDBX Classes
 90
        0
 91
        1
280
     0
281
     0
  0
CLASS
  1
ACDBPLACEHOLDER
  2
AcDbPlaceHolder
  3
ObjectDBX Classes
 90
        0
 91
        2
280
     0
281
     0
  0
CLASS
  1
LAYOUT
  2
AcDbLayout
  3
ObjectDBX Classes
 90
        0
 91
        3
280
     0
281
     0
  0
CLASS
  1
MATERIAL
  2
AcDbMaterial
  3
ObjectDBX Classes
 90
     1153
 91
        3
280
     0
281
     0
  0
CLASS
  1
VISUALSTYLE
  2
AcDbVisualStyle
  3
ObjectDBX Classes
 90
     4095
 91
       24
280
     0
281
     0
  0
CLASS
  1
TABLESTYLE
  2
AcDbTableStyle
  3
ObjectDBX Classes
 90
     4095
 91
        1
280
     0
281
     0
  0
CLASS
  1
SCALE
  2
AcDbScale
  3
ObjectDBX Classes
 90
     1153
 91
       17
280
     0
281
     0
  0
CLASS
  1
MLEADERSTYLE
  2
AcDbMLeaderStyle
  3
ACDB_MLEADERSTYLE_CLASS
 90
     4095
 91
        1
280
     0
281
     0
  0
CLASS
  1
ACDBSECTIONVIEWSTYLE
  2
AcDbSectionViewStyle
  3
ObjectDBX Classes
 90
     1025
 91
        1
280
     0
281
     0
  0
CLASS
  1
ACDBDETAILVIEWSTYLE
  2
AcDbDetailViewStyle
  3
ObjectDBX Classes
 90
     1025
 91
        1
280
     0
281
     0
  0
CLASS
  1
DICTIONARYVAR
  2
AcDbDictionaryVar
  3
ObjectDBX Classes
 90
        0
 91
        9
280
     0
281
     0
  0
CLASS
  1
CELLSTYLEMAP
  2
AcDbCellStyleMap
  3
ObjectDBX Classes
 90
     1152
 91
        1
280
     0
281
     0
  0
ENDSEC
  0
SECTION
  2
TABLES
  0
TABLE
  2
VPORT
  5
8
330
0
100
AcDbSymbolTable
 70
     1
  0
VPORT
  5
A8
330
8
100
AcDbSymbolTableRecord
100
AcDbViewportTableRecord
  2
*Active
 70
     0
 10
0.0
 20
0.0
 11
1.0
 21
1.0
 12
0.0
 22
0.0
 13
0.0
 23
0.0
 14
0.5
 24
0.5
 15
0.5
 25
0.5
 16
-1.0
 26
-1.0
 36
1.0
 17
0.0
 27
0.0
 37
0.0
 40
84.99999940988509
 41
1.711673755136151
 42
50.0
 43
0.0
 44
0.0
 50
0.0
 51
0.0
 71
     0
 72
   100
 73
     1
 74
     3
 75
     0
 76
     0
 77
     0
 78
     0
281
     0
 65
     1
110
0.0
120
0.0
130
0.0
111
1.0
121
0.0
131
0.0
112
0.0
122
1.0
132
0.0
 79
     0
146
0.0
348
C9
 60
     3
 61
     5
292
     1
282
     1
141
0.0
142
0.0
 63
   250
421
  3355443
  0
ENDTAB
  0
TABLE
  2
LTYPE
  5
5
330
0
100
AcDbSymbolTable
 70
     1
  0
LTYPE
  5
14
330
5
100
AcDbSymbolTableRecord
100
AcDbLinetypeTableRecord
  2
ByBlock
 70
     0
  3

 72
    65
 73
     0
 40
0.0
  0
LTYPE
  5
15
330
5
100
AcDbSymbolTableRecord
100
AcDbLinetypeTableRecord
  2
ByLayer
 70
     0
  3

 72
    65
 73
     0
 40
0.0
  0
LTYPE
  5
16
330
5
100
AcDbSymbolTableRecord
100
AcDbLinetypeTableRecord
  2
Continuous
 70
     0
  3
Solid line
 72
    65
 73
     0
 40
0.0
  0
ENDTAB
  0
TABLE
  2
LAYER
  5
2
330
0
100
AcDbSymbolTable
 70
     4
  0
LAYER
  5
10
330
2
100
AcDbSymbolTableRecord
100
AcDbLayerTableRecord
  2
0
 70
     0
 62
     7
  6
Continuous
370
    -3
390
F
347
BB
  0
LAYER
  5
2B
330
2
100
AcDbSymbolTableRecord
100
AcDbLayerTableRecord
  2
ASHADE
 70
     4
 62
     7
  6
Continuous
370
    -3
390
2D
347
BB
  0
LAYER
  5
F9
330
2
100
AcDbSymbolTableRecord
100
AcDbLayerTableRecord
  2
Profil
 70
     0
 62
     7
420
 16777215
  6
Continuous
370
    -3
390
F
347
BB
  0
LAYER
  5
FA
330
2
100
AcDbSymbolTableRecord
100
AcDbLayerTableRecord
  2
Konstruktion_Einfach
 70
     0
 62
     3
420
    65280
  6
Continuous
370
    -3
390
F
347
BB
  0
ENDTAB
  0
TABLE
  2
STYLE
  5
3
330
0
100
AcDbSymbolTable
 70
     2
  0
STYLE
  5
11
330
3
100
AcDbSymbolTableRecord
100
AcDbTextStyleTableRecord
  2
Standard
 70
     0
 40
0.0
 41
1.0
 50
0.0
 71
     0
 42
0.2
  3
txt
  4

  0
STYLE
  5
2C
330
3
100
AcDbSymbolTableRecord
100
AcDbTextStyleTableRecord
  2
ASHADE
 70
     0
 40
0.2
 41
1.0
 50
0.0
 71
     0
 42
0.2
  3
simplex
  4

  0
ENDTAB
  0
TABLE
  2
VIEW
  5
6
330
0
100
AcDbSymbolTable
 70
     0
  0
ENDTAB
  0
TABLE
  2
UCS
  5
7
330
0
100
AcDbSymbolTable
 70
     0
  0
ENDTAB
  0
TABLE
  2
APPID
  5
9
330
0
100
AcDbSymbolTable
 70
     6
  0
APPID
  5
12
330
9
100
AcDbSymbolTableRecord
100
AcDbRegAppTableRecord
  2
ACAD
 70
     0
  0
APPID
  5
8F
330
9
100
AcDbSymbolTableRecord
100
AcDbRegAppTableRecord
  2
AVE_RENDER
 70
     0
  0
APPID
  5
90
330
9
100
AcDbSymbolTableRecord
100
AcDbRegAppTableRecord
  2
AVE_ENTITY_MATERIAL
 70
     0
  0
APPID
  5
9C
330
9
100
AcDbSymbolTableRecord
100
AcDbRegAppTableRecord
  2
AVE_FINISH
 70
     0
  0
APPID
  5
9D
330
9
100
AcDbSymbolTableRecord
100
AcDbRegAppTableRecord
  2
AVE_MATERIAL
 70
     0
  0
APPID
  5
9E
330
9
100
AcDbSymbolTableRecord
100
AcDbRegAppTableRecord
  2
AVE_GLOBAL
 70
     0
  0
ENDTAB
  0
TABLE
  2
DIMSTYLE
  5
A
330
0
100
AcDbSymbolTable
 70
     1
100
AcDbDimStyleTable
 71
     0
  0
DIMSTYLE
105
27
330
A
100
AcDbSymbolTableRecord
100
AcDbDimStyleTableRecord
  2
Standard
 70
     0
340
11
  0
ENDTAB
  0
TABLE
  2
BLOCK_RECORD
  5
1
330
0
100
AcDbSymbolTable
 70
     6
  0
BLOCK_RECORD
  5
1F
330
1
100
AcDbSymbolTableRecord
100
AcDbBlockTableRecord
  2
*Model_Space
340
22
 70
     0
280
     1
281
     0
  0
BLOCK_RECORD
  5
1B
330
1
100
AcDbSymbolTableRecord
100
AcDbBlockTableRecord
  2
*Paper_Space
340
1E
 70
     0
280
     1
281
     0
  0
BLOCK_RECORD
  5
23
330
1
100
AcDbSymbolTableRecord
100
AcDbBlockTableRecord
  2
*Paper_Space0
340
26
 70
     0
280
     1
281
     0
  0
BLOCK_RECORD
  5
2E
330
1
100
AcDbSymbolTableRecord
100
AcDbBlockTableRecord
  2
direct
340
0
 70
     0
280
     1
281
     0
  0
BLOCK_RECORD
  5
42
330
1
100
AcDbSymbolTableRecord
100
AcDbBlockTableRecord
  2
overhead
340
0
 70
     0
280
     1
281
     0
  0
BLOCK_RECORD
  5
5F
330
1
100
AcDbSymbolTableRecord
100
AcDbBlockTableRecord
  2
sh_spot
340
0
 70
     0
280
     1
281
     0
  0
BLOCK_RECORD
  5
91
330
1
100
AcDbSymbolTableRecord
100
AcDbBlockTableRecord
  2
AVE_RENDER
340
0
102
{BLKREFS
331
94
331
95
331
96
331
97
331
98
331
99
331
9A
331
9B
102
}
 70
     0
280
     1
281
     0
  0
BLOCK_RECORD
  5
9F
330
1
100
AcDbSymbolTableRecord
100
AcDbBlockTableRecord
  2
AVE_GLOBAL
340
0
102
{BLKREFS
331
A2
102
}
 70
     0
280
     1
281
     0
  0
ENDTAB
  0
ENDSEC
  0
SECTION
  2
BLOCKS
  0
BLOCK
  5
20
330
1F
100
AcDbEntity
  8
0
100
AcDbBlockBegin
  2
*Model_Space
 70
     0
 10
0.0
 20
0.0
 30
0.0
  3
*Model_Space
  1

  0
ENDBLK
  5
21
330
1F
100
AcDbEntity
  8
0
100
AcDbBlockEnd
  0
BLOCK
  5
1C
330
1B
100
AcDbEntity
 67
     1
  8
0
100
AcDbBlockBegin
  2
*Paper_Space
 70
     0
 10
0.0
 20
0.0
 30
0.0
  3
*Paper_Space
  1

  0
ENDBLK
  5
1D
330
1B
100
AcDbEntity
 67
     1
  8
0
100
AcDbBlockEnd
  0
BLOCK
  5
24
330
23
100
AcDbEntity
 67
     1
  8
0
100
AcDbBlockBegin
  2
*Paper_Space0
 70
     0
 10
0.0
 20
0.0
 30
0.0
  3
*Paper_Space0
  1

  0
ENDBLK
  5
25
330
23
100
AcDbEntity
 67
     1
  8
0
100
AcDbBlockEnd
  0
BLOCK
  5
40
330
2E
100
AcDbEntity
  8
0
100
AcDbBlockBegin
  2
direct
 70
     2
 10
0.0
 20
0.0
 30
0.0
  3
direct
  1

  0
ATTDEF
  5
2F
330
2E
100
AcDbEntity
  8
ASHADE
  6
Continuous
 62
     1
100
AcDbText
 10
0.0
 20
-0.1
 30
0.0
 40
0.2
  1

  7
ASHADE
 72
     1
 11
0.0
 21
-0.1
 31
0.0
100
AcDbAttributeDefinition
280
     0
  3
Light Name
  2
SNAME
 70
     0
280
     0
  0
ARC
  5
30
330
2E
100
AcDbEntity
  8
ASHADE
  6
Continuous
 62
     7
100
AcDbCircle
 10
0.0
 20
0.0
 30
0.0
 40
0.3
100
AcDbArc
 50
205.6792886194569
 51
334.3207113805431
  0
ARC
  5
31
330
2E
100
AcDbEntity
  8
ASHADE
  6
Continuous
 62
     7
100
AcDbCircle
 10
0.0
 20
0.0
 30
0.0
 40
0.3
100
AcDbArc
 50
25.67928861945685
 51
154.3207113805431
  0
LINE
  5
32
330
2E
100
AcDbEntity
  8
ASHADE
  6
Continuous
 62
     7
100
AcDbLine
 10
-0.21
 20
0.2142428528562855
 30
0.0
 11
-0.21
 21
0.5
 31
0.0
  0
LINE
  5
33
330
2E
100
AcDbEntity
  8
ASHADE
  6
Continuous
 62
     7
100
AcDbLine
 10
-0.11
 20
0.2791057147390572
 30
0.0
 11
-0.11
 21
0.5
 31
0.0
  0
LINE
  5
34
330
2E
100
AcDbEntity
  8
ASHADE
  6
Continuous
 62
     7
100
AcDbLine
 10
0.21
 20
0.2142428528562855
 30
0.0
 11
0.21
 21
0.5
 31
0.0
  0
ATTDEF
  5
35
330
2E
100
AcDbEntity
  8
ASHADE
  6
Continuous
 62
     7
100
AcDbText
 10
0.0
 20
0.25
 30
0.0
 40
0.01
  1

100
AcDbAttributeDefinition
280
     0
  3
Look-at Y
  2
LAY
 70
     1
280
     0
  0
ATTDEF
  5
36
330
2E
100
AcDbEntity
  8
ASHADE
  6
Continuous
 62
     7
100
AcDbText
 10
0.0
 20
0.22
 30
0.0
 40
0.01
  1
1
100
AcDbAttributeDefinition
280
     0
  3
Light Intensity
  2
INTENSITY
 70
     1
280
     0
  0
ATTDEF
  5
37
330
2E
100
AcDbEntity
  8
ASHADE
  6
Continuous
 62
     7
100
AcDbText
 10
0.0
 20
0.16
 30
0.0
 40
0.01
  1
-1
100
AcDbAttributeDefinition
280
     0
  3
*not used*
  2
BEAMD
 70
     1
280
     0
  0
ATTDEF
  5
38
330
2E
100
AcDbEntity
  8
ASHADE
  6
Continuous
 62
     7
100
AcDbText
 10
0.0
 20
0.175
 30
0.0
 40
0.01
  1
-1
100
AcDbAttributeDefinition
280
     0
  3
*not used*
  2
CONED
 70
     1
280
     0
  0
ATTDEF
  5
39
330
2E
100
AcDbEntity
  8
ASHADE
  6
Continuous
 62
     7
100
AcDbText
 10
0.0
 20
0.19
 30
0.0
 40
0.01
  1
0
100
AcDbAttributeDefinition
280
     0
  3
Depth Map Size
  2
CONEA
 70
     1
280
     0
  0
ATTDEF
  5
3A
330
2E
100
AcDbEntity
  8
ASHADE
  6
Continuous
 62
     7
100
AcDbText
 10
0.0
 20
0.2050000000000001
 30
0.0
 40
0.01
  1
1,1,1
100
AcDbAttributeDefinition
280
     0
  3
Light Color (RGB)
  2
COLOR
 70
     1
280
     0
  0
ATTDEF
  5
3B
330
2E
100
AcDbEntity
  8
ASHADE
  6
Continuous
 62
     7
100
AcDbText
 10
0.0
 20
0.235
 30
0.0
 40
0.01
  1

100
AcDbAttributeDefinition
280
     0
  3
Look-at Z
  2
LAZ
 70
     1
280
     0
  0
LINE
  5
3C
330
2E
100
AcDbEntity
  8
ASHADE
  6
Continuous
 62
     7
100
AcDbLine
 10
0.0
 20
0.3
 30
0.0
 11
0.0
 21
0.5
 31
0.0
  0
LINE
  5
3D
330
2E
100
AcDbEntity
  8
ASHADE
  6
Continuous
 62
     7
100
AcDbLine
 10
0.11
 20
0.2791057147390572
 30
0.0
 11
0.11
 21
0.5
 31
0.0
  0
ATTDEF
  5
3E
330
2E
100
AcDbEntity
  8
ASHADE
  6
Continuous
 62
     7
100
AcDbText
 10
0.0
 20
0.265
 30
0.0
 40
0.01
  1

100
AcDbAttributeDefinition
280
     0
  3
Look-at X
  2
LAX
 70
     1
280
     0
  0
ATTDEF
  5
3F
330
2E
100
AcDbEntity
  8
ASHADE
  6
Continuous
 62
     7
100
AcDbText
 10
0.0
 20
0.28
 30
0.0
 40
0.01
  1

100
AcDbAttributeDefinition
280
     0
  3

  2
GNAME
 70
     1
280
     0
  0
ENDBLK
  5
41
330
2E
100
AcDbEntity
  8
0
100
AcDbBlockEnd
  0
BLOCK
  5
5D
330
42
100
AcDbEntity
  8
0
100
AcDbBlockBegin
  2
overhead
 70
     2
 10
0.0
 20
0.0
 30
0.0
  3
overhead
  1

  0
ATTDEF
  5
43
330
42
100
AcDbEntity
  8
ASHADE
  6
Continuous
 62
     1
100
AcDbText
 10
0.0
 20
-0.1
 30
0.0
 40
0.2
  1

  7
ASHADE
 72
     1
 11
0.0
 21
-0.1
 31
0.0
100
AcDbAttributeDefinition
280
     0
  3
Light Name
  2
SNAME
 70
     0
280
     0
  0
ARC
  5
44
330
42
100
AcDbEntity
  8
ASHADE
  6
Continuous
 62
     7
100
AcDbCircle
 10
0.0
 20
0.0
 30
0.0
 40
0.3
100
AcDbArc
 50
205.6792886194569
 51
334.3207113805431
  0
LINE
  5
45
330
42
100
AcDbEntity
  8
ASHADE
  6
Continuous
 62
     7
100
AcDbLine
 10
-0.2041413561583015
 20
-0.2198324514393848
 30
0.0
 11
-0.2721884748777353
 21
-0.2931099352525131
 31
0.0
  0
LINE
  5
46
330
42
100
AcDbEntity
  8
ASHADE
  6
Continuous
 62
     7
100
AcDbLine
 10
-0.1096591641591904
 20
-0.2792398032442862
 30
0.0
 11
-0.1279356915190555
 21
-0.3257797704516673
 31
0.0
  0
LINE
  5
47
330
42
100
AcDbEntity
  8
ASHADE
  6
Continuous
 62
     7
100
AcDbLine
 10
0.0
 20
-0.2999999999999999
 30
0.0
 11
0.0
 21
-0.4
 31
0.0
  0
LINE
  5
48
330
42
100
AcDbEntity
  8
ASHADE
  6
Continuous
 62
     7
100
AcDbLine
 10
0.1096591641591904
 20
-0.2792398032442862
 30
0.0
 11
0.1279356915190555
 21
-0.3257797704516673
 31
0.0
  0
LINE
  5
49
330
42
100
AcDbEntity
  8
ASHADE
  6
Continuous
 62
     7
100
AcDbLine
 10
0.2041413561583015
 20
-0.2198324514393848
 30
0.0
 11
0.2721884748777353
 21
-0.2931099352525131
 31
0.0
  0
ARC
  5
4A
330
42
100
AcDbEntity
  8
ASHADE
  6
Continuous
 62
     7
100
AcDbCircle
 10
0.0
 20
0.0
 30
0.0
 40
0.3
100
AcDbArc
 50
25.67928861945685
 51
154.3207113805431
  0
LINE
  5
4B
330
42
100
AcDbEntity
  8
ASHADE
  6
Continuous
 62
     7
100
AcDbLine
 10
-0.2703701166919155
 20
0.13
 30
0.0
 11
-0.3154318028072347
 21
0.1516666666666666
 31
0.0
  0
LINE
  5
4C
330
42
100
AcDbEntity
  8
ASHADE
  6
Continuous
 62
     7
100
AcDbLine
 10
-0.2703701166919155
 20
-0.13
 30
0.0
 11
-0.3154318028072347
 21
-0.1516666666666666
 31
0.0
  0
LINE
  5
4D
330
42
100
AcDbEntity
  8
ASHADE
  6
Continuous
 62
     7
100
AcDbLine
 10
-0.2041413561583015
 20
0.2198324514393849
 30
0.0
 11
-0.2721884748777353
 21
0.2931099352525131
 31
0.0
  0
LINE
  5
4E
330
42
100
AcDbEntity
  8
ASHADE
  6
Continuous
 62
     7
100
AcDbLine
 10
-0.1096591641591904
 20
0.2792398032442862
 30
0.0
 11
-0.1279356915190555
 21
0.3257797704516674
 31
0.0
  0
LINE
  5
4F
330
42
100
AcDbEntity
  8
ASHADE
  6
Continuous
 62
     7
100
AcDbLine
 10
0.2703701166919155
 20
-0.13
 30
0.0
 11
0.3154318028072347
 21
-0.1516666666666666
 31
0.0
  0
LINE
  5
50
330
42
100
AcDbEntity
  8
ASHADE
  6
Continuous
 62
     7
100
AcDbLine
 10
0.2703701166919155
 20
0.13
 30
0.0
 11
0.3154318028072347
 21
0.1516666666666666
 31
0.0
  0
LINE
  5
51
330
42
100
AcDbEntity
  8
ASHADE
  6
Continuous
 62
     7
100
AcDbLine
 10
0.0
 20
0.3
 30
0.0
 11
0.0
 21
0.4
 31
0.0
  0
ATTDEF
  5
52
330
42
100
AcDbEntity
  8
ASHADE
  6
Continuous
 62
     7
100
AcDbText
 10
0.0
 20
0.22
 30
0.0
 40
0.01
  1
1
100
AcDbAttributeDefinition
280
     0
  3
Light Intensity
  2
INTENSITY
 70
     1
280
     0
  0
ATTDEF
  5
53
330
42
100
AcDbEntity
  8
ASHADE
  6
Continuous
 62
     7
100
AcDbText
 10
0.0
 20
0.16
 30
0.0
 40
0.01
  1
-1
100
AcDbAttributeDefinition
280
     0
  3
*not used*
  2
BEAMD
 70
     1
280
     0
  0
ATTDEF
  5
54
330
42
100
AcDbEntity
  8
ASHADE
  6
Continuous
 62
     7
100
AcDbText
 10
0.0
 20
0.175
 30
0.0
 40
0.01
  1
-1
100
AcDbAttributeDefinition
280
     0
  3
*not used*
  2
CONED
 70
     1
280
     0
  0
ATTDEF
  5
55
330
42
100
AcDbEntity
  8
ASHADE
  6
Continuous
 62
     7
100
AcDbText
 10
0.0
 20
0.19
 30
0.0
 40
0.01
  1
0
100
AcDbAttributeDefinition
280
     0
  3
Depth Map Size
  2
CONEA
 70
     1
280
     0
  0
ATTDEF
  5
56
330
42
100
AcDbEntity
  8
ASHADE
  6
Continuous
 62
     7
100
AcDbText
 10
0.0
 20
0.2050000000000001
 30
0.0
 40
0.01
  1
1,1,1
100
AcDbAttributeDefinition
280
     0
  3
Light Color (RGB)
  2
COLOR
 70
     1
280
     0
  0
ATTDEF
  5
57
330
42
100
AcDbEntity
  8
ASHADE
  6
Continuous
 62
     7
100
AcDbText
 10
0.0
 20
0.235
 30
0.0
 40
0.01
  1

100
AcDbAttributeDefinition
280
     0
  3
Look-at Z
  2
LAZ
 70
     1
280
     0
  0
ATTDEF
  5
58
330
42
100
AcDbEntity
  8
ASHADE
  6
Continuous
 62
     7
100
AcDbText
 10
0.0
 20
0.25
 30
0.0
 40
0.01
  1

100
AcDbAttributeDefinition
280
     0
  3
Look-at Y
  2
LAY
 70
     1
280
     0
  0
ATTDEF
  5
59
330
42
100
AcDbEntity
  8
ASHADE
  6
Continuous
 62
     7
100
AcDbText
 10
0.0
 20
0.265
 30
0.0
 40
0.01
  1

100
AcDbAttributeDefinition
280
     0
  3
Look-at X
  2
LAX
 70
     1
280
     0
  0
ATTDEF
  5
5A
330
42
100
AcDbEntity
  8
ASHADE
  6
Continuous
 62
     7
100
AcDbText
 10
0.0
 20
0.28
 30
0.0
 40
0.01
  1

100
AcDbAttributeDefinition
280
     0
  3

  2
GNAME
 70
     1
280
     0
  0
LINE
  5
5B
330
42
100
AcDbEntity
  8
ASHADE
  6
Continuous
 62
     7
100
AcDbLine
 10
0.1096591641591904
 20
0.2792398032442862
 30
0.0
 11
0.1279356915190555
 21
0.3257797704516674
 31
0.0
  0
LINE
  5
5C
330
42
100
AcDbEntity
  8
ASHADE
  6
Continuous
 62
     7
100
AcDbLine
 10
0.2041413561583015
 20
0.2198324514393849
 30
0.0
 11
0.2721884748777353
 21
0.2931099352525131
 31
0.0
  0
ENDBLK
  5
5E
330
42
100
AcDbEntity
  8
0
100
AcDbBlockEnd
  0
BLOCK
  5
85
330
5F
100
AcDbEntity
  8
0
100
AcDbBlockBegin
  2
sh_spot
 70
     2
 10
0.0
 20
0.0
 30
0.0
  3
sh_spot
  1

  0
LINE
  5
60
330
5F
100
AcDbEntity
  8
ASHADE
  6
Continuous
 62
     7
100
AcDbLine
 10
0.25
 20
0.26
 30
0.0
 11
-0.25
 21
0.26
 31
0.0
  0
LINE
  5
61
330
5F
100
AcDbEntity
  8
ASHADE
  6
Continuous
 62
     7
100
AcDbLine
 10
-0.25
 20
-0.3399999999999999
 30
0.0
 11
0.25
 21
-0.3399999999999999
 31
0.0
  0
ATTDEF
  5
62
330
5F
100
AcDbEntity
  8
ASHADE
  6
Continuous
 62
     1
100
AcDbText
 10
0.0
 20
-0.1
 30
0.0
 40
0.2
  1

  7
ASHADE
 72
     1
 11
0.0
 21
-0.1
 31
0.0
100
AcDbAttributeDefinition
280
     0
  3
Light Name
  2
SNAME
 70
     0
280
     0
  0
LINE
  5
63
330
5F
100
AcDbEntity
  8
ASHADE
  6
Continuous
 62
     7
100
AcDbLine
 10
-0.25
 20
-0.13
 30
0.0
 11
-0.25
 21
-0.3399999999999999
 31
0.0
  0
LINE
  5
64
330
5F
100
AcDbEntity
  8
ASHADE
  6
Continuous
 62
     7
100
AcDbLine
 10
-0.25
 20
-0.18
 30
0.0
 11
-0.29
 21
-0.18
 31
0.0
  0
LINE
  5
65
330
5F
100
AcDbEntity
  8
ASHADE
  6
Continuous
 62
     7
100
AcDbLine
 10
-0.29
 20
-0.22
 30
0.0
 11
-0.25
 21
-0.22
 31
0.0
  0
LINE
  5
66
330
5F
100
AcDbEntity
  8
ASHADE
  6
Continuous
 62
     7
100
AcDbLine
 10
-0.29
 20
-0.18
 30
0.0
 11
-0.29
 21
-0.22
 31
0.0
  0
LINE
  5
67
330
5F
100
AcDbEntity
  8
ASHADE
  6
Continuous
 62
     7
100
AcDbLine
 10
-0.1045454545454545
 20
0.26
 30
0.0
 11
-0.15
 21
0.46
 31
0.0
  0
LINE
  5
68
330
5F
100
AcDbEntity
  8
ASHADE
  6
Continuous
 62
     7
100
AcDbLine
 10
-0.21
 20
0.26
 30
0.0
 11
-0.301304347826087
 21
0.46
 31
0.0
  0
LINE
  5
69
330
5F
100
AcDbEntity
  8
ASHADE
  6
Continuous
 62
     7
100
AcDbLine
 10
-0.25
 20
0.26
 30
0.0
 11
-0.25
 21
0.13
 31
0.0
  0
LINE
  5
6A
330
5F
100
AcDbEntity
  8
ASHADE
  6
Continuous
 62
     7
100
AcDbLine
 10
-0.25
 20
0.22
 30
0.0
 11
-0.29
 21
0.22
 31
0.0
  0
LINE
  5
6B
330
5F
100
AcDbEntity
  8
ASHADE
  6
Continuous
 62
     7
100
AcDbLine
 10
-0.29
 20
0.1799999999999999
 30
0.0
 11
-0.25
 21
0.1799999999999999
 31
0.0
  0
LINE
  5
6C
330
5F
100
AcDbEntity
  8
ASHADE
  6
Continuous
 62
     7
100
AcDbLine
 10
-0.29
 20
0.22
 30
0.0
 11
-0.29
 21
0.1799999999999999
 31
0.0
  0
ATTDEF
  5
6D
330
5F
100
AcDbEntity
  8
ASHADE
  6
Continuous
 62
     7
100
AcDbText
 10
0.0
 20
-0.24
 30
0.0
 40
0.01
  1
0
100
AcDbAttributeDefinition
280
     0
  3
Depth Map Size
  2
ZSIZE
 70
     1
280
     0
  0
ATTDEF
  5
6E
330
5F
100
AcDbEntity
  8
ASHADE
  6
Continuous
 62
     7
100
AcDbText
 10
0.0
 20
-0.3300000000000001
 30
0.0
 40
0.01
  1
0,0,0
100
AcDbAttributeDefinition
280
     0
  3
Look-from XYZ
  2
LFXYZ
 70
     1
280
     0
  0
ATTDEF
  5
6F
330
5F
100
AcDbEntity
  8
ASHADE
  6
Continuous
 62
     7
100
AcDbText
 10
0.0
 20
-0.315
 30
0.0
 40
0.01
  1
0.0
100
AcDbAttributeDefinition
280
     0
  3
Beam Distribution
  2
BEAMDI
 70
     1
280
     0
  0
ATTDEF
  5
70
330
5F
100
AcDbEntity
  8
ASHADE
  6
Continuous
 62
     7
100
AcDbText
 10
0.0
 20
-0.3
 30
0.0
 40
0.01
  1
0.0
100
AcDbAttributeDefinition
280
     0
  3
Cone Delta
  2
CONEDE
 70
     1
280
     0
  0
ATTDEF
  5
71
330
5F
100
AcDbEntity
  8
ASHADE
  6
Continuous
 62
     7
100
AcDbText
 10
0.0
 20
-0.2850000000000001
 30
0.0
 40
0.01
  1
10.0
100
AcDbAttributeDefinition
280
     0
  3
Cone Angle
  2
CONEAN
 70
     1
280
     0
  0
ATTDEF
  5
72
330
5F
100
AcDbEntity
  8
ASHADE
  6
Continuous
 62
     7
100
AcDbText
 10
0.0
 20
-0.27
 30
0.0
 40
0.01
  1
-1
100
AcDbAttributeDefinition
280
     0
  3
*not used*
  2
BIASMAX
 70
     1
280
     0
  0
ATTDEF
  5
73
330
5F
100
AcDbEntity
  8
ASHADE
  6
Continuous
 62
     7
100
AcDbText
 10
0.0
 20
-0.255
 30
0.0
 40
0.01
  1
-1
100
AcDbAttributeDefinition
280
     0
  3
*not used*
  2
BIASMIN
 70
     1
280
     0
  0
ATTDEF
  5
74
330
5F
100
AcDbEntity
  8
ASHADE
  6
Continuous
 62
     7
100
AcDbText
 10
0.0
 20
-0.225
 30
0.0
 40
0.01
  1
1,1,1
100
AcDbAttributeDefinition
280
     0
  3
Light Color (RGB)
  2
COLOR
 70
     1
280
     0
  0
ATTDEF
  5
75
330
5F
100
AcDbEntity
  8
ASHADE
  6
Continuous
 62
     7
100
AcDbText
 10
0.0
 20
-0.21
 30
0.0
 40
0.01
  1
1
100
AcDbAttributeDefinition
280
     0
  3
Light Intensity
  2
INTENSITY
 70
     1
280
     0
  0
ATTDEF
  5
76
330
5F
100
AcDbEntity
  8
ASHADE
  6
Continuous
 62
     7
100
AcDbText
 10
0.0
 20
-0.15
 30
0.0
 40
0.01
  1

100
AcDbAttributeDefinition
280
     0
  3

  2
GNAME
 70
     1
280
     0
  0
ATTDEF
  5
77
330
5F
100
AcDbEntity
  8
ASHADE
  6
Continuous
 62
     7
100
AcDbText
 10
0.0
 20
-0.195
 30
0.0
 40
0.01
  1

100
AcDbAttributeDefinition
280
     0
  3
Look-at Z
  2
LAZ
 70
     1
280
     0
  0
ATTDEF
  5
78
330
5F
100
AcDbEntity
  8
ASHADE
  6
Continuous
 62
     7
100
AcDbText
 10
0.0
 20
-0.18
 30
0.0
 40
0.01
  1

100
AcDbAttributeDefinition
280
     0
  3
Look-at Y
  2
LAY
 70
     1
280
     0
  0
ATTDEF
  5
79
330
5F
100
AcDbEntity
  8
ASHADE
  6
Continuous
 62
     7
100
AcDbText
 10
0.0
 20
-0.165
 30
0.0
 40
0.01
  1

100
AcDbAttributeDefinition
280
     0
  3
Look-at X
  2
LAX
 70
     1
280
     0
  0
LINE
  5
7A
330
5F
100
AcDbEntity
  8
ASHADE
  6
Continuous
 62
     7
100
AcDbLine
 10
0.25
 20
-0.3399999999999999
 30
0.0
 11
0.25
 21
-0.13
 31
0.0
  0
LINE
  5
7B
330
5F
100
AcDbEntity
  8
ASHADE
  6
Continuous
 62
     7
100
AcDbLine
 10
0.25
 20
-0.18
 30
0.0
 11
0.29
 21
-0.18
 31
0.0
  0
LINE
  5
7C
330
5F
100
AcDbEntity
  8
ASHADE
  6
Continuous
 62
     7
100
AcDbLine
 10
0.29
 20
-0.22
 30
0.0
 11
0.25
 21
-0.22
 31
0.0
  0
LINE
  5
7D
330
5F
100
AcDbEntity
  8
ASHADE
  6
Continuous
 62
     7
100
AcDbLine
 10
0.29
 20
-0.18
 30
0.0
 11
0.29
 21
-0.22
 31
0.0
  0
LINE
  5
7E
330
5F
100
AcDbEntity
  8
ASHADE
  6
Continuous
 62
     7
100
AcDbLine
 10
0.21
 20
0.26
 30
0.0
 11
0.301304347826087
 21
0.46
 31
0.0
  0
LINE
  5
7F
330
5F
100
AcDbEntity
  8
ASHADE
  6
Continuous
 62
     7
100
AcDbLine
 10
0.1045454545454545
 20
0.26
 30
0.0
 11
0.15
 21
0.46
 31
0.0
  0
LINE
  5
80
330
5F
100
AcDbEntity
  8
ASHADE
  6
Continuous
 62
     7
100
AcDbLine
 10
0.0
 20
0.26
 30
0.0
 11
0.0
 21
0.46
 31
0.0
  0
LINE
  5
81
330
5F
100
AcDbEntity
  8
ASHADE
  6
Continuous
 62
     7
100
AcDbLine
 10
0.25
 20
0.13
 30
0.0
 11
0.25
 21
0.26
 31
0.0
  0
LINE
  5
82
330
5F
100
AcDbEntity
  8
ASHADE
  6
Continuous
 62
     7
100
AcDbLine
 10
0.25
 20
0.22
 30
0.0
 11
0.29
 21
0.22
 31
0.0
  0
LINE
  5
83
330
5F
100
AcDbEntity
  8
ASHADE
  6
Continuous
 62
     7
100
AcDbLine
 10
0.29
 20
0.1799999999999999
 30
0.0
 11
0.25
 21
0.1799999999999999
 31
0.0
  0
LINE
  5
84
330
5F
100
AcDbEntity
  8
ASHADE
  6
Continuous
 62
     7
100
AcDbLine
 10
0.29
 20
0.22
 30
0.0
 11
0.29
 21
0.1799999999999999
 31
0.0
  0
ENDBLK
  5
86
330
5F
100
AcDbEntity
  8
0
100
AcDbBlockEnd
  0
BLOCK
  5
92
330
91
100
AcDbEntity
  8
ASHADE
100
AcDbBlockBegin
  2
AVE_RENDER
 70
     0
 10
0.0
 20
0.0
 30
0.0
  3
AVE_RENDER
  1
AVE_RENDER
  0
ENDBLK
  5
93
330
91
100
AcDbEntity
  8
0
100
AcDbBlockEnd
  0
BLOCK
  5
A0
330
9F
100
AcDbEntity
  8
ASHADE
100
AcDbBlockBegin
  2
AVE_GLOBAL
 70
     0
 10
0.0
 20
0.0
 30
0.0
  3
AVE_GLOBAL
  1
AVE_GLOBAL
  0
ENDBLK
  5
A1
330
9F
100
AcDbEntity
  8
0
100
AcDbBlockEnd
  0
ENDSEC
  0
SECTION
  2
ENTITIES
  0
INSERT
  5
94
330
1F
100
AcDbEntity
  8
ASHADE
 62
     1
100
AcDbBlockReference
  2
AVE_RENDER
 10
0.0
 20
0.0
 30
0.0
1001
AVE_RENDER
1002
{
1070
     7
1000
Pref
1070
    30
1070
    20
1070
     1
1070
     0
1000

1070
    10
1070
     1
1070
    10
1040
1.0
1070
     1
1040
0.3
1040
0.7
1040
0.0
1040
10.0
1010
-1.0
1020
-1.0
1030
-1.0
1040
0.3
1070
    49
1070
     0
1070
     0
1010
1.0
1020
1.0
1030
1.0
1040
45.0
1070
     1
1070
     0
1000
WCS
1040
0.0
1070
     0
1040
10.0
1002
}
  0
INSERT
  5
95
330
1F
100
AcDbEntity
  8
ASHADE
 62
     3
100
AcDbBlockReference
  2
AVE_RENDER
 10
0.0
 20
0.0
 30
0.0
1001
AVE_RENDER
1002
{
1070
     0
1000
Full Opt
1070
     0
1070
     1
1070
     1
1070
     1
1070
     0
1070
     0
1070
     0
1070
     1
1070
     1
1040
0.0001
1040
0.0001
1002
}
  0
INSERT
  5
96
330
1F
100
AcDbEntity
  8
ASHADE
 62
     4
100
AcDbBlockReference
  2
AVE_RENDER
 10
0.0
 20
0.0
 30
0.0
1001
AVE_RENDER
1002
{
1070
     0
1000
Quick Opt
1070
     0
1070
     1
1070
     1
1070
     1
1070
     0
1070
     0
1070
     1
1002
}
  0
INSERT
  5
97
330
1F
100
AcDbEntity
  8
ASHADE
 62
     5
100
AcDbBlockReference
  2
AVE_RENDER
 10
0.0
 20
0.0
 30
0.0
1001
AVE_RENDER
1002
{
1070
     1
1000
Scanl Opt
1070
     2
1070
     0
1070
     2
1040
2.0
1040
4.0
1070
     0
1070
     1
1070
     0
1040
0.03
1002
}
  0
INSERT
  5
98
330
1F
100
AcDbEntity
  8
ASHADE
 62
     6
100
AcDbBlockReference
  2
AVE_RENDER
 10
0.0
 20
0.0
 30
0.0
1001
AVE_RENDER
1002
{
1070
     2
1000
Raytr Opt
1070
     2
1070
     0
1070
     2
1040
2.0
1040
4.0
1070
     0
1070
     1
1070
     1
1040
0.03
1070
     3
1040
0.03
1002
}
  0
INSERT
  5
99
330
1F
100
AcDbEntity
  8
ASHADE
 62
     7
100
AcDbBlockReference
  2
AVE_RENDER
 10
0.0
 20
0.0
 30
0.0
1001
AVE_RENDER
1002
{
1070
     0
1000
RFile Opt
1070
     1
1070
   640
1070
   480
1070
 10000
1070
     1
1070
     8
1070
     8
1070
     0
1070
     0
1070
     0
1070
     0
1070
     0
1070
     0
1070
     0
1002
}
  0
INSERT
  5
9A
330
1F
100
AcDbEntity
  8
ASHADE
 62
     8
100
AcDbBlockReference
  2
AVE_RENDER
 10
0.0
 20
0.0
 30
0.0
1001
AVE_RENDER
1002
{
1070
     0
1000
Fog Opt
1070
     0
1070
     0
1040
0.0
1040
1.0
1040
0.0
1040
1.0
1010
0.5
1020
0.5
1030
0.5
1002
}
  0
INSERT
  5
9B
330
1F
100
AcDbEntity
  8
ASHADE
 62
     9
100
AcDbBlockReference
  2
AVE_RENDER
 10
0.0
 20
0.0
 30
0.0
1001
AVE_RENDER
1002
{
1070
     0
1000
BG Opt
1070
     0
1070
     1
1010
0.0
1020
0.0
1030
0.0
1010
1.0
1020
0.0
1030
0.0
1010
0.0
1020
1.0
1030
0.0
1010
0.0
1020
0.0
1030
1.0
1040
0.5
1040
0.33
1040
0.0
1000

1070
     1
1000

1070
     1
1070
     1
1040
1.0
1040
1.0
1040
0.0
1040
0.0
1070
     0
1002
}
  0
INSERT
  5
A2
330
1F
100
AcDbEntity
  8
ASHADE
 62
     1
100
AcDbBlockReference
  2
AVE_GLOBAL
 10
0.0
 20
0.0
 30
0.0
1001
AVE_MATERIAL
1002
{
1000
*GLOBAL*
1000
2
1000
Global finish.
1002
{
1002
}
1002
{
1070
    63
1002
{
1002
{
1010
-1.0
1020
-1.0
1030
-1.0
1002
}
1040
0.1000000014901161
1000

1040
0.0
1002
{
1002
}
1040
0.0
1002
{
1002
}
1040
0.0
1002
}
1002
{
1002
{
1010
-1.0
1020
-1.0
1030
-1.0
1002
}
1040
0.6999999880790711
1000

1040
0.0
1002
{
1002
}
1040
0.0
1002
{
1002
}
1040
0.0
1002
}
1002
{
1002
{
1010
-1.0
1020
-1.0
1030
-1.0
1002
}
1040
0.2000000029802322
1000

1040
0.0
1002
{
1002
}
1040
0.0
1002
{
1002
}
1040
0.0
1002
}
1002
{
1070
     0
1002
{
1070
     1
1002
{
1040
1.0
1040
1.0
1000

1040
0.0
1002
{
1002
}
1040
0.0
1002
{
1002
}
1040
0.0
1002
}
1002
}
1040
1.0
1040
0.0
1040
0.0
1002
}
1002
{
1040
1.0
1040
1.0
1000

1040
0.0
1002
{
1002
}
1040
0.0
1002
{
1002
}
1040
0.0
1002
}
1002
{
1040
0.5
1040
1.0
1000

1040
0.0
1002
{
1002
}
1040
0.0
1002
{
1002
}
1040
0.0
1002
}
1002
{
1070
     0
1040
0.0
1002
{
1002
}
1040
1.0
1002
{
1002
}
1040
0.0
1002
}
1002
{
1040
0.0
1002
{
1002
{
1010
0.0
1020
0.0
1030
0.0
1002
}
1040
1.0
1000

1040
0.0
1002
{
1002
}
1040
0.0
1002
{
1002
}
1040
0.0
1002
}
1002
}
1002
{
1002
{
1070
     1
1002
{
1040
0.0
1040
1.0
1000

1040
0.0
1002
{
1002
}
1040
0.0
1002
{
1002
}
1040
0.0
1002
}
1002
}
1040
0.0
1002
{
1002
}
1010
1.0
1020
0.0
1030
0.0
1010
0.0
1020
1.0
1030
0.0
1010
0.0
1020
0.0
1030
1.0
1070
     0
1002
}
1002
{
1002
{
1040
1.0
1040
1.0
1002
{
1070
     1
1002
{
1040
1.0
1040
1.0
1000

1040
0.0
1002
{
1002
}
1040
0.0
1002
{
1002
}
1040
0.0
1002
}
1002
}
1002
}
1070
     0
1040
0.0
1002
{
1002
}
1002
}
1002
{
1002
}
1002
}
1002
{
1071
        3
1070
     3
1070
     0
1002
{
1070
     2
1070
     0
1070
     0
1040
0.0
1002
}
1070
     0
1070
     2
1002
{
1002
}
1002
}
1002
{
1040
8030.0
1040
190.3000030517578
1040
0.3050000071525574
1040
228.0
1040
545.0
1040
14.0
1040
17.39999961853027
1040
0.4560000002384186
1002
}
1002
}
  0
POLYLINE
  5
FB
330
1F
100
AcDbEntity
  8
Profil
100
AcDb2dPolyline
 66
     1
 10
0.0
 20
0.0
 30
0.0
  0
VERTEX
  5
FC
330
FB
100
AcDbEntity
  8
Profil
100
AcDbVertex
100
AcDb2dVertex
 10
27.18304634094238
 20
3.5
 30
0.0
  0
VERTEX
  5
FD
330
FB
100
AcDbEntity
  8
Profil
100
AcDbVertex
100
AcDb2dVertex
 10
28.10000038146973
 20
3.5
 30
0.0
  0
SEQEND
  5
44F
330
FB
100
AcDbEntity
  8
Profil
  0
POLYLINE
  5
FE
330
1F
100
AcDbEntity
  8
Profil
100
AcDb2dPolyline
 66
     1
 10
0.0
 20
0.0
 30
0.0
  0
VERTEX
  5
FF
330
FE
100
AcDbEntity
  8
Profil
100
AcDbVertex
100
AcDb2dVertex
 10
-3.5
 20
-27.18304634094238
 30
0.0
  0
VERTEX
  5
100
330
FE
100
AcDbEntity
  8
Profil
100
AcDbVertex
100
AcDb2dVertex
 10
-3.5
 20
-28.10000038146973
 30
0.0
  0
SEQEND
  5
450
330
FE
100
AcDbEntity
  8
Profil
  0
POLYLINE
  5
101
330
1F
100
AcDbEntity
  8
Profil
100
AcDb2dPolyline
 66
     1
 10
0.0
 20
0.0
 30
0.0
 70
     1
  0
VERTEX
  5
102
330
101
100
AcDbEntity
  8
Profil
100
AcDbVertex
100
AcDb2dVertex
 10
-10.5906925201416
 20
39.79999923706055
 30
0.0
  0
VERTEX
  5
103
330
101
100
AcDbEntity
  8
Profil
100
AcDbVertex
100
AcDb2dVertex
 10
-8.894032478332519
 20
35.70389938354492
 30
0.0
  0
VERTEX
  5
104
330
101
100
AcDbEntity
  8
Profil
100
AcDbVertex
100
AcDb2dVertex
 10
-8.739213943481445
 20
35.36089706420899
 30
0.0
  0
VERTEX
  5
105
330
101
100
AcDbEntity
  8
Profil
100
AcDbVertex
100
AcDb2dVertex
 10
-8.56451416015625
 20
35.03055572509766
 30
0.0
  0
VERTEX
  5
106
330
101
100
AcDbEntity
  8
Profil
100
AcDbVertex
100
AcDb2dVertex
 10
-8.37075138092041
 20
34.71354293823242
 30
0.0
  0
VERTEX
  5
107
330
101
100
AcDbEntity
  8
Profil
100
AcDbVertex
100
AcDb2dVertex
 10
-8.158744812011718
 20
34.41051864624024
 30
0.0
  0
VERTEX
  5
108
330
101
100
AcDbEntity
  8
Profil
100
AcDbVertex
100
AcDb2dVertex
 10
-7.929312705993652
 20
34.12215805053711
 30
0.0
  0
VERTEX
  5
109
330
101
100
AcDbEntity
  8
Profil
100
AcDbVertex
100
AcDb2dVertex
 10
-7.683274745941162
 20
33.8491325378418
 30
0.0
  0
VERTEX
  5
10A
330
101
100
AcDbEntity
  8
Profil
100
AcDbVertex
100
AcDb2dVertex
 10
-7.421449184417724
 20
33.59210205078125
 30
0.0
  0
VERTEX
  5
10B
330
101
100
AcDbEntity
  8
Profil
100
AcDbVertex
100
AcDb2dVertex
 10
-7.144654750823974
 20
33.35174179077148
 30
0.0
  0
VERTEX
  5
10C
330
101
100
AcDbEntity
  8
Profil
100
AcDbVertex
100
AcDb2dVertex
 10
-6.853711605072021
 20
33.12871551513672
 30
0.0
  0
VERTEX
  5
10D
330
101
100
AcDbEntity
  8
Profil
100
AcDbVertex
100
AcDb2dVertex
 10
-6.549436569213867
 20
32.9236946105957
 30
0.0
  0
VERTEX
  5
10E
330
101
100
AcDbEntity
  8
Profil
100
AcDbVertex
100
AcDb2dVertex
 10
-6.232650279998779
 20
32.73735046386719
 30
0.0
  0
VERTEX
  5
10F
330
101
100
AcDbEntity
  8
Profil
100
AcDbVertex
100
AcDb2dVertex
 10
-5.904170513153076
 20
32.57033920288086
 30
0.0
  0
VERTEX
  5
110
330
101
100
AcDbEntity
  8
Profil
100
AcDbVertex
100
AcDb2dVertex
 10
-5.56481647491455
 20
32.42334365844727
 30
0.0
  0
VERTEX
  5
111
330
101
100
AcDbEntity
  8
Profil
100
AcDbVertex
100
AcDb2dVertex
 10
-5.215407371520996
 20
32.29702377319336
 30
0.0
  0
VERTEX
  5
112
330
101
100
AcDbEntity
  8
Profil
100
AcDbVertex
100
AcDb2dVertex
 10
-4.85676097869873
 20
32.19205093383789
 30
0.0
  0
VERTEX
  5
113
330
101
100
AcDbEntity
  8
Profil
100
AcDbVertex
100
AcDb2dVertex
 10
-4.489697456359863
 20
32.10909271240235
 30
0.0
  0
VERTEX
  5
114
330
101
100
AcDbEntity
  8
Profil
100
AcDbVertex
100
AcDb2dVertex
 10
-4.466153144836425
 20
32.10512161254883
 30
0.0
  0
VERTEX
  5
115
330
101
100
AcDbEntity
  8
Profil
100
AcDbVertex
100
AcDb2dVertex
 10
-4.442459106445312
 20
32.10227584838867
 30
0.0
  0
VERTEX
  5
116
330
101
100
AcDbEntity
  8
Profil
100
AcDbVertex
100
AcDb2dVertex
 10
-4.418656349182128
 20
32.10057067871094
 30
0.0
  0
VERTEX
  5
117
330
101
100
AcDbEntity
  8
Profil
100
AcDbVertex
100
AcDb2dVertex
 10
-4.39478588104248
 20
32.0999984741211
 30
0.0
  0
VERTEX
  5
118
330
101
100
AcDbEntity
  8
Profil
100
AcDbVertex
100
AcDb2dVertex
 10
-3.5
 20
32.0999984741211
 30
0.0
  0
VERTEX
  5
119
330
101
100
AcDbEntity
  8
Profil
100
AcDbVertex
100
AcDb2dVertex
 10
-3.5
 20
30.66118049621582
 30
0.0
  0
VERTEX
  5
11A
330
101
100
AcDbEntity
  8
Profil
100
AcDbVertex
100
AcDb2dVertex
 10
-0.5
 20
30.66118049621582
 30
0.0
  0
VERTEX
  5
11B
330
101
100
AcDbEntity
  8
Profil
100
AcDbVertex
100
AcDb2dVertex
 10
-0.5
 20
32.0999984741211
 30
0.0
  0
VERTEX
  5
11C
330
101
100
AcDbEntity
  8
Profil
100
AcDbVertex
100
AcDb2dVertex
 10
0.3947856724262237
 20
32.0999984741211
 30
0.0
  0
VERTEX
  5
11D
330
101
100
AcDbEntity
  8
Profil
100
AcDbVertex
100
AcDb2dVertex
 10
0.4186562597751618
 20
32.10057067871094
 30
0.0
  0
VERTEX
  5
11E
330
101
100
AcDbEntity
  8
Profil
100
AcDbVertex
100
AcDb2dVertex
 10
0.4424588084220887
 20
32.10227584838867
 30
0.0
  0
VERTEX
  5
11F
330
101
100
AcDbEntity
  8
Profil
100
AcDbVertex
100
AcDb2dVertex
 10
0.4661527872085572
 20
32.10512161254883
 30
0.0
  0
VERTEX
  5
120
330
101
100
AcDbEntity
  8
Profil
100
AcDbVertex
100
AcDb2dVertex
 10
0.4896975457668305
 20
32.10909271240235
 30
0.0
  0
VERTEX
  5
121
330
101
100
AcDbEntity
  8
Profil
100
AcDbVertex
100
AcDb2dVertex
 10
0.8567612767219543
 20
32.19205093383789
 30
0.0
  0
VERTEX
  5
122
330
101
100
AcDbEntity
  8
Profil
100
AcDbVertex
100
AcDb2dVertex
 10
1.215407252311706
 20
32.29702758789063
 30
0.0
  0
VERTEX
  5
123
330
101
100
AcDbEntity
  8
Profil
100
AcDbVertex
100
AcDb2dVertex
 10
1.56481659412384
 20
32.42334365844727
 30
0.0
  0
VERTEX
  5
124
330
101
100
AcDbEntity
  8
Profil
100
AcDbVertex
100
AcDb2dVertex
 10
1.904170632362365
 20
32.57033920288086
 30
0.0
  0
VERTEX
  5
125
330
101
100
AcDbEntity
  8
Profil
100
AcDbVertex
100
AcDb2dVertex
 10
2.232650279998779
 20
32.73735046386719
 30
0.0
  0
VERTEX
  5
126
330
101
100
AcDbEntity
  8
Profil
100
AcDbVertex
100
AcDb2dVertex
 10
2.549436807632446
 20
32.9236946105957
 30
0.0
  0
VERTEX
  5
127
330
101
100
AcDbEntity
  8
Profil
100
AcDbVertex
100
AcDb2dVertex
 10
2.853711128234863
 20
33.12871551513672
 30
0.0
  0
VERTEX
  5
128
330
101
100
AcDbEntity
  8
Profil
100
AcDbVertex
100
AcDb2dVertex
 10
3.144654750823974
 20
33.35174179077148
 30
0.0
  0
VERTEX
  5
129
330
101
100
AcDbEntity
  8
Profil
100
AcDbVertex
100
AcDb2dVertex
 10
3.421448945999145
 20
33.59210205078125
 30
0.0
  0
VERTEX
  5
12A
330
101
100
AcDbEntity
  8
Profil
100
AcDbVertex
100
AcDb2dVertex
 10
3.683274507522583
 20
33.84912872314453
 30
0.0
  0
VERTEX
  5
12B
330
101
100
AcDbEntity
  8
Profil
100
AcDbVertex
100
AcDb2dVertex
 10
3.929312229156494
 20
34.12215805053711
 30
0.0
  0
VERTEX
  5
12C
330
101
100
AcDbEntity
  8
Profil
100
AcDbVertex
100
AcDb2dVertex
 10
4.15874433517456
 20
34.41051864624024
 30
0.0
  0
VERTEX
  5
12D
330
101
100
AcDbEntity
  8
Profil
100
AcDbVertex
100
AcDb2dVertex
 10
4.370750904083251
 20
34.71353912353516
 30
0.0
  0
VERTEX
  5
12E
330
101
100
AcDbEntity
  8
Profil
100
AcDbVertex
100
AcDb2dVertex
 10
4.564513683319091
 20
35.03055572509766
 30
0.0
  0
VERTEX
  5
12F
330
101
100
AcDbEntity
  8
Profil
100
AcDbVertex
100
AcDb2dVertex
 10
4.739213466644287
 20
35.36090087890625
 30
0.0
  0
VERTEX
  5
130
330
101
100
AcDbEntity
  8
Profil
100
AcDbVertex
100
AcDb2dVertex
 10
4.894032001495361
 20
35.70389938354492
 30
0.0
  0
VERTEX
  5
131
330
101
100
AcDbEntity
  8
Profil
100
AcDbVertex
100
AcDb2dVertex
 10
6.590692520141601
 20
39.79999923706055
 30
0.0
  0
VERTEX
  5
132
330
101
100
AcDbEntity
  8
Profil
100
AcDbVertex
100
AcDb2dVertex
 10
32.0
 20
39.79999923706055
 30
0.0
  0
VERTEX
  5
133
330
101
100
AcDbEntity
  8
Profil
100
AcDbVertex
100
AcDb2dVertex
 10
32.00662612915039
 20
32.36732864379883
 30
0.0
  0
VERTEX
  5
134
330
101
100
AcDbEntity
  8
Profil
100
AcDbVertex
100
AcDb2dVertex
 10
32.02074813842774
 20
32.15047454833984
 30
0.0
  0
VERTEX
  5
135
330
101
100
AcDbEntity
  8
Profil
100
AcDbVertex
100
AcDb2dVertex
 10
32.04254913330078
 20
31.93537330627441
 30
0.0
  0
VERTEX
  5
136
330
101
100
AcDbEntity
  8
Profil
100
AcDbVertex
100
AcDb2dVertex
 10
32.07193374633789
 20
31.72219467163086
 30
0.0
  0
VERTEX
  5
137
330
101
100
AcDbEntity
  8
Profil
100
AcDbVertex
100
AcDb2dVertex
 10
32.10876846313477
 20
31.51109886169434
 30
0.0
  0
VERTEX
  5
138
330
101
100
AcDbEntity
  8
Profil
100
AcDbVertex
100
AcDb2dVertex
 10
32.15294647216797
 20
31.30224418640137
 30
0.0
  0
VERTEX
  5
139
330
101
100
AcDbEntity
  8
Profil
100
AcDbVertex
100
AcDb2dVertex
 10
32.2043571472168
 20
31.09579849243164
 30
0.0
  0
VERTEX
  5
13A
330
101
100
AcDbEntity
  8
Profil
100
AcDbVertex
100
AcDb2dVertex
 10
32.26287841796875
 20
30.89192199707031
 30
0.0
  0
VERTEX
  5
13B
330
101
100
AcDbEntity
  8
Profil
100
AcDbVertex
100
AcDb2dVertex
 10
32.32840347290039
 20
30.69077682495117
 30
0.0
  0
VERTEX
  5
13C
330
101
100
AcDbEntity
  8
Profil
100
AcDbVertex
100
AcDb2dVertex
 10
32.40081405639648
 20
30.49252700805664
 30
0.0
  0
VERTEX
  5
13D
330
101
100
AcDbEntity
  8
Profil
100
AcDbVertex
100
AcDb2dVertex
 10
32.47999572753907
 20
30.29733657836914
 30
0.0
  0
VERTEX
  5
13E
330
101
100
AcDbEntity
  8
Profil
100
AcDbVertex
100
AcDb2dVertex
 10
32.56583786010742
 20
30.10536575317383
 30
0.0
  0
VERTEX
  5
13F
330
101
100
AcDbEntity
  8
Profil
100
AcDbVertex
100
AcDb2dVertex
 10
32.65821838378907
 20
29.91677665710449
 30
0.0
  0
VERTEX
  5
140
330
101
100
AcDbEntity
  8
Profil
100
AcDbVertex
100
AcDb2dVertex
 10
32.75702667236328
 20
29.73173332214356
 30
0.0
  0
VERTEX
  5
141
330
101
100
AcDbEntity
  8
Profil
100
AcDbVertex
100
AcDb2dVertex
 10
32.86215591430664
 20
29.55040359497071
 30
0.0
  0
VERTEX
  5
142
330
101
100
AcDbEntity
  8
Profil
100
AcDbVertex
100
AcDb2dVertex
 10
32.97348022460937
 20
29.3729362487793
 30
0.0
  0
VERTEX
  5
143
330
101
100
AcDbEntity
  8
Profil
100
AcDbVertex
100
AcDb2dVertex
 10
33.09089279174805
 20
29.19951057434082
 30
0.0
  0
VERTEX
  5
144
330
101
100
AcDbEntity
  8
Profil
100
AcDbVertex
100
AcDb2dVertex
 10
33.3435173034668
 20
28.86540222167969
 30
0.0
  0
VERTEX
  5
145
330
101
100
AcDbEntity
  8
Profil
100
AcDbVertex
100
AcDb2dVertex
 10
33.47850036621094
 20
28.70505142211914
 30
0.0
  0
VERTEX
  5
146
330
101
100
AcDbEntity
  8
Profil
100
AcDbVertex
100
AcDb2dVertex
 10
33.61911773681641
 20
28.54938507080078
 30
0.0
  0
VERTEX
  5
147
330
101
100
AcDbEntity
  8
Profil
100
AcDbVertex
100
AcDb2dVertex
 10
33.76524353027344
 20
28.39856338500977
 30
0.0
  0
VERTEX
  5
148
330
101
100
AcDbEntity
  8
Profil
100
AcDbVertex
100
AcDb2dVertex
 10
33.91676712036133
 20
28.25275421142578
 30
0.0
  0
VERTEX
  5
149
330
101
100
AcDbEntity
  8
Profil
100
AcDbVertex
100
AcDb2dVertex
 10
34.07358169555664
 20
28.11211395263672
 30
0.0
  0
VERTEX
  5
14A
330
101
100
AcDbEntity
  8
Profil
100
AcDbVertex
100
AcDb2dVertex
 10
34.23556900024414
 20
27.97681045532227
 30
0.0
  0
VERTEX
  5
14B
330
101
100
AcDbEntity
  8
Profil
100
AcDbVertex
100
AcDb2dVertex
 10
34.40261077880859
 20
27.84700584411621
 30
0.0
  0
VERTEX
  5
14C
330
101
100
AcDbEntity
  8
Profil
100
AcDbVertex
100
AcDb2dVertex
 10
34.57459259033203
 20
27.72286033630371
 30
0.0
  0
VERTEX
  5
14D
330
101
100
AcDbEntity
  8
Profil
100
AcDbVertex
100
AcDb2dVertex
 10
34.75140762329102
 20
27.60453796386719
 30
0.0
  0
VERTEX
  5
14E
330
101
100
AcDbEntity
  8
Profil
100
AcDbVertex
100
AcDb2dVertex
 10
34.93293380737305
 20
27.49220275878907
 30
0.0
  0
VERTEX
  5
14F
330
101
100
AcDbEntity
  8
Profil
100
AcDbVertex
100
AcDb2dVertex
 10
35.11906051635742
 20
27.38601493835449
 30
0.0
  0
VERTEX
  5
150
330
101
100
AcDbEntity
  8
Profil
100
AcDbVertex
100
AcDb2dVertex
 10
35.30967330932617
 20
27.28613662719727
 30
0.0
  0
VERTEX
  5
151
330
101
100
AcDbEntity
  8
Profil
100
AcDbVertex
100
AcDb2dVertex
 10
35.50465774536133
 20
27.19273567199707
 30
0.0
  0
VERTEX
  5
152
330
101
100
AcDbEntity
  8
Profil
100
AcDbVertex
100
AcDb2dVertex
 10
35.70389938354492
 20
27.1059684753418
 30
0.0
  0
VERTEX
  5
153
330
101
100
AcDbEntity
  8
Profil
100
AcDbVertex
100
AcDb2dVertex
 10
39.79999923706055
 20
25.4093074798584
 30
0.0
  0
VERTEX
  5
154
330
101
100
AcDbEntity
  8
Profil
100
AcDbVertex
100
AcDb2dVertex
 10
39.79999923706055
 20
10.5906925201416
 30
0.0
  0
VERTEX
  5
155
330
101
100
AcDbEntity
  8
Profil
100
AcDbVertex
100
AcDb2dVertex
 10
35.70389938354492
 20
8.894032478332519
 30
0.0
  0
VERTEX
  5
156
330
101
100
AcDbEntity
  8
Profil
100
AcDbVertex
100
AcDb2dVertex
 10
35.5005989074707
 20
8.805407524108886
 30
0.0
  0
VERTEX
  5
157
330
101
100
AcDbEntity
  8
Profil
100
AcDbVertex
100
AcDb2dVertex
 10
35.30175018310547
 20
8.709889411926269
 30
0.0
  0
VERTEX
  5
158
330
101
100
AcDbEntity
  8
Profil
100
AcDbVertex
100
AcDb2dVertex
 10
35.10748672485352
 20
8.607649803161621
 30
0.0
  0
VERTEX
  5
159
330
101
100
AcDbEntity
  8
Profil
100
AcDbVertex
100
AcDb2dVertex
 10
34.91791915893555
 20
8.498862266540527
 30
0.0
  0
VERTEX
  5
15A
330
101
100
AcDbEntity
  8
Profil
100
AcDbVertex
100
AcDb2dVertex
 10
34.73317337036133
 20
8.383702278137207
 30
0.0
  0
VERTEX
  5
15B
330
101
100
AcDbEntity
  8
Profil
100
AcDbVertex
100
AcDb2dVertex
 10
34.55335998535157
 20
8.262341499328613
 30
0.0
  0
VERTEX
  5
15C
330
101
100
AcDbEntity
  8
Profil
100
AcDbVertex
100
AcDb2dVertex
 10
34.37860488891602
 20
8.134955406188964
 30
0.0
  0
VERTEX
  5
15D
330
101
100
AcDbEntity
  8
Profil
100
AcDbVertex
100
AcDb2dVertex
 10
34.20902633666992
 20
8.001716613769531
 30
0.0
  0
VERTEX
  5
15E
330
101
100
AcDbEntity
  8
Profil
100
AcDbVertex
100
AcDb2dVertex
 10
34.04474258422852
 20
7.862799167633056
 30
0.0
  0
VERTEX
  5
15F
330
101
100
AcDbEntity
  8
Profil
100
AcDbVertex
100
AcDb2dVertex
 10
33.8858757019043
 20
7.718376636505126
 30
0.0
  0
VERTEX
  5
160
330
101
100
AcDbEntity
  8
Profil
100
AcDbVertex
100
AcDb2dVertex
 10
33.73254013061524
 20
7.568622589111328
 30
0.0
  0
VERTEX
  5
161
330
101
100
AcDbEntity
  8
Profil
100
AcDbVertex
100
AcDb2dVertex
 10
33.58485412597656
 20
7.413712501525878
 30
0.0
  0
VERTEX
  5
162
330
101
100
AcDbEntity
  8
Profil
100
AcDbVertex
100
AcDb2dVertex
 10
33.44294357299805
 20
7.253818035125732
 30
0.0
  0
VERTEX
  5
163
330
101
100
AcDbEntity
  8
Profil
100
AcDbVertex
100
AcDb2dVertex
 10
33.30692291259766
 20
7.089113235473632
 30
0.0
  0
VERTEX
  5
164
330
101
100
AcDbEntity
  8
Profil
100
AcDbVertex
100
AcDb2dVertex
 10
33.17691421508789
 20
6.91977310180664
 30
0.0
  0
VERTEX
  5
165
330
101
100
AcDbEntity
  8
Profil
100
AcDbVertex
100
AcDb2dVertex
 10
33.05302810668945
 20
6.745969772338867
 30
0.0
  0
VERTEX
  5
166
330
101
100
AcDbEntity
  8
Profil
100
AcDbVertex
100
AcDb2dVertex
 10
32.93539428710938
 20
6.567878246307373
 30
0.0
  0
VERTEX
  5
167
330
101
100
AcDbEntity
  8
Profil
100
AcDbVertex
100
AcDb2dVertex
 10
32.82413482666016
 20
6.385671615600585
 30
0.0
  0
VERTEX
  5
168
330
101
100
AcDbEntity
  8
Profil
100
AcDbVertex
100
AcDb2dVertex
 10
32.71935272216797
 20
6.19952392578125
 30
0.0
  0
VERTEX
  5
169
330
101
100
AcDbEntity
  8
Profil
100
AcDbVertex
100
AcDb2dVertex
 10
32.62118530273438
 20
6.009608268737792
 30
0.0
  0
VERTEX
  5
16A
330
101
100
AcDbEntity
  8
Profil
100
AcDbVertex
100
AcDb2dVertex
 10
32.52973937988282
 20
5.816099166870117
 30
0.0
  0
VERTEX
  5
16B
330
101
100
AcDbEntity
  8
Profil
100
AcDbVertex
100
AcDb2dVertex
 10
32.44514465332031
 20
5.61916971206665
 30
0.0
  0
VERTEX
  5
16C
330
101
100
AcDbEntity
  8
Profil
100
AcDbVertex
100
AcDb2dVertex
 10
32.36750793457031
 20
5.418994426727294
 30
0.0
  0
VERTEX
  5
16D
330
101
100
AcDbEntity
  8
Profil
100
AcDbVertex
100
AcDb2dVertex
 10
32.29695510864258
 20
5.215746402740478
 30
0.0
  0
VERTEX
  5
16E
330
101
100
AcDbEntity
  8
Profil
100
AcDbVertex
100
AcDb2dVertex
 10
32.23360824584961
 20
5.009599685668945
 30
0.0
  0
VERTEX
  5
16F
330
101
100
AcDbEntity
  8
Profil
100
AcDbVertex
100
AcDb2dVertex
 10
32.17758178710937
 20
4.800727844238281
 30
0.0
  0
VERTEX
  5
170
330
101
100
AcDbEntity
  8
Profil
100
AcDbVertex
100
AcDb2dVertex
 10
32.12899398803711
 20
4.58930492401123
 30
0.0
  0
VERTEX
  5
171
330
101
100
AcDbEntity
  8
Profil
100
AcDbVertex
100
AcDb2dVertex
 10
32.08797073364258
 20
4.37550401687622
 30
0.0
  0
VERTEX
  5
172
330
101
100
AcDbEntity
  8
Profil
100
AcDbVertex
100
AcDb2dVertex
 10
32.05462265014649
 20
4.159499645233154
 30
0.0
  0
VERTEX
  5
173
330
101
100
AcDbEntity
  8
Profil
100
AcDbVertex
100
AcDb2dVertex
 10
32.02907943725586
 20
3.941464900970458
 30
0.0
  0
VERTEX
  5
174
330
101
100
AcDbEntity
  8
Profil
100
AcDbVertex
100
AcDb2dVertex
 10
32.01144790649414
 20
3.721573829650878
 30
0.0
  0
VERTEX
  5
175
330
101
100
AcDbEntity
  8
Profil
100
AcDbVertex
100
AcDb2dVertex
 10
32.00185775756836
 20
3.5
 30
0.0
  0
VERTEX
  5
176
330
101
100
AcDbEntity
  8
Profil
100
AcDbVertex
100
AcDb2dVertex
 10
30.10000038146973
 20
3.5
 30
0.0
  0
VERTEX
  5
177
330
101
100
AcDbEntity
  8
Profil
100
AcDbVertex
100
AcDb2dVertex
 10
30.10000038146973
 20
6.0
 30
0.0
  0
VERTEX
  5
178
330
101
100
AcDbEntity
  8
Profil
100
AcDbVertex
100
AcDb2dVertex
 10
28.10000038146973
 20
6.0
 30
0.0
  0
VERTEX
  5
179
330
101
100
AcDbEntity
  8
Profil
100
AcDbVertex
100
AcDb2dVertex
 10
28.10000038146973
 20
3.5
 30
0.0
  0
VERTEX
  5
17A
330
101
100
AcDbEntity
  8
Profil
100
AcDbVertex
100
AcDb2dVertex
 10
26.66118049621582
 20
3.5
 30
0.0
  0
VERTEX
  5
17B
330
101
100
AcDbEntity
  8
Profil
100
AcDbVertex
100
AcDb2dVertex
 10
26.66118049621582
 20
0.5
 30
0.0
  0
VERTEX
  5
17C
330
101
100
AcDbEntity
  8
Profil
100
AcDbVertex
100
AcDb2dVertex
 10
28.10000038146973
 20
0.5
 30
0.0
  0
VERTEX
  5
17D
330
101
100
AcDbEntity
  8
Profil
100
AcDbVertex
100
AcDb2dVertex
 10
28.10000038146973
 20
-2.0
 30
0.0
  0
VERTEX
  5
17E
330
101
100
AcDbEntity
  8
Profil
100
AcDbVertex
100
AcDb2dVertex
 10
30.10000038146973
 20
-2.0
 30
0.0
  0
VERTEX
  5
17F
330
101
100
AcDbEntity
  8
Profil
100
AcDbVertex
100
AcDb2dVertex
 10
30.10000038146973
 20
0.5
 30
0.0
  0
VERTEX
  5
180
330
101
100
AcDbEntity
  8
Profil
100
AcDbVertex
100
AcDb2dVertex
 10
32.00185775756836
 20
0.5
 30
0.0
  0
VERTEX
  5
181
330
101
100
AcDbEntity
  8
Profil
100
AcDbVertex
100
AcDb2dVertex
 10
32.01144790649414
 20
0.2784262895584106
 30
0.0
  0
VERTEX
  5
182
330
101
100
AcDbEntity
  8
Profil
100
AcDbVertex
100
AcDb2dVertex
 10
32.02907562255859
 20
0.05853521078825
 30
0.0
  0
VERTEX
  5
183
330
101
100
AcDbEntity
  8
Profil
100
AcDbVertex
100
AcDb2dVertex
 10
32.05462646484375
 20
-0.15949946641922
 30
0.0
  0
VERTEX
  5
184
330
101
100
AcDbEntity
  8
Profil
100
AcDbVertex
100
AcDb2dVertex
 10
32.08796691894531
 20
-0.3755040466785431
 30
0.0
  0
VERTEX
  5
185
330
101
100
AcDbEntity
  8
Profil
100
AcDbVertex
100
AcDb2dVertex
 10
32.12899780273438
 20
-0.589304804801941
 30
0.0
  0
VERTEX
  5
186
330
101
100
AcDbEntity
  8
Profil
100
AcDbVertex
100
AcDb2dVertex
 10
32.17758178710937
 20
-0.800727903842926
 30
0.0
  0
VERTEX
  5
187
330
101
100
AcDbEntity
  8
Profil
100
AcDbVertex
100
AcDb2dVertex
 10
32.23360443115235
 20
-1.009599804878234
 30
0.0
  0
VERTEX
  5
188
330
101
100
AcDbEntity
  8
Profil
100
AcDbVertex
100
AcDb2dVertex
 10
32.29695892333984
 20
-1.215746521949768
 30
0.0
  0
VERTEX
  5
189
330
101
100
AcDbEntity
  8
Profil
100
AcDbVertex
100
AcDb2dVertex
 10
32.36750793457031
 20
-1.418994426727294
 30
0.0
  0
VERTEX
  5
18A
330
101
100
AcDbEntity
  8
Profil
100
AcDbVertex
100
AcDb2dVertex
 10
32.44514083862305
 20
-1.619169831275939
 30
0.0
  0
VERTEX
  5
18B
330
101
100
AcDbEntity
  8
Profil
100
AcDbVertex
100
AcDb2dVertex
 10
32.52974319458008
 20
-1.816098928451538
 30
0.0
  0
VERTEX
  5
18C
330
101
100
AcDbEntity
  8
Profil
100
AcDbVertex
100
AcDb2dVertex
 10
32.62118530273438
 20
-2.009608030319213
 30
0.0
  0
VERTEX
  5
18D
330
101
100
AcDbEntity
  8
Profil
100
AcDbVertex
100
AcDb2dVertex
 10
32.71935653686524
 20
-2.199523448944091
 30
0.0
  0
VERTEX
  5
18E
330
101
100
AcDbEntity
  8
Profil
100
AcDbVertex
100
AcDb2dVertex
 10
32.82413482666016
 20
-2.385671377182006
 30
0.0
  0
VERTEX
  5
18F
330
101
100
AcDbEntity
  8
Profil
100
AcDbVertex
100
AcDb2dVertex
 10
32.93539810180664
 20
-2.567878007888793
 30
0.0
  0
VERTEX
  5
190
330
101
100
AcDbEntity
  8
Profil
100
AcDbVertex
100
AcDb2dVertex
 10
33.05302810668945
 20
-2.745969772338867
 30
0.0
  0
VERTEX
  5
191
330
101
100
AcDbEntity
  8
Profil
100
AcDbVertex
100
AcDb2dVertex
 10
33.17691040039063
 20
-2.919772624969482
 30
0.0
  0
VERTEX
  5
192
330
101
100
AcDbEntity
  8
Profil
100
AcDbVertex
100
AcDb2dVertex
 10
33.30692291259766
 20
-3.089112997055053
 30
0.0
  0
VERTEX
  5
193
330
101
100
AcDbEntity
  8
Profil
100
AcDbVertex
100
AcDb2dVertex
 10
33.44293975830078
 20
-3.253817558288574
 30
0.0
  0
VERTEX
  5
194
330
101
100
AcDbEntity
  8
Profil
100
AcDbVertex
100
AcDb2dVertex
 10
33.58485412597656
 20
-3.413712263107299
 30
0.0
  0
VERTEX
  5
195
330
101
100
AcDbEntity
  8
Profil
100
AcDbVertex
100
AcDb2dVertex
 10
33.73253631591797
 20
-3.568623065948486
 30
0.0
  0
VERTEX
  5
196
330
101
100
AcDbEntity
  8
Profil
100
AcDbVertex
100
AcDb2dVertex
 10
33.88587188720703
 20
-3.718376159667968
 30
0.0
  0
VERTEX
  5
197
330
101
100
AcDbEntity
  8
Profil
100
AcDbVertex
100
AcDb2dVertex
 10
34.04474258422852
 20
-3.862798690795898
 30
0.0
  0
VERTEX
  5
198
330
101
100
AcDbEntity
  8
Profil
100
AcDbVertex
100
AcDb2dVertex
 10
34.20903015136719
 20
-4.001716136932373
 30
0.0
  0
VERTEX
  5
199
330
101
100
AcDbEntity
  8
Profil
100
AcDbVertex
100
AcDb2dVertex
 10
34.37860870361328
 20
-4.134954929351806
 30
0.0
  0
VERTEX
  5
19A
330
101
100
AcDbEntity
  8
Profil
100
AcDbVertex
100
AcDb2dVertex
 10
34.55335998535157
 20
-4.262341499328613
 30
0.0
  0
VERTEX
  5
19B
330
101
100
AcDbEntity
  8
Profil
100
AcDbVertex
100
AcDb2dVertex
 10
34.73317337036133
 20
-4.383701801300048
 30
0.0
  0
VERTEX
  5
19C
330
101
100
AcDbEntity
  8
Profil
100
AcDbVertex
100
AcDb2dVertex
 10
34.91791915893555
 20
-4.498862266540527
 30
0.0
  0
VERTEX
  5
19D
330
101
100
AcDbEntity
  8
Profil
100
AcDbVertex
100
AcDb2dVertex
 10
35.10748672485352
 20
-4.607649326324462
 30
0.0
  0
VERTEX
  5
19E
330
101
100
AcDbEntity
  8
Profil
100
AcDbVertex
100
AcDb2dVertex
 10
35.30175018310547
 20
-4.709888935089111
 30
0.0
  0
VERTEX
  5
19F
330
101
100
AcDbEntity
  8
Profil
100
AcDbVertex
100
AcDb2dVertex
 10
35.50059509277344
 20
-4.805408000946044
 30
0.0
  0
VERTEX
  5
1A0
330
101
100
AcDbEntity
  8
Profil
100
AcDbVertex
100
AcDb2dVertex
 10
35.70389938354492
 20
-4.894032001495361
 30
0.0
  0
VERTEX
  5
1A1
330
101
100
AcDbEntity
  8
Profil
100
AcDbVertex
100
AcDb2dVertex
 10
39.79999923706055
 20
-6.590692520141601
 30
0.0
  0
VERTEX
  5
1A2
330
101
100
AcDbEntity
  8
Profil
100
AcDbVertex
100
AcDb2dVertex
 10
39.79999923706055
 20
-21.4093074798584
 30
0.0
  0
VERTEX
  5
1A3
330
101
100
AcDbEntity
  8
Profil
100
AcDbVertex
100
AcDb2dVertex
 10
35.70389938354492
 20
-23.1059684753418
 30
0.0
  0
VERTEX
  5
1A4
330
101
100
AcDbEntity
  8
Profil
100
AcDbVertex
100
AcDb2dVertex
 10
35.50466156005859
 20
-23.19273567199707
 30
0.0
  0
VERTEX
  5
1A5
330
101
100
AcDbEntity
  8
Profil
100
AcDbVertex
100
AcDb2dVertex
 10
35.30966949462891
 20
-23.2861385345459
 30
0.0
  0
VERTEX
  5
1A6
330
101
100
AcDbEntity
  8
Profil
100
AcDbVertex
100
AcDb2dVertex
 10
35.11906051635742
 20
-23.38601493835449
 30
0.0
  0
VERTEX
  5
1A7
330
101
100
AcDbEntity
  8
Profil
100
AcDbVertex
100
AcDb2dVertex
 10
34.93292999267578
 20
-23.49220275878906
 30
0.0
  0
VERTEX
  5
1A8
330
101
100
AcDbEntity
  8
Profil
100
AcDbVertex
100
AcDb2dVertex
 10
34.75140762329102
 20
-23.60453796386719
 30
0.0
  0
VERTEX
  5
1A9
330
101
100
AcDbEntity
  8
Profil
100
AcDbVertex
100
AcDb2dVertex
 10
34.57459259033203
 20
-23.72285842895508
 30
0.0
  0
VERTEX
  5
1AA
330
101
100
AcDbEntity
  8
Profil
100
AcDbVertex
100
AcDb2dVertex
 10
34.40260696411133
 20
-23.84700775146484
 30
0.0
  0
VERTEX
  5
1AB
330
101
100
AcDbEntity
  8
Profil
100
AcDbVertex
100
AcDb2dVertex
 10
34.23556518554688
 20
-23.97680854797363
 30
0.0
  0
VERTEX
  5
1AC
330
101
100
AcDbEntity
  8
Profil
100
AcDbVertex
100
AcDb2dVertex
 10
34.07358551025391
 20
-24.11211395263672
 30
0.0
  0
VERTEX
  5
1AD
330
101
100
AcDbEntity
  8
Profil
100
AcDbVertex
100
AcDb2dVertex
 10
33.91677093505859
 20
-24.25275230407715
 30
0.0
  0
VERTEX
  5
1AE
330
101
100
AcDbEntity
  8
Profil
100
AcDbVertex
100
AcDb2dVertex
 10
33.76524353027344
 20
-24.39856147766113
 30
0.0
  0
VERTEX
  5
1AF
330
101
100
AcDbEntity
  8
Profil
100
AcDbVertex
100
AcDb2dVertex
 10
33.61911773681641
 20
-24.54938507080078
 30
0.0
  0
VERTEX
  5
1B0
330
101
100
AcDbEntity
  8
Profil
100
AcDbVertex
100
AcDb2dVertex
 10
33.4785041809082
 20
-24.70504951477051
 30
0.0
  0
VERTEX
  5
1B1
330
101
100
AcDbEntity
  8
Profil
100
AcDbVertex
100
AcDb2dVertex
 10
33.3435173034668
 20
-24.86540412902832
 30
0.0
  0
VERTEX
  5
1B2
330
101
100
AcDbEntity
  8
Profil
100
AcDbVertex
100
AcDb2dVertex
 10
33.09089279174805
 20
-25.19950675964356
 30
0.0
  0
VERTEX
  5
1B3
330
101
100
AcDbEntity
  8
Profil
100
AcDbVertex
100
AcDb2dVertex
 10
32.86215591430664
 20
-25.55039978027344
 30
0.0
  0
VERTEX
  5
1B4
330
101
100
AcDbEntity
  8
Profil
100
AcDbVertex
100
AcDb2dVertex
 10
32.75703048706055
 20
-25.73173332214356
 30
0.0
  0
VERTEX
  5
1B5
330
101
100
AcDbEntity
  8
Profil
100
AcDbVertex
100
AcDb2dVertex
 10
32.65821838378907
 20
-25.91677474975586
 30
0.0
  0
VERTEX
  5
1B6
330
101
100
AcDbEntity
  8
Profil
100
AcDbVertex
100
AcDb2dVertex
 10
32.56583404541016
 20
-26.1053638458252
 30
0.0
  0
VERTEX
  5
1B7
330
101
100
AcDbEntity
  8
Profil
100
AcDbVertex
100
AcDb2dVertex
 10
32.47999572753907
 20
-26.29733276367188
 30
0.0
  0
VERTEX
  5
1B8
330
101
100
AcDbEntity
  8
Profil
100
AcDbVertex
100
AcDb2dVertex
 10
32.40081405639648
 20
-26.49252700805664
 30
0.0
  0
VERTEX
  5
1B9
330
101
100
AcDbEntity
  8
Profil
100
AcDbVertex
100
AcDb2dVertex
 10
32.32840347290039
 20
-26.69077682495117
 30
0.0
  0
VERTEX
  5
1BA
330
101
100
AcDbEntity
  8
Profil
100
AcDbVertex
100
AcDb2dVertex
 10
32.26287841796875
 20
-26.89191818237305
 30
0.0
  0
VERTEX
  5
1BB
330
101
100
AcDbEntity
  8
Profil
100
AcDbVertex
100
AcDb2dVertex
 10
32.2043571472168
 20
-27.09579658508301
 30
0.0
  0
VERTEX
  5
1BC
330
101
100
AcDbEntity
  8
Profil
100
AcDbVertex
100
AcDb2dVertex
 10
32.15294647216797
 20
-27.30224227905273
 30
0.0
  0
VERTEX
  5
1BD
330
101
100
AcDbEntity
  8
Profil
100
AcDbVertex
100
AcDb2dVertex
 10
32.10876846313477
 20
-27.5110969543457
 30
0.0
  0
VERTEX
  5
1BE
330
101
100
AcDbEntity
  8
Profil
100
AcDbVertex
100
AcDb2dVertex
 10
32.07193374633789
 20
-27.72219467163086
 30
0.0
  0
VERTEX
  5
1BF
330
101
100
AcDbEntity
  8
Profil
100
AcDbVertex
100
AcDb2dVertex
 10
32.04255294799805
 20
-27.93537330627442
 30
0.0
  0
VERTEX
  5
1C0
330
101
100
AcDbEntity
  8
Profil
100
AcDbVertex
100
AcDb2dVertex
 10
32.02074432373047
 20
-28.15047073364258
 30
0.0
  0
VERTEX
  5
1C1
330
101
100
AcDbEntity
  8
Profil
100
AcDbVertex
100
AcDb2dVertex
 10
32.00662612915039
 20
-28.3673267364502
 30
0.0
  0
VERTEX
  5
1C2
330
101
100
AcDbEntity
  8
Profil
100
AcDbVertex
100
AcDb2dVertex
 10
32.0
 20
-32.0
 30
0.0
  0
VERTEX
  5
1C3
330
101
100
AcDbEntity
  8
Profil
100
AcDbVertex
100
AcDb2dVertex
 10
28.3673267364502
 20
-32.00662612915039
 30
0.0
  0
VERTEX
  5
1C4
330
101
100
AcDbEntity
  8
Profil
100
AcDbVertex
100
AcDb2dVertex
 10
28.15047264099121
 20
-32.02074813842774
 30
0.0
  0
VERTEX
  5
1C5
330
101
100
AcDbEntity
  8
Profil
100
AcDbVertex
100
AcDb2dVertex
 10
27.93537330627442
 20
-32.04254913330078
 30
0.0
  0
VERTEX
  5
1C6
330
101
100
AcDbEntity
  8
Profil
100
AcDbVertex
100
AcDb2dVertex
 10
27.72219467163086
 20
-32.07193374633789
 30
0.0
  0
VERTEX
  5
1C7
330
101
100
AcDbEntity
  8
Profil
100
AcDbVertex
100
AcDb2dVertex
 10
27.51109886169434
 20
-32.10876846313477
 30
0.0
  0
VERTEX
  5
1C8
330
101
100
AcDbEntity
  8
Profil
100
AcDbVertex
100
AcDb2dVertex
 10
27.30224418640137
 20
-32.15294647216797
 30
0.0
  0
VERTEX
  5
1C9
330
101
100
AcDbEntity
  8
Profil
100
AcDbVertex
100
AcDb2dVertex
 10
27.09579467773437
 20
-32.2043571472168
 30
0.0
  0
VERTEX
  5
1CA
330
101
100
AcDbEntity
  8
Profil
100
AcDbVertex
100
AcDb2dVertex
 10
26.89192008972168
 20
-32.26287841796875
 30
0.0
  0
VERTEX
  5
1CB
330
101
100
AcDbEntity
  8
Profil
100
AcDbVertex
100
AcDb2dVertex
 10
26.69077682495117
 20
-32.32840347290039
 30
0.0
  0
VERTEX
  5
1CC
330
101
100
AcDbEntity
  8
Profil
100
AcDbVertex
100
AcDb2dVertex
 10
26.49252700805664
 20
-32.40081405639648
 30
0.0
  0
VERTEX
  5
1CD
330
101
100
AcDbEntity
  8
Profil
100
AcDbVertex
100
AcDb2dVertex
 10
26.29733657836914
 20
-32.47999572753907
 30
0.0
  0
VERTEX
  5
1CE
330
101
100
AcDbEntity
  8
Profil
100
AcDbVertex
100
AcDb2dVertex
 10
26.10536575317383
 20
-32.56583786010742
 30
0.0
  0
VERTEX
  5
1CF
330
101
100
AcDbEntity
  8
Profil
100
AcDbVertex
100
AcDb2dVertex
 10
25.91677474975586
 20
-32.65821838378907
 30
0.0
  0
VERTEX
  5
1D0
330
101
100
AcDbEntity
  8
Profil
100
AcDbVertex
100
AcDb2dVertex
 10
25.73173332214356
 20
-32.75702667236328
 30
0.0
  0
VERTEX
  5
1D1
330
101
100
AcDbEntity
  8
Profil
100
AcDbVertex
100
AcDb2dVertex
 10
25.55040168762207
 20
-32.86215591430664
 30
0.0
  0
VERTEX
  5
1D2
330
101
100
AcDbEntity
  8
Profil
100
AcDbVertex
100
AcDb2dVertex
 10
25.3729362487793
 20
-32.97348022460937
 30
0.0
  0
VERTEX
  5
1D3
330
101
100
AcDbEntity
  8
Profil
100
AcDbVertex
100
AcDb2dVertex
 10
25.19950866699219
 20
-33.09089279174805
 30
0.0
  0
VERTEX
  5
1D4
330
101
100
AcDbEntity
  8
Profil
100
AcDbVertex
100
AcDb2dVertex
 10
24.86540222167969
 20
-33.3435173034668
 30
0.0
  0
VERTEX
  5
1D5
330
101
100
AcDbEntity
  8
Profil
100
AcDbVertex
100
AcDb2dVertex
 10
24.70505142211914
 20
-33.47850036621094
 30
0.0
  0
VERTEX
  5
1D6
330
101
100
AcDbEntity
  8
Profil
100
AcDbVertex
100
AcDb2dVertex
 10
24.54938316345215
 20
-33.61911773681641
 30
0.0
  0
VERTEX
  5
1D7
330
101
100
AcDbEntity
  8
Profil
100
AcDbVertex
100
AcDb2dVertex
 10
24.39856338500977
 20
-33.76524353027344
 30
0.0
  0
VERTEX
  5
1D8
330
101
100
AcDbEntity
  8
Profil
100
AcDbVertex
100
AcDb2dVertex
 10
24.25275421142578
 20
-33.91676712036133
 30
0.0
  0
VERTEX
  5
1D9
330
101
100
AcDbEntity
  8
Profil
100
AcDbVertex
100
AcDb2dVertex
 10
24.11211395263672
 20
-34.07358169555664
 30
0.0
  0
VERTEX
  5
1DA
330
101
100
AcDbEntity
  8
Profil
100
AcDbVertex
100
AcDb2dVertex
 10
23.97681045532227
 20
-34.23556900024414
 30
0.0
  0
VERTEX
  5
1DB
330
101
100
AcDbEntity
  8
Profil
100
AcDbVertex
100
AcDb2dVertex
 10
23.84700584411621
 20
-34.40261077880859
 30
0.0
  0
VERTEX
  5
1DC
330
101
100
AcDbEntity
  8
Profil
100
AcDbVertex
100
AcDb2dVertex
 10
23.72286033630371
 20
-34.57459259033203
 30
0.0
  0
VERTEX
  5
1DD
330
101
100
AcDbEntity
  8
Profil
100
AcDbVertex
100
AcDb2dVertex
 10
23.60453796386719
 20
-34.75140762329102
 30
0.0
  0
VERTEX
  5
1DE
330
101
100
AcDbEntity
  8
Profil
100
AcDbVertex
100
AcDb2dVertex
 10
23.49220275878906
 20
-34.93293380737305
 30
0.0
  0
VERTEX
  5
1DF
330
101
100
AcDbEntity
  8
Profil
100
AcDbVertex
100
AcDb2dVertex
 10
23.38601493835449
 20
-35.11906051635742
 30
0.0
  0
VERTEX
  5
1E0
330
101
100
AcDbEntity
  8
Profil
100
AcDbVertex
100
AcDb2dVertex
 10
23.28613662719726
 20
-35.30967330932617
 30
0.0
  0
VERTEX
  5
1E1
330
101
100
AcDbEntity
  8
Profil
100
AcDbVertex
100
AcDb2dVertex
 10
23.19273567199707
 20
-35.50465774536133
 30
0.0
  0
VERTEX
  5
1E2
330
101
100
AcDbEntity
  8
Profil
100
AcDbVertex
100
AcDb2dVertex
 10
23.1059684753418
 20
-35.70389938354492
 30
0.0
  0
VERTEX
  5
1E3
330
101
100
AcDbEntity
  8
Profil
100
AcDbVertex
100
AcDb2dVertex
 10
21.4093074798584
 20
-39.79999923706055
 30
0.0
  0
VERTEX
  5
1E4
330
101
100
AcDbEntity
  8
Profil
100
AcDbVertex
100
AcDb2dVertex
 10
6.590692520141601
 20
-39.79999923706055
 30
0.0
  0
VERTEX
  5
1E5
330
101
100
AcDbEntity
  8
Profil
100
AcDbVertex
100
AcDb2dVertex
 10
4.894032001495361
 20
-35.70389938354492
 30
0.0
  0
VERTEX
  5
1E6
330
101
100
AcDbEntity
  8
Profil
100
AcDbVertex
100
AcDb2dVertex
 10
4.805408000946044
 20
-35.5005989074707
 30
0.0
  0
VERTEX
  5
1E7
330
101
100
AcDbEntity
  8
Profil
100
AcDbVertex
100
AcDb2dVertex
 10
4.709889411926269
 20
-35.30175018310547
 30
0.0
  0
VERTEX
  5
1E8
330
101
100
AcDbEntity
  8
Profil
100
AcDbVertex
100
AcDb2dVertex
 10
4.607649803161621
 20
-35.10748672485352
 30
0.0
  0
VERTEX
  5
1E9
330
101
100
AcDbEntity
  8
Profil
100
AcDbVertex
100
AcDb2dVertex
 10
4.498862266540527
 20
-34.91791915893555
 30
0.0
  0
VERTEX
  5
1EA
330
101
100
AcDbEntity
  8
Profil
100
AcDbVertex
100
AcDb2dVertex
 10
4.383701801300048
 20
-34.73317337036133
 30
0.0
  0
VERTEX
  5
1EB
330
101
100
AcDbEntity
  8
Profil
100
AcDbVertex
100
AcDb2dVertex
 10
4.262341499328613
 20
-34.55335998535157
 30
0.0
  0
VERTEX
  5
1EC
330
101
100
AcDbEntity
  8
Profil
100
AcDbVertex
100
AcDb2dVertex
 10
4.134954929351806
 20
-34.37860488891602
 30
0.0
  0
VERTEX
  5
1ED
330
101
100
AcDbEntity
  8
Profil
100
AcDbVertex
100
AcDb2dVertex
 10
4.001715660095214
 20
-34.20902633666992
 30
0.0
  0
VERTEX
  5
1EE
330
101
100
AcDbEntity
  8
Profil
100
AcDbVertex
100
AcDb2dVertex
 10
3.862798690795898
 20
-34.04474258422852
 30
0.0
  0
VERTEX
  5
1EF
330
101
100
AcDbEntity
  8
Profil
100
AcDbVertex
100
AcDb2dVertex
 10
3.718376636505126
 20
-33.8858757019043
 30
0.0
  0
VERTEX
  5
1F0
330
101
100
AcDbEntity
  8
Profil
100
AcDbVertex
100
AcDb2dVertex
 10
3.568622827529907
 20
-33.73254013061524
 30
0.0
  0
VERTEX
  5
1F1
330
101
100
AcDbEntity
  8
Profil
100
AcDbVertex
100
AcDb2dVertex
 10
3.413712263107299
 20
-33.58485412597656
 30
0.0
  0
VERTEX
  5
1F2
330
101
100
AcDbEntity
  8
Profil
100
AcDbVertex
100
AcDb2dVertex
 10
3.253817796707153
 20
-33.44294357299805
 30
0.0
  0
VERTEX
  5
1F3
330
101
100
AcDbEntity
  8
Profil
100
AcDbVertex
100
AcDb2dVertex
 10
3.089113235473632
 20
-33.30692291259766
 30
0.0
  0
VERTEX
  5
1F4
330
101
100
AcDbEntity
  8
Profil
100
AcDbVertex
100
AcDb2dVertex
 10
2.919772624969482
 20
-33.17691421508789
 30
0.0
  0
VERTEX
  5
1F5
330
101
100
AcDbEntity
  8
Profil
100
AcDbVertex
100
AcDb2dVertex
 10
2.745969772338867
 20
-33.05302810668945
 30
0.0
  0
VERTEX
  5
1F6
330
101
100
AcDbEntity
  8
Profil
100
AcDbVertex
100
AcDb2dVertex
 10
2.567878007888793
 20
-32.93539428710938
 30
0.0
  0
VERTEX
  5
1F7
330
101
100
AcDbEntity
  8
Profil
100
AcDbVertex
100
AcDb2dVertex
 10
2.385671138763427
 20
-32.82413482666016
 30
0.0
  0
VERTEX
  5
1F8
330
101
100
AcDbEntity
  8
Profil
100
AcDbVertex
100
AcDb2dVertex
 10
2.199523448944091
 20
-32.71935272216797
 30
0.0
  0
VERTEX
  5
1F9
330
101
100
AcDbEntity
  8
Profil
100
AcDbVertex
100
AcDb2dVertex
 10
2.009608268737792
 20
-32.62118530273438
 30
0.0
  0
VERTEX
  5
1FA
330
101
100
AcDbEntity
  8
Profil
100
AcDbVertex
100
AcDb2dVertex
 10
1.816098928451538
 20
-32.52973937988282
 30
0.0
  0
VERTEX
  5
1FB
330
101
100
AcDbEntity
  8
Profil
100
AcDbVertex
100
AcDb2dVertex
 10
1.619169831275939
 20
-32.44514465332031
 30
0.0
  0
VERTEX
  5
1FC
330
101
100
AcDbEntity
  8
Profil
100
AcDbVertex
100
AcDb2dVertex
 10
1.418994426727294
 20
-32.36750793457031
 30
0.0
  0
VERTEX
  5
1FD
330
101
100
AcDbEntity
  8
Profil
100
AcDbVertex
100
AcDb2dVertex
 10
1.215746402740478
 20
-32.29695510864258
 30
0.0
  0
VERTEX
  5
1FE
330
101
100
AcDbEntity
  8
Profil
100
AcDbVertex
100
AcDb2dVertex
 10
1.009599804878234
 20
-32.23360824584961
 30
0.0
  0
VERTEX
  5
1FF
330
101
100
AcDbEntity
  8
Profil
100
AcDbVertex
100
AcDb2dVertex
 10
0.8007279634475708
 20
-32.17758178710937
 30
0.0
  0
VERTEX
  5
200
330
101
100
AcDbEntity
  8
Profil
100
AcDbVertex
100
AcDb2dVertex
 10
0.5893047451972962
 20
-32.12899398803711
 30
0.0
  0
VERTEX
  5
201
330
101
100
AcDbEntity
  8
Profil
100
AcDbVertex
100
AcDb2dVertex
 10
0.3755040168762207
 20
-32.08797073364258
 30
0.0
  0
VERTEX
  5
202
330
101
100
AcDbEntity
  8
Profil
100
AcDbVertex
100
AcDb2dVertex
 10
0.1594995260238647
 20
-32.05462265014649
 30
0.0
  0
VERTEX
  5
203
330
101
100
AcDbEntity
  8
Profil
100
AcDbVertex
100
AcDb2dVertex
 10
-0.0585352182388306
 20
-32.02907943725586
 30
0.0
  0
VERTEX
  5
204
330
101
100
AcDbEntity
  8
Profil
100
AcDbVertex
100
AcDb2dVertex
 10
-0.2784262895584106
 20
-32.01144790649414
 30
0.0
  0
VERTEX
  5
205
330
101
100
AcDbEntity
  8
Profil
100
AcDbVertex
100
AcDb2dVertex
 10
-0.5
 20
-32.00185775756836
 30
0.0
  0
VERTEX
  5
206
330
101
100
AcDbEntity
  8
Profil
100
AcDbVertex
100
AcDb2dVertex
 10
-0.5
 20
-30.10000038146973
 30
0.0
  0
VERTEX
  5
207
330
101
100
AcDbEntity
  8
Profil
100
AcDbVertex
100
AcDb2dVertex
 10
2.0
 20
-30.10000038146973
 30
0.0
  0
VERTEX
  5
208
330
101
100
AcDbEntity
  8
Profil
100
AcDbVertex
100
AcDb2dVertex
 10
2.0
 20
-28.10000038146973
 30
0.0
  0
VERTEX
  5
209
330
101
100
AcDbEntity
  8
Profil
100
AcDbVertex
100
AcDb2dVertex
 10
-0.5
 20
-28.10000038146973
 30
0.0
  0
VERTEX
  5
20A
330
101
100
AcDbEntity
  8
Profil
100
AcDbVertex
100
AcDb2dVertex
 10
-0.5
 20
-26.66118049621582
 30
0.0
  0
VERTEX
  5
20B
330
101
100
AcDbEntity
  8
Profil
100
AcDbVertex
100
AcDb2dVertex
 10
-3.5
 20
-26.66118049621582
 30
0.0
  0
VERTEX
  5
20C
330
101
100
AcDbEntity
  8
Profil
100
AcDbVertex
100
AcDb2dVertex
 10
-3.5
 20
-28.10000038146973
 30
0.0
  0
VERTEX
  5
20D
330
101
100
AcDbEntity
  8
Profil
100
AcDbVertex
100
AcDb2dVertex
 10
-6.0
 20
-28.10000038146973
 30
0.0
  0
VERTEX
  5
20E
330
101
100
AcDbEntity
  8
Profil
100
AcDbVertex
100
AcDb2dVertex
 10
-6.0
 20
-30.10000038146973
 30
0.0
  0
VERTEX
  5
20F
330
101
100
AcDbEntity
  8
Profil
100
AcDbVertex
100
AcDb2dVertex
 10
-3.5
 20
-30.10000038146973
 30
0.0
  0
VERTEX
  5
210
330
101
100
AcDbEntity
  8
Profil
100
AcDbVertex
100
AcDb2dVertex
 10
-3.5
 20
-32.00185775756836
 30
0.0
  0
VERTEX
  5
211
330
101
100
AcDbEntity
  8
Profil
100
AcDbVertex
100
AcDb2dVertex
 10
-3.721573591232299
 20
-32.01144790649414
 30
0.0
  0
VERTEX
  5
212
330
101
100
AcDbEntity
  8
Profil
100
AcDbVertex
100
AcDb2dVertex
 10
-3.941464662551879
 20
-32.02907562255859
 30
0.0
  0
VERTEX
  5
213
330
101
100
AcDbEntity
  8
Profil
100
AcDbVertex
100
AcDb2dVertex
 10
-4.159499168395996
 20
-32.05462646484375
 30
0.0
  0
VERTEX
  5
214
330
101
100
AcDbEntity
  8
Profil
100
AcDbVertex
100
AcDb2dVertex
 10
-4.37550401687622
 20
-32.08796691894531
 30
0.0
  0
VERTEX
  5
215
330
101
100
AcDbEntity
  8
Profil
100
AcDbVertex
100
AcDb2dVertex
 10
-4.58930492401123
 20
-32.12899780273438
 30
0.0
  0
VERTEX
  5
216
330
101
100
AcDbEntity
  8
Profil
100
AcDbVertex
100
AcDb2dVertex
 10
-4.800727844238281
 20
-32.17758178710937
 30
0.0
  0
VERTEX
  5
217
330
101
100
AcDbEntity
  8
Profil
100
AcDbVertex
100
AcDb2dVertex
 10
-5.009600162506103
 20
-32.23360443115235
 30
0.0
  0
VERTEX
  5
218
330
101
100
AcDbEntity
  8
Profil
100
AcDbVertex
100
AcDb2dVertex
 10
-5.215746879577636
 20
-32.29695892333984
 30
0.0
  0
VERTEX
  5
219
330
101
100
AcDbEntity
  8
Profil
100
AcDbVertex
100
AcDb2dVertex
 10
-5.418994426727294
 20
-32.36750793457031
 30
0.0
  0
VERTEX
  5
21A
330
101
100
AcDbEntity
  8
Profil
100
AcDbVertex
100
AcDb2dVertex
 10
-5.61916971206665
 20
-32.44514083862305
 30
0.0
  0
VERTEX
  5
21B
330
101
100
AcDbEntity
  8
Profil
100
AcDbVertex
100
AcDb2dVertex
 10
-5.816099166870117
 20
-32.52974319458008
 30
0.0
  0
VERTEX
  5
21C
330
101
100
AcDbEntity
  8
Profil
100
AcDbVertex
100
AcDb2dVertex
 10
-6.009607791900634
 20
-32.62118530273438
 30
0.0
  0
VERTEX
  5
21D
330
101
100
AcDbEntity
  8
Profil
100
AcDbVertex
100
AcDb2dVertex
 10
-6.199523448944091
 20
-32.71935653686524
 30
0.0
  0
VERTEX
  5
21E
330
101
100
AcDbEntity
  8
Profil
100
AcDbVertex
100
AcDb2dVertex
 10
-6.385671138763427
 20
-32.82413482666016
 30
0.0
  0
VERTEX
  5
21F
330
101
100
AcDbEntity
  8
Profil
100
AcDbVertex
100
AcDb2dVertex
 10
-6.567877769470214
 20
-32.93539810180664
 30
0.0
  0
VERTEX
  5
220
330
101
100
AcDbEntity
  8
Profil
100
AcDbVertex
100
AcDb2dVertex
 10
-6.745969772338867
 20
-33.05302810668945
 30
0.0
  0
VERTEX
  5
221
330
101
100
AcDbEntity
  8
Profil
100
AcDbVertex
100
AcDb2dVertex
 10
-6.91977310180664
 20
-33.17691040039063
 30
0.0
  0
VERTEX
  5
222
330
101
100
AcDbEntity
  8
Profil
100
AcDbVertex
100
AcDb2dVertex
 10
-7.089113235473632
 20
-33.30692291259766
 30
0.0
  0
VERTEX
  5
223
330
101
100
AcDbEntity
  8
Profil
100
AcDbVertex
100
AcDb2dVertex
 10
-7.253817558288574
 20
-33.44293975830078
 30
0.0
  0
VERTEX
  5
224
330
101
100
AcDbEntity
  8
Profil
100
AcDbVertex
100
AcDb2dVertex
 10
-7.413711547851562
 20
-33.58485412597656
 30
0.0
  0
VERTEX
  5
225
330
101
100
AcDbEntity
  8
Profil
100
AcDbVertex
100
AcDb2dVertex
 10
-7.568622589111328
 20
-33.73253631591797
 30
0.0
  0
VERTEX
  5
226
330
101
100
AcDbEntity
  8
Profil
100
AcDbVertex
100
AcDb2dVertex
 10
-7.718376636505126
 20
-33.88587188720703
 30
0.0
  0
VERTEX
  5
227
330
101
100
AcDbEntity
  8
Profil
100
AcDbVertex
100
AcDb2dVertex
 10
-7.862798690795898
 20
-34.04474258422852
 30
0.0
  0
VERTEX
  5
228
330
101
100
AcDbEntity
  8
Profil
100
AcDbVertex
100
AcDb2dVertex
 10
-8.001716613769531
 20
-34.20903015136719
 30
0.0
  0
VERTEX
  5
229
330
101
100
AcDbEntity
  8
Profil
100
AcDbVertex
100
AcDb2dVertex
 10
-8.134954452514648
 20
-34.37860870361328
 30
0.0
  0
VERTEX
  5
22A
330
101
100
AcDbEntity
  8
Profil
100
AcDbVertex
100
AcDb2dVertex
 10
-8.262341499328613
 20
-34.55335998535157
 30
0.0
  0
VERTEX
  5
22B
330
101
100
AcDbEntity
  8
Profil
100
AcDbVertex
100
AcDb2dVertex
 10
-8.383702278137207
 20
-34.73317337036133
 30
0.0
  0
VERTEX
  5
22C
330
101
100
AcDbEntity
  8
Profil
100
AcDbVertex
100
AcDb2dVertex
 10
-8.498862266540527
 20
-34.91791915893555
 30
0.0
  0
VERTEX
  5
22D
330
101
100
AcDbEntity
  8
Profil
100
AcDbVertex
100
AcDb2dVertex
 10
-8.607649803161621
 20
-35.10748672485352
 30
0.0
  0
VERTEX
  5
22E
330
101
100
AcDbEntity
  8
Profil
100
AcDbVertex
100
AcDb2dVertex
 10
-8.709889411926269
 20
-35.30175018310547
 30
0.0
  0
VERTEX
  5
22F
330
101
100
AcDbEntity
  8
Profil
100
AcDbVertex
100
AcDb2dVertex
 10
-8.805408477783203
 20
-35.50059509277344
 30
0.0
  0
VERTEX
  5
230
330
101
100
AcDbEntity
  8
Profil
100
AcDbVertex
100
AcDb2dVertex
 10
-8.894032478332519
 20
-35.70389938354492
 30
0.0
  0
VERTEX
  5
231
330
101
100
AcDbEntity
  8
Profil
100
AcDbVertex
100
AcDb2dVertex
 10
-10.5906925201416
 20
-39.79999923706055
 30
0.0
  0
VERTEX
  5
232
330
101
100
AcDbEntity
  8
Profil
100
AcDbVertex
100
AcDb2dVertex
 10
-25.4093074798584
 20
-39.79999923706055
 30
0.0
  0
VERTEX
  5
233
330
101
100
AcDbEntity
  8
Profil
100
AcDbVertex
100
AcDb2dVertex
 10
-27.1059684753418
 20
-35.70389938354492
 30
0.0
  0
VERTEX
  5
234
330
101
100
AcDbEntity
  8
Profil
100
AcDbVertex
100
AcDb2dVertex
 10
-27.19273567199707
 20
-35.50466156005859
 30
0.0
  0
VERTEX
  5
235
330
101
100
AcDbEntity
  8
Profil
100
AcDbVertex
100
AcDb2dVertex
 10
-27.2861385345459
 20
-35.30966949462891
 30
0.0
  0
VERTEX
  5
236
330
101
100
AcDbEntity
  8
Profil
100
AcDbVertex
100
AcDb2dVertex
 10
-27.38601493835449
 20
-35.11906051635742
 30
0.0
  0
VERTEX
  5
237
330
101
100
AcDbEntity
  8
Profil
100
AcDbVertex
100
AcDb2dVertex
 10
-27.49220275878907
 20
-34.93292999267578
 30
0.0
  0
VERTEX
  5
238
330
101
100
AcDbEntity
  8
Profil
100
AcDbVertex
100
AcDb2dVertex
 10
-27.60453796386719
 20
-34.75140762329102
 30
0.0
  0
VERTEX
  5
239
330
101
100
AcDbEntity
  8
Profil
100
AcDbVertex
100
AcDb2dVertex
 10
-27.72286033630371
 20
-34.57459259033203
 30
0.0
  0
VERTEX
  5
23A
330
101
100
AcDbEntity
  8
Profil
100
AcDbVertex
100
AcDb2dVertex
 10
-27.84700775146485
 20
-34.40260696411133
 30
0.0
  0
VERTEX
  5
23B
330
101
100
AcDbEntity
  8
Profil
100
AcDbVertex
100
AcDb2dVertex
 10
-27.97680854797363
 20
-34.23556518554688
 30
0.0
  0
VERTEX
  5
23C
330
101
100
AcDbEntity
  8
Profil
100
AcDbVertex
100
AcDb2dVertex
 10
-28.11211395263672
 20
-34.07358551025391
 30
0.0
  0
VERTEX
  5
23D
330
101
100
AcDbEntity
  8
Profil
100
AcDbVertex
100
AcDb2dVertex
 10
-28.25275230407715
 20
-33.91677093505859
 30
0.0
  0
VERTEX
  5
23E
330
101
100
AcDbEntity
  8
Profil
100
AcDbVertex
100
AcDb2dVertex
 10
-28.39856147766113
 20
-33.76524353027344
 30
0.0
  0
VERTEX
  5
23F
330
101
100
AcDbEntity
  8
Profil
100
AcDbVertex
100
AcDb2dVertex
 10
-28.54938507080078
 20
-33.61911773681641
 30
0.0
  0
VERTEX
  5
240
330
101
100
AcDbEntity
  8
Profil
100
AcDbVertex
100
AcDb2dVertex
 10
-28.70504951477051
 20
-33.4785041809082
 30
0.0
  0
VERTEX
  5
241
330
101
100
AcDbEntity
  8
Profil
100
AcDbVertex
100
AcDb2dVertex
 10
-28.86540031433106
 20
-33.3435173034668
 30
0.0
  0
VERTEX
  5
242
330
101
100
AcDbEntity
  8
Profil
100
AcDbVertex
100
AcDb2dVertex
 10
-29.19950675964356
 20
-33.09089279174805
 30
0.0
  0
VERTEX
  5
243
330
101
100
AcDbEntity
  8
Profil
100
AcDbVertex
100
AcDb2dVertex
 10
-29.55039978027344
 20
-32.86215591430664
 30
0.0
  0
VERTEX
  5
244
330
101
100
AcDbEntity
  8
Profil
100
AcDbVertex
100
AcDb2dVertex
 10
-29.73173332214356
 20
-32.75703048706055
 30
0.0
  0
VERTEX
  5
245
330
101
100
AcDbEntity
  8
Profil
100
AcDbVertex
100
AcDb2dVertex
 10
-29.91677474975586
 20
-32.65821838378907
 30
0.0
  0
VERTEX
  5
246
330
101
100
AcDbEntity
  8
Profil
100
AcDbVertex
100
AcDb2dVertex
 10
-30.10536575317383
 20
-32.56583404541016
 30
0.0
  0
VERTEX
  5
247
330
101
100
AcDbEntity
  8
Profil
100
AcDbVertex
100
AcDb2dVertex
 10
-30.29733467102051
 20
-32.47999572753907
 30
0.0
  0
VERTEX
  5
248
330
101
100
AcDbEntity
  8
Profil
100
AcDbVertex
100
AcDb2dVertex
 10
-30.49252700805664
 20
-32.40081405639648
 30
0.0
  0
VERTEX
  5
249
330
101
100
AcDbEntity
  8
Profil
100
AcDbVertex
100
AcDb2dVertex
 10
-30.69077491760254
 20
-32.32840347290039
 30
0.0
  0
VERTEX
  5
24A
330
101
100
AcDbEntity
  8
Profil
100
AcDbVertex
100
AcDb2dVertex
 10
-30.89192008972168
 20
-32.26287841796875
 30
0.0
  0
VERTEX
  5
24B
330
101
100
AcDbEntity
  8
Profil
100
AcDbVertex
100
AcDb2dVertex
 10
-31.09579658508301
 20
-32.2043571472168
 30
0.0
  0
VERTEX
  5
24C
330
101
100
AcDbEntity
  8
Profil
100
AcDbVertex
100
AcDb2dVertex
 10
-31.30224227905273
 20
-32.15294647216797
 30
0.0
  0
VERTEX
  5
24D
330
101
100
AcDbEntity
  8
Profil
100
AcDbVertex
100
AcDb2dVertex
 10
-31.5110969543457
 20
-32.10876846313477
 30
0.0
  0
VERTEX
  5
24E
330
101
100
AcDbEntity
  8
Profil
100
AcDbVertex
100
AcDb2dVertex
 10
-31.72219467163086
 20
-32.07193374633789
 30
0.0
  0
VERTEX
  5
24F
330
101
100
AcDbEntity
  8
Profil
100
AcDbVertex
100
AcDb2dVertex
 10
-31.93537521362305
 20
-32.04255294799805
 30
0.0
  0
VERTEX
  5
250
330
101
100
AcDbEntity
  8
Profil
100
AcDbVertex
100
AcDb2dVertex
 10
-32.15047454833984
 20
-32.02074432373047
 30
0.0
  0
VERTEX
  5
251
330
101
100
AcDbEntity
  8
Profil
100
AcDbVertex
100
AcDb2dVertex
 10
-32.36732864379883
 20
-32.00662612915039
 30
0.0
  0
VERTEX
  5
252
330
101
100
AcDbEntity
  8
Profil
100
AcDbVertex
100
AcDb2dVertex
 10
-39.79999923706055
 20
-32.0
 30
0.0
  0
VERTEX
  5
253
330
101
100
AcDbEntity
  8
Profil
100
AcDbVertex
100
AcDb2dVertex
 10
-39.79999923706055
 20
-6.590692520141601
 30
0.0
  0
VERTEX
  5
254
330
101
100
AcDbEntity
  8
Profil
100
AcDbVertex
100
AcDb2dVertex
 10
-35.70389938354492
 20
-4.894032001495361
 30
0.0
  0
VERTEX
  5
255
330
101
100
AcDbEntity
  8
Profil
100
AcDbVertex
100
AcDb2dVertex
 10
-35.36089706420899
 20
-4.739213466644287
 30
0.0
  0
VERTEX
  5
256
330
101
100
AcDbEntity
  8
Profil
100
AcDbVertex
100
AcDb2dVertex
 10
-35.03055572509766
 20
-4.56451416015625
 30
0.0
  0
VERTEX
  5
257
330
101
100
AcDbEntity
  8
Profil
100
AcDbVertex
100
AcDb2dVertex
 10
-34.71354293823242
 20
-4.370750904083251
 30
0.0
  0
VERTEX
  5
258
330
101
100
AcDbEntity
  8
Profil
100
AcDbVertex
100
AcDb2dVertex
 10
-34.41051864624024
 20
-4.158743858337402
 30
0.0
  0
VERTEX
  5
259
330
101
100
AcDbEntity
  8
Profil
100
AcDbVertex
100
AcDb2dVertex
 10
-34.12215805053711
 20
-3.929312467575073
 30
0.0
  0
VERTEX
  5
25A
330
101
100
AcDbEntity
  8
Profil
100
AcDbVertex
100
AcDb2dVertex
 10
-33.8491325378418
 20
-3.683274269104003
 30
0.0
  0
VERTEX
  5
25B
330
101
100
AcDbEntity
  8
Profil
100
AcDbVertex
100
AcDb2dVertex
 10
-33.59210205078125
 20
-3.421448707580566
 30
0.0
  0
VERTEX
  5
25C
330
101
100
AcDbEntity
  8
Profil
100
AcDbVertex
100
AcDb2dVertex
 10
-33.35174179077148
 20
-3.144654989242553
 30
0.0
  0
VERTEX
  5
25D
330
101
100
AcDbEntity
  8
Profil
100
AcDbVertex
100
AcDb2dVertex
 10
-33.12871551513672
 20
-2.853711366653442
 30
0.0
  0
VERTEX
  5
25E
330
101
100
AcDbEntity
  8
Profil
100
AcDbVertex
100
AcDb2dVertex
 10
-32.9236946105957
 20
-2.549436807632446
 30
0.0
  0
VERTEX
  5
25F
330
101
100
AcDbEntity
  8
Profil
100
AcDbVertex
100
AcDb2dVertex
 10
-32.73735046386719
 20
-2.2326500415802
 30
0.0
  0
VERTEX
  5
260
330
101
100
AcDbEntity
  8
Profil
100
AcDbVertex
100
AcDb2dVertex
 10
-32.57033920288086
 20
-1.904170513153076
 30
0.0
  0
VERTEX
  5
261
330
101
100
AcDbEntity
  8
Profil
100
AcDbVertex
100
AcDb2dVertex
 10
-32.42334365844727
 20
-1.564816713333129
 30
0.0
  0
VERTEX
  5
262
330
101
100
AcDbEntity
  8
Profil
100
AcDbVertex
100
AcDb2dVertex
 10
-32.29702377319336
 20
-1.215407252311706
 30
0.0
  0
VERTEX
  5
263
330
101
100
AcDbEntity
  8
Profil
100
AcDbVertex
100
AcDb2dVertex
 10
-32.19205093383789
 20
-0.8567612767219543
 30
0.0
  0
VERTEX
  5
264
330
101
100
AcDbEntity
  8
Profil
100
AcDbVertex
100
AcDb2dVertex
 10
-32.10909271240235
 20
-0.4896975457668305
 30
0.0
  0
VERTEX
  5
265
330
101
100
AcDbEntity
  8
Profil
100
AcDbVertex
100
AcDb2dVertex
 10
-32.10512161254883
 20
-0.4661527872085572
 30
0.0
  0
VERTEX
  5
266
330
101
100
AcDbEntity
  8
Profil
100
AcDbVertex
100
AcDb2dVertex
 10
-32.10227584838867
 20
-0.4424588084220887
 30
0.0
  0
VERTEX
  5
267
330
101
100
AcDbEntity
  8
Profil
100
AcDbVertex
100
AcDb2dVertex
 10
-32.10057067871094
 20
-0.4186562299728394
 30
0.0
  0
VERTEX
  5
268
330
101
100
AcDbEntity
  8
Profil
100
AcDbVertex
100
AcDb2dVertex
 10
-32.0999984741211
 20
-0.3947856724262237
 30
0.0
  0
VERTEX
  5
269
330
101
100
AcDbEntity
  8
Profil
100
AcDbVertex
100
AcDb2dVertex
 10
-32.0999984741211
 20
0.5
 30
0.0
  0
VERTEX
  5
26A
330
101
100
AcDbEntity
  8
Profil
100
AcDbVertex
100
AcDb2dVertex
 10
-30.66118049621582
 20
0.5
 30
0.0
  0
VERTEX
  5
26B
330
101
100
AcDbEntity
  8
Profil
100
AcDbVertex
100
AcDb2dVertex
 10
-30.66118049621582
 20
3.5
 30
0.0
  0
VERTEX
  5
26C
330
101
100
AcDbEntity
  8
Profil
100
AcDbVertex
100
AcDb2dVertex
 10
-32.0999984741211
 20
3.5
 30
0.0
  0
VERTEX
  5
26D
330
101
100
AcDbEntity
  8
Profil
100
AcDbVertex
100
AcDb2dVertex
 10
-32.0999984741211
 20
4.39478588104248
 30
0.0
  0
VERTEX
  5
26E
330
101
100
AcDbEntity
  8
Profil
100
AcDbVertex
100
AcDb2dVertex
 10
-32.10057067871094
 20
4.418656349182128
 30
0.0
  0
VERTEX
  5
26F
330
101
100
AcDbEntity
  8
Profil
100
AcDbVertex
100
AcDb2dVertex
 10
-32.10227584838867
 20
4.442459106445312
 30
0.0
  0
VERTEX
  5
270
330
101
100
AcDbEntity
  8
Profil
100
AcDbVertex
100
AcDb2dVertex
 10
-32.10512161254883
 20
4.466152667999267
 30
0.0
  0
VERTEX
  5
271
330
101
100
AcDbEntity
  8
Profil
100
AcDbVertex
100
AcDb2dVertex
 10
-32.10909271240235
 20
4.489697456359863
 30
0.0
  0
VERTEX
  5
272
330
101
100
AcDbEntity
  8
Profil
100
AcDbVertex
100
AcDb2dVertex
 10
-32.19205093383789
 20
4.856761455535888
 30
0.0
  0
VERTEX
  5
273
330
101
100
AcDbEntity
  8
Profil
100
AcDbVertex
100
AcDb2dVertex
 10
-32.29702758789063
 20
5.215407371520996
 30
0.0
  0
VERTEX
  5
274
330
101
100
AcDbEntity
  8
Profil
100
AcDbVertex
100
AcDb2dVertex
 10
-32.42334365844727
 20
5.56481647491455
 30
0.0
  0
VERTEX
  5
275
330
101
100
AcDbEntity
  8
Profil
100
AcDbVertex
100
AcDb2dVertex
 10
-32.57033920288086
 20
5.904170989990234
 30
0.0
  0
VERTEX
  5
276
330
101
100
AcDbEntity
  8
Profil
100
AcDbVertex
100
AcDb2dVertex
 10
-32.73735046386719
 20
6.232649803161621
 30
0.0
  0
VERTEX
  5
277
330
101
100
AcDbEntity
  8
Profil
100
AcDbVertex
100
AcDb2dVertex
 10
-32.9236946105957
 20
6.549436569213867
 30
0.0
  0
VERTEX
  5
278
330
101
100
AcDbEntity
  8
Profil
100
AcDbVertex
100
AcDb2dVertex
 10
-33.12871551513672
 20
6.853711128234863
 30
0.0
  0
VERTEX
  5
279
330
101
100
AcDbEntity
  8
Profil
100
AcDbVertex
100
AcDb2dVertex
 10
-33.35174179077148
 20
7.144654750823974
 30
0.0
  0
VERTEX
  5
27A
330
101
100
AcDbEntity
  8
Profil
100
AcDbVertex
100
AcDb2dVertex
 10
-33.59210205078125
 20
7.421449184417724
 30
0.0
  0
VERTEX
  5
27B
330
101
100
AcDbEntity
  8
Profil
100
AcDbVertex
100
AcDb2dVertex
 10
-33.84912872314453
 20
7.683274269104003
 30
0.0
  0
VERTEX
  5
27C
330
101
100
AcDbEntity
  8
Profil
100
AcDbVertex
100
AcDb2dVertex
 10
-34.12215805053711
 20
7.929312705993652
 30
0.0
  0
VERTEX
  5
27D
330
101
100
AcDbEntity
  8
Profil
100
AcDbVertex
100
AcDb2dVertex
 10
-34.41051864624024
 20
8.158743858337402
 30
0.0
  0
VERTEX
  5
27E
330
101
100
AcDbEntity
  8
Profil
100
AcDbVertex
100
AcDb2dVertex
 10
-34.71353912353516
 20
8.370750427246093
 30
0.0
  0
VERTEX
  5
27F
330
101
100
AcDbEntity
  8
Profil
100
AcDbVertex
100
AcDb2dVertex
 10
-35.03055572509766
 20
8.56451416015625
 30
0.0
  0
VERTEX
  5
280
330
101
100
AcDbEntity
  8
Profil
100
AcDbVertex
100
AcDb2dVertex
 10
-35.36090087890625
 20
8.739213943481445
 30
0.0
  0
VERTEX
  5
281
330
101
100
AcDbEntity
  8
Profil
100
AcDbVertex
100
AcDb2dVertex
 10
-35.70389938354492
 20
8.894032478332519
 30
0.0
  0
VERTEX
  5
282
330
101
100
AcDbEntity
  8
Profil
100
AcDbVertex
100
AcDb2dVertex
 10
-39.79999923706055
 20
10.5906925201416
 30
0.0
  0
VERTEX
  5
283
330
101
100
AcDbEntity
  8
Profil
100
AcDbVertex
100
AcDb2dVertex
 10
-39.79999923706055
 20
39.79999923706055
 30
0.0
  0
SEQEND
  5
451
330
101
100
AcDbEntity
  8
Profil
  0
POLYLINE
  5
284
330
1F
100
AcDbEntity
  8
Profil
100
AcDb2dPolyline
 66
     1
 10
0.0
 20
0.0
 30
0.0
 70
     1
  0
VERTEX
  5
285
330
284
100
AcDbEntity
  8
Profil
100
AcDbVertex
100
AcDb2dVertex
 10
-4.150000095367431
 20
42.0
 30
0.0
  0
VERTEX
  5
286
330
284
100
AcDbEntity
  8
Profil
100
AcDbVertex
100
AcDb2dVertex
 10
-4.150000095367431
 20
39.90000152587891
 30
0.0
  0
VERTEX
  5
287
330
284
100
AcDbEntity
  8
Profil
100
AcDbVertex
100
AcDb2dVertex
 10
-8.467329978942871
 20
39.90000152587891
 30
0.0
  0
VERTEX
  5
288
330
284
100
AcDbEntity
  8
Profil
100
AcDbVertex
100
AcDb2dVertex
 10
-7.046273231506347
 20
36.46926498413086
 30
0.0
  0
VERTEX
  5
289
330
284
100
AcDbEntity
  8
Profil
100
AcDbVertex
100
AcDb2dVertex
 10
-6.985791683197021
 20
36.33067321777344
 30
0.0
  0
VERTEX
  5
28A
330
284
100
AcDbEntity
  8
Profil
100
AcDbVertex
100
AcDb2dVertex
 10
-6.920516490936279
 20
36.19521713256836
 30
0.0
  0
VERTEX
  5
28B
330
284
100
AcDbEntity
  8
Profil
100
AcDbVertex
100
AcDb2dVertex
 10
-6.85057258605957
 20
36.06296920776367
 30
0.0
  0
VERTEX
  5
28C
330
284
100
AcDbEntity
  8
Profil
100
AcDbVertex
100
AcDb2dVertex
 10
-6.77608299255371
 20
35.93402099609375
 30
0.0
  0
VERTEX
  5
28D
330
284
100
AcDbEntity
  8
Profil
100
AcDbVertex
100
AcDb2dVertex
 10
-6.697172164916992
 20
35.80845260620117
 30
0.0
  0
VERTEX
  5
28E
330
284
100
AcDbEntity
  8
Profil
100
AcDbVertex
100
AcDb2dVertex
 10
-6.613966464996337
 20
35.68635177612305
 30
0.0
  0
VERTEX
  5
28F
330
284
100
AcDbEntity
  8
Profil
100
AcDbVertex
100
AcDb2dVertex
 10
-6.526589393615722
 20
35.56779479980469
 30
0.0
  0
VERTEX
  5
290
330
284
100
AcDbEntity
  8
Profil
100
AcDbVertex
100
AcDb2dVertex
 10
-6.435165405273437
 20
35.45286560058594
 30
0.0
  0
VERTEX
  5
291
330
284
100
AcDbEntity
  8
Profil
100
AcDbVertex
100
AcDb2dVertex
 10
-6.339819908142089
 20
35.34165573120117
 30
0.0
  0
VERTEX
  5
292
330
284
100
AcDbEntity
  8
Profil
100
AcDbVertex
100
AcDb2dVertex
 10
-6.240675926208496
 20
35.23423767089844
 30
0.0
  0
VERTEX
  5
293
330
284
100
AcDbEntity
  8
Profil
100
AcDbVertex
100
AcDb2dVertex
 10
-6.137859344482421
 20
35.13069915771485
 30
0.0
  0
VERTEX
  5
294
330
284
100
AcDbEntity
  8
Profil
100
AcDbVertex
100
AcDb2dVertex
 10
-6.031493663787841
 20
35.03112411499023
 30
0.0
  0
VERTEX
  5
295
330
284
100
AcDbEntity
  8
Profil
100
AcDbVertex
100
AcDb2dVertex
 10
-5.921703815460205
 20
34.93560028076172
 30
0.0
  0
VERTEX
  5
296
330
284
100
AcDbEntity
  8
Profil
100
AcDbVertex
100
AcDb2dVertex
 10
-5.80861473083496
 20
34.84420013427734
 30
0.0
  0
VERTEX
  5
297
330
284
100
AcDbEntity
  8
Profil
100
AcDbVertex
100
AcDb2dVertex
 10
-5.6923508644104
 20
34.75701141357422
 30
0.0
  0
VERTEX
  5
298
330
284
100
AcDbEntity
  8
Profil
100
AcDbVertex
100
AcDb2dVertex
 10
-5.573035717010498
 20
34.67412185668945
 30
0.0
  0
VERTEX
  5
299
330
284
100
AcDbEntity
  8
Profil
100
AcDbVertex
100
AcDb2dVertex
 10
-5.450795650482177
 20
34.59561157226563
 30
0.0
  0
VERTEX
  5
29A
330
284
100
AcDbEntity
  8
Profil
100
AcDbVertex
100
AcDb2dVertex
 10
-5.325754165649414
 20
34.52156066894531
 30
0.0
  0
VERTEX
  5
29B
330
284
100
AcDbEntity
  8
Profil
100
AcDbVertex
100
AcDb2dVertex
 10
-5.198034763336181
 20
34.45205688476562
 30
0.0
  0
VERTEX
  5
29C
330
284
100
AcDbEntity
  8
Profil
100
AcDbVertex
100
AcDb2dVertex
 10
-5.067763328552246
 20
34.38718414306641
 30
0.0
  0
VERTEX
  5
29D
330
284
100
AcDbEntity
  8
Profil
100
AcDbVertex
100
AcDb2dVertex
 10
-4.93506383895874
 20
34.32701873779297
 30
0.0
  0
VERTEX
  5
29E
330
284
100
AcDbEntity
  8
Profil
100
AcDbVertex
100
AcDb2dVertex
 10
-4.800062179565429
 20
34.27164840698242
 30
0.0
  0
VERTEX
  5
29F
330
284
100
AcDbEntity
  8
Profil
100
AcDbVertex
100
AcDb2dVertex
 10
-4.662880897521972
 20
34.22116088867188
 30
0.0
  0
VERTEX
  5
2A0
330
284
100
AcDbEntity
  8
Profil
100
AcDbVertex
100
AcDb2dVertex
 10
-4.523645401000976
 20
34.17562866210938
 30
0.0
  0
VERTEX
  5
2A1
330
284
100
AcDbEntity
  8
Profil
100
AcDbVertex
100
AcDb2dVertex
 10
-4.38248062133789
 20
34.13514709472656
 30
0.0
  0
VERTEX
  5
2A2
330
284
100
AcDbEntity
  8
Profil
100
AcDbVertex
100
AcDb2dVertex
 10
-4.239510536193847
 20
34.09979248046875
 30
0.0
  0
VERTEX
  5
2A3
330
284
100
AcDbEntity
  8
Profil
100
AcDbVertex
100
AcDb2dVertex
 10
-4.094859600067138
 20
34.06964492797852
 30
0.0
  0
VERTEX
  5
2A4
330
284
100
AcDbEntity
  8
Profil
100
AcDbVertex
100
AcDb2dVertex
 10
-3.948652744293212
 20
34.04479598999023
 30
0.0
  0
VERTEX
  5
2A5
330
284
100
AcDbEntity
  8
Profil
100
AcDbVertex
100
AcDb2dVertex
 10
-3.801014184951782
 20
34.02532196044922
 30
0.0
  0
VERTEX
  5
2A6
330
284
100
AcDbEntity
  8
Profil
100
AcDbVertex
100
AcDb2dVertex
 10
-3.652068853378295
 20
34.01131057739258
 30
0.0
  0
VERTEX
  5
2A7
330
284
100
AcDbEntity
  8
Profil
100
AcDbVertex
100
AcDb2dVertex
 10
-3.501940965652465
 20
34.00284194946289
 30
0.0
  0
VERTEX
  5
2A8
330
284
100
AcDbEntity
  8
Profil
100
AcDbVertex
100
AcDb2dVertex
 10
-3.350754976272583
 20
34.0
 30
0.0
  0
VERTEX
  5
2A9
330
284
100
AcDbEntity
  8
Profil
100
AcDbVertex
100
AcDb2dVertex
 10
-0.6492449641227723
 20
34.0
 30
0.0
  0
VERTEX
  5
2AA
330
284
100
AcDbEntity
  8
Profil
100
AcDbVertex
100
AcDb2dVertex
 10
-0.4980591833591462
 20
34.00284194946289
 30
0.0
  0
VERTEX
  5
2AB
330
284
100
AcDbEntity
  8
Profil
100
AcDbVertex
100
AcDb2dVertex
 10
-0.3479311466217041
 20
34.01131057739258
 30
0.0
  0
VERTEX
  5
2AC
330
284
100
AcDbEntity
  8
Profil
100
AcDbVertex
100
AcDb2dVertex
 10
-0.1989857405424118
 20
34.02531814575195
 30
0.0
  0
VERTEX
  5
2AD
330
284
100
AcDbEntity
  8
Profil
100
AcDbVertex
100
AcDb2dVertex
 10
-0.0513473451137543
 20
34.04479598999023
 30
0.0
  0
VERTEX
  5
2AE
330
284
100
AcDbEntity
  8
Profil
100
AcDbVertex
100
AcDb2dVertex
 10
0.0948595479130745
 20
34.06964492797852
 30
0.0
  0
VERTEX
  5
2AF
330
284
100
AcDbEntity
  8
Profil
100
AcDbVertex
100
AcDb2dVertex
 10
0.2395102977752685
 20
34.09979248046875
 30
0.0
  0
VERTEX
  5
2B0
330
284
100
AcDbEntity
  8
Profil
100
AcDbVertex
100
AcDb2dVertex
 10
0.3824804723262787
 20
34.13514709472656
 30
0.0
  0
VERTEX
  5
2B1
330
284
100
AcDbEntity
  8
Profil
100
AcDbVertex
100
AcDb2dVertex
 10
0.5236454606056214
 20
34.17562866210938
 30
0.0
  0
VERTEX
  5
2B2
330
284
100
AcDbEntity
  8
Profil
100
AcDbVertex
100
AcDb2dVertex
 10
0.6628807187080384
 20
34.22116088867188
 30
0.0
  0
VERTEX
  5
2B3
330
284
100
AcDbEntity
  8
Profil
100
AcDbVertex
100
AcDb2dVertex
 10
0.8000618815422058
 20
34.27164840698242
 30
0.0
  0
VERTEX
  5
2B4
330
284
100
AcDbEntity
  8
Profil
100
AcDbVertex
100
AcDb2dVertex
 10
0.9350642561912536
 20
34.32701873779297
 30
0.0
  0
VERTEX
  5
2B5
330
284
100
AcDbEntity
  8
Profil
100
AcDbVertex
100
AcDb2dVertex
 10
1.067763328552246
 20
34.38718032836914
 30
0.0
  0
VERTEX
  5
2B6
330
284
100
AcDbEntity
  8
Profil
100
AcDbVertex
100
AcDb2dVertex
 10
1.198034524917602
 20
34.45205688476562
 30
0.0
  0
VERTEX
  5
2B7
330
284
100
AcDbEntity
  8
Profil
100
AcDbVertex
100
AcDb2dVertex
 10
1.325753331184387
 20
34.52156066894531
 30
0.0
  0
VERTEX
  5
2B8
330
284
100
AcDbEntity
  8
Profil
100
AcDbVertex
100
AcDb2dVertex
 10
1.450795292854309
 20
34.59560775756836
 30
0.0
  0
VERTEX
  5
2B9
330
284
100
AcDbEntity
  8
Profil
100
AcDbVertex
100
AcDb2dVertex
 10
1.573035955429077
 20
34.67412185668945
 30
0.0
  0
VERTEX
  5
2BA
330
284
100
AcDbEntity
  8
Profil
100
AcDbVertex
100
AcDb2dVertex
 10
1.692350506782531
 20
34.75701141357422
 30
0.0
  0
VERTEX
  5
2BB
330
284
100
AcDbEntity
  8
Profil
100
AcDbVertex
100
AcDb2dVertex
 10
1.80861473083496
 20
34.84420013427734
 30
0.0
  0
VERTEX
  5
2BC
330
284
100
AcDbEntity
  8
Profil
100
AcDbVertex
100
AcDb2dVertex
 10
1.921703815460205
 20
34.93559265136719
 30
0.0
  0
VERTEX
  5
2BD
330
284
100
AcDbEntity
  8
Profil
100
AcDbVertex
100
AcDb2dVertex
 10
2.031493425369262
 20
35.0311279296875
 30
0.0
  0
VERTEX
  5
2BE
330
284
100
AcDbEntity
  8
Profil
100
AcDbVertex
100
AcDb2dVertex
 10
2.137858867645263
 20
35.13069915771485
 30
0.0
  0
VERTEX
  5
2BF
330
284
100
AcDbEntity
  8
Profil
100
AcDbVertex
100
AcDb2dVertex
 10
2.240675687789916
 20
35.23423385620117
 30
0.0
  0
VERTEX
  5
2C0
330
284
100
AcDbEntity
  8
Profil
100
AcDbVertex
100
AcDb2dVertex
 10
2.339819431304931
 20
35.34165191650391
 30
0.0
  0
VERTEX
  5
2C1
330
284
100
AcDbEntity
  8
Profil
100
AcDbVertex
100
AcDb2dVertex
 10
2.435165405273437
 20
35.45286560058594
 30
0.0
  0
VERTEX
  5
2C2
330
284
100
AcDbEntity
  8
Profil
100
AcDbVertex
100
AcDb2dVertex
 10
2.526589393615722
 20
35.56779479980469
 30
0.0
  0
VERTEX
  5
2C3
330
284
100
AcDbEntity
  8
Profil
100
AcDbVertex
100
AcDb2dVertex
 10
2.613966464996337
 20
35.68634796142578
 30
0.0
  0
VERTEX
  5
2C4
330
284
100
AcDbEntity
  8
Profil
100
AcDbVertex
100
AcDb2dVertex
 10
2.697172164916992
 20
35.80845642089844
 30
0.0
  0
VERTEX
  5
2C5
330
284
100
AcDbEntity
  8
Profil
100
AcDbVertex
100
AcDb2dVertex
 10
2.776082038879394
 20
35.93402099609375
 30
0.0
  0
VERTEX
  5
2C6
330
284
100
AcDbEntity
  8
Profil
100
AcDbVertex
100
AcDb2dVertex
 10
2.850571632385253
 20
36.06296920776367
 30
0.0
  0
VERTEX
  5
2C7
330
284
100
AcDbEntity
  8
Profil
100
AcDbVertex
100
AcDb2dVertex
 10
2.920516490936279
 20
36.19521331787109
 30
0.0
  0
VERTEX
  5
2C8
330
284
100
AcDbEntity
  8
Profil
100
AcDbVertex
100
AcDb2dVertex
 10
2.985791683197021
 20
36.33067321777344
 30
0.0
  0
VERTEX
  5
2C9
330
284
100
AcDbEntity
  8
Profil
100
AcDbVertex
100
AcDb2dVertex
 10
3.046273231506347
 20
36.46926498413086
 30
0.0
  0
VERTEX
  5
2CA
330
284
100
AcDbEntity
  8
Profil
100
AcDbVertex
100
AcDb2dVertex
 10
4.467329502105712
 20
39.90000152587891
 30
0.0
  0
VERTEX
  5
2CB
330
284
100
AcDbEntity
  8
Profil
100
AcDbVertex
100
AcDb2dVertex
 10
0.1500000059604645
 20
39.90000152587891
 30
0.0
  0
VERTEX
  5
2CC
330
284
100
AcDbEntity
  8
Profil
100
AcDbVertex
100
AcDb2dVertex
 10
0.1500000059604645
 20
42.0
 30
0.0
  0
VERTEX
  5
2CD
330
284
100
AcDbEntity
  8
Profil
100
AcDbVertex
100
AcDb2dVertex
 10
42.0
 20
42.0
 30
0.0
  0
VERTEX
  5
2CE
330
284
100
AcDbEntity
  8
Profil
100
AcDbVertex
100
AcDb2dVertex
 10
42.0
 20
36.15000152587891
 30
0.0
  0
VERTEX
  5
2CF
330
284
100
AcDbEntity
  8
Profil
100
AcDbVertex
100
AcDb2dVertex
 10
39.90000152587891
 20
36.15000152587891
 30
0.0
  0
VERTEX
  5
2D0
330
284
100
AcDbEntity
  8
Profil
100
AcDbVertex
100
AcDb2dVertex
 10
39.90000152587891
 20
40.0
 30
0.0
  0
VERTEX
  5
2D1
330
284
100
AcDbEntity
  8
Profil
100
AcDbVertex
100
AcDb2dVertex
 10
34.0
 20
40.0
 30
0.0
  0
VERTEX
  5
2D2
330
284
100
AcDbEntity
  8
Profil
100
AcDbVertex
100
AcDb2dVertex
 10
34.0
 20
35.18743515014648
 30
0.0
  0
VERTEX
  5
2D3
330
284
100
AcDbEntity
  8
Profil
100
AcDbVertex
100
AcDb2dVertex
 10
34.0
 20
32.64924621582031
 30
0.0
  0
VERTEX
  5
2D4
330
284
100
AcDbEntity
  8
Profil
100
AcDbVertex
100
AcDb2dVertex
 10
34.00284194946289
 20
32.49806213378906
 30
0.0
  0
VERTEX
  5
2D5
330
284
100
AcDbEntity
  8
Profil
100
AcDbVertex
100
AcDb2dVertex
 10
34.01131057739258
 20
32.34793090820313
 30
0.0
  0
VERTEX
  5
2D6
330
284
100
AcDbEntity
  8
Profil
100
AcDbVertex
100
AcDb2dVertex
 10
34.02531814575195
 20
32.19898986816406
 30
0.0
  0
VERTEX
  5
2D7
330
284
100
AcDbEntity
  8
Profil
100
AcDbVertex
100
AcDb2dVertex
 10
34.04479598999023
 20
32.05134582519531
 30
0.0
  0
VERTEX
  5
2D8
330
284
100
AcDbEntity
  8
Profil
100
AcDbVertex
100
AcDb2dVertex
 10
34.06964492797852
 20
31.90514183044434
 30
0.0
  0
VERTEX
  5
2D9
330
284
100
AcDbEntity
  8
Profil
100
AcDbVertex
100
AcDb2dVertex
 10
34.09979248046875
 20
31.76049041748047
 30
0.0
  0
VERTEX
  5
2DA
330
284
100
AcDbEntity
  8
Profil
100
AcDbVertex
100
AcDb2dVertex
 10
34.13514709472656
 20
31.61751937866211
 30
0.0
  0
VERTEX
  5
2DB
330
284
100
AcDbEntity
  8
Profil
100
AcDbVertex
100
AcDb2dVertex
 10
34.17562866210938
 20
31.47635650634766
 30
0.0
  0
VERTEX
  5
2DC
330
284
100
AcDbEntity
  8
Profil
100
AcDbVertex
100
AcDb2dVertex
 10
34.22116088867188
 20
31.33712005615234
 30
0.0
  0
VERTEX
  5
2DD
330
284
100
AcDbEntity
  8
Profil
100
AcDbVertex
100
AcDb2dVertex
 10
34.27164840698242
 20
31.19993972778321
 30
0.0
  0
VERTEX
  5
2DE
330
284
100
AcDbEntity
  8
Profil
100
AcDbVertex
100
AcDb2dVertex
 10
34.32701873779297
 20
31.06493759155274
 30
0.0
  0
VERTEX
  5
2DF
330
284
100
AcDbEntity
  8
Profil
100
AcDbVertex
100
AcDb2dVertex
 10
34.38718032836914
 20
30.93223953247071
 30
0.0
  0
VERTEX
  5
2E0
330
284
100
AcDbEntity
  8
Profil
100
AcDbVertex
100
AcDb2dVertex
 10
34.45205688476562
 20
30.80196571350098
 30
0.0
  0
VERTEX
  5
2E1
330
284
100
AcDbEntity
  8
Profil
100
AcDbVertex
100
AcDb2dVertex
 10
34.52156066894531
 20
30.67424774169922
 30
0.0
  0
VERTEX
  5
2E2
330
284
100
AcDbEntity
  8
Profil
100
AcDbVertex
100
AcDb2dVertex
 10
34.59560775756836
 20
30.54920196533203
 30
0.0
  0
VERTEX
  5
2E3
330
284
100
AcDbEntity
  8
Profil
100
AcDbVertex
100
AcDb2dVertex
 10
34.67412185668945
 20
30.42696380615235
 30
0.0
  0
VERTEX
  5
2E4
330
284
100
AcDbEntity
  8
Profil
100
AcDbVertex
100
AcDb2dVertex
 10
34.75701141357422
 20
30.30764961242676
 30
0.0
  0
VERTEX
  5
2E5
330
284
100
AcDbEntity
  8
Profil
100
AcDbVertex
100
AcDb2dVertex
 10
34.84420013427734
 20
30.19138336181641
 30
0.0
  0
VERTEX
  5
2E6
330
284
100
AcDbEntity
  8
Profil
100
AcDbVertex
100
AcDb2dVertex
 10
34.93559265136719
 20
30.07829856872559
 30
0.0
  0
VERTEX
  5
2E7
330
284
100
AcDbEntity
  8
Profil
100
AcDbVertex
100
AcDb2dVertex
 10
35.0311279296875
 20
29.96850776672363
 30
0.0
  0
VERTEX
  5
2E8
330
284
100
AcDbEntity
  8
Profil
100
AcDbVertex
100
AcDb2dVertex
 10
35.13069915771485
 20
29.86214065551758
 30
0.0
  0
VERTEX
  5
2E9
330
284
100
AcDbEntity
  8
Profil
100
AcDbVertex
100
AcDb2dVertex
 10
35.23423385620117
 20
29.75932693481445
 30
0.0
  0
VERTEX
  5
2EA
330
284
100
AcDbEntity
  8
Profil
100
AcDbVertex
100
AcDb2dVertex
 10
35.34165191650391
 20
29.66018104553223
 30
0.0
  0
VERTEX
  5
2EB
330
284
100
AcDbEntity
  8
Profil
100
AcDbVertex
100
AcDb2dVertex
 10
35.45286560058594
 20
29.56483459472656
 30
0.0
  0
VERTEX
  5
2EC
330
284
100
AcDbEntity
  8
Profil
100
AcDbVertex
100
AcDb2dVertex
 10
35.56779479980469
 20
29.4734115600586
 30
0.0
  0
VERTEX
  5
2ED
330
284
100
AcDbEntity
  8
Profil
100
AcDbVertex
100
AcDb2dVertex
 10
35.68634796142578
 20
29.38603591918946
 30
0.0
  0
VERTEX
  5
2EE
330
284
100
AcDbEntity
  8
Profil
100
AcDbVertex
100
AcDb2dVertex
 10
35.80845642089844
 20
29.30282974243164
 30
0.0
  0
VERTEX
  5
2EF
330
284
100
AcDbEntity
  8
Profil
100
AcDbVertex
100
AcDb2dVertex
 10
35.93402099609375
 20
29.22391891479492
 30
0.0
  0
VERTEX
  5
2F0
330
284
100
AcDbEntity
  8
Profil
100
AcDbVertex
100
AcDb2dVertex
 10
36.06296920776367
 20
29.14942932128906
 30
0.0
  0
VERTEX
  5
2F1
330
284
100
AcDbEntity
  8
Profil
100
AcDbVertex
100
AcDb2dVertex
 10
36.19521331787109
 20
29.07948303222656
 30
0.0
  0
VERTEX
  5
2F2
330
284
100
AcDbEntity
  8
Profil
100
AcDbVertex
100
AcDb2dVertex
 10
36.33067321777344
 20
29.01420974731446
 30
0.0
  0
VERTEX
  5
2F3
330
284
100
AcDbEntity
  8
Profil
100
AcDbVertex
100
AcDb2dVertex
 10
36.46926498413086
 20
28.95372772216797
 30
0.0
  0
VERTEX
  5
2F4
330
284
100
AcDbEntity
  8
Profil
100
AcDbVertex
100
AcDb2dVertex
 10
39.90000152587891
 20
27.53267097473145
 30
0.0
  0
VERTEX
  5
2F5
330
284
100
AcDbEntity
  8
Profil
100
AcDbVertex
100
AcDb2dVertex
 10
39.90000152587891
 20
31.85000038146973
 30
0.0
  0
VERTEX
  5
2F6
330
284
100
AcDbEntity
  8
Profil
100
AcDbVertex
100
AcDb2dVertex
 10
42.0
 20
31.85000038146973
 30
0.0
  0
VERTEX
  5
2F7
330
284
100
AcDbEntity
  8
Profil
100
AcDbVertex
100
AcDb2dVertex
 10
42.0
 20
4.150000095367431
 30
0.0
  0
VERTEX
  5
2F8
330
284
100
AcDbEntity
  8
Profil
100
AcDbVertex
100
AcDb2dVertex
 10
39.90000152587891
 20
4.150000095367431
 30
0.0
  0
VERTEX
  5
2F9
330
284
100
AcDbEntity
  8
Profil
100
AcDbVertex
100
AcDb2dVertex
 10
39.90000152587891
 20
8.467329978942871
 30
0.0
  0
VERTEX
  5
2FA
330
284
100
AcDbEntity
  8
Profil
100
AcDbVertex
100
AcDb2dVertex
 10
36.46926498413086
 20
7.046273231506347
 30
0.0
  0
VERTEX
  5
2FB
330
284
100
AcDbEntity
  8
Profil
100
AcDbVertex
100
AcDb2dVertex
 10
36.33067321777344
 20
6.985791683197021
 30
0.0
  0
VERTEX
  5
2FC
330
284
100
AcDbEntity
  8
Profil
100
AcDbVertex
100
AcDb2dVertex
 10
36.19521713256836
 20
6.920516490936279
 30
0.0
  0
VERTEX
  5
2FD
330
284
100
AcDbEntity
  8
Profil
100
AcDbVertex
100
AcDb2dVertex
 10
36.06296920776367
 20
6.85057258605957
 30
0.0
  0
VERTEX
  5
2FE
330
284
100
AcDbEntity
  8
Profil
100
AcDbVertex
100
AcDb2dVertex
 10
35.93402099609375
 20
6.77608299255371
 30
0.0
  0
VERTEX
  5
2FF
330
284
100
AcDbEntity
  8
Profil
100
AcDbVertex
100
AcDb2dVertex
 10
35.80845260620117
 20
6.697172164916992
 30
0.0
  0
VERTEX
  5
300
330
284
100
AcDbEntity
  8
Profil
100
AcDbVertex
100
AcDb2dVertex
 10
35.68635177612305
 20
6.613966464996337
 30
0.0
  0
VERTEX
  5
301
330
284
100
AcDbEntity
  8
Profil
100
AcDbVertex
100
AcDb2dVertex
 10
35.56779479980469
 20
6.526589393615722
 30
0.0
  0
VERTEX
  5
302
330
284
100
AcDbEntity
  8
Profil
100
AcDbVertex
100
AcDb2dVertex
 10
35.45286560058594
 20
6.435165405273437
 30
0.0
  0
VERTEX
  5
303
330
284
100
AcDbEntity
  8
Profil
100
AcDbVertex
100
AcDb2dVertex
 10
35.34165573120117
 20
6.339819908142089
 30
0.0
  0
VERTEX
  5
304
330
284
100
AcDbEntity
  8
Profil
100
AcDbVertex
100
AcDb2dVertex
 10
35.23423767089844
 20
6.240675926208496
 30
0.0
  0
VERTEX
  5
305
330
284
100
AcDbEntity
  8
Profil
100
AcDbVertex
100
AcDb2dVertex
 10
35.13069915771485
 20
6.137859344482421
 30
0.0
  0
VERTEX
  5
306
330
284
100
AcDbEntity
  8
Profil
100
AcDbVertex
100
AcDb2dVertex
 10
35.03112411499023
 20
6.031493663787841
 30
0.0
  0
VERTEX
  5
307
330
284
100
AcDbEntity
  8
Profil
100
AcDbVertex
100
AcDb2dVertex
 10
34.93560028076172
 20
5.921703815460205
 30
0.0
  0
VERTEX
  5
308
330
284
100
AcDbEntity
  8
Profil
100
AcDbVertex
100
AcDb2dVertex
 10
34.84420013427734
 20
5.80861473083496
 30
0.0
  0
VERTEX
  5
309
330
284
100
AcDbEntity
  8
Profil
100
AcDbVertex
100
AcDb2dVertex
 10
34.75701141357422
 20
5.6923508644104
 30
0.0
  0
VERTEX
  5
30A
330
284
100
AcDbEntity
  8
Profil
100
AcDbVertex
100
AcDb2dVertex
 10
34.67412185668945
 20
5.573035717010498
 30
0.0
  0
VERTEX
  5
30B
330
284
100
AcDbEntity
  8
Profil
100
AcDbVertex
100
AcDb2dVertex
 10
34.59561157226563
 20
5.450795650482177
 30
0.0
  0
VERTEX
  5
30C
330
284
100
AcDbEntity
  8
Profil
100
AcDbVertex
100
AcDb2dVertex
 10
34.52156066894531
 20
5.325754165649414
 30
0.0
  0
VERTEX
  5
30D
330
284
100
AcDbEntity
  8
Profil
100
AcDbVertex
100
AcDb2dVertex
 10
34.45205688476562
 20
5.198034763336181
 30
0.0
  0
VERTEX
  5
30E
330
284
100
AcDbEntity
  8
Profil
100
AcDbVertex
100
AcDb2dVertex
 10
34.38718414306641
 20
5.067763328552246
 30
0.0
  0
VERTEX
  5
30F
330
284
100
AcDbEntity
  8
Profil
100
AcDbVertex
100
AcDb2dVertex
 10
34.32701873779297
 20
4.93506383895874
 30
0.0
  0
VERTEX
  5
310
330
284
100
AcDbEntity
  8
Profil
100
AcDbVertex
100
AcDb2dVertex
 10
34.27164840698242
 20
4.800062179565429
 30
0.0
  0
VERTEX
  5
311
330
284
100
AcDbEntity
  8
Profil
100
AcDbVertex
100
AcDb2dVertex
 10
34.22116088867188
 20
4.662880897521972
 30
0.0
  0
VERTEX
  5
312
330
284
100
AcDbEntity
  8
Profil
100
AcDbVertex
100
AcDb2dVertex
 10
34.17562866210938
 20
4.523645401000976
 30
0.0
  0
VERTEX
  5
313
330
284
100
AcDbEntity
  8
Profil
100
AcDbVertex
100
AcDb2dVertex
 10
34.13514709472656
 20
4.38248062133789
 30
0.0
  0
VERTEX
  5
314
330
284
100
AcDbEntity
  8
Profil
100
AcDbVertex
100
AcDb2dVertex
 10
34.09979248046875
 20
4.239510536193847
 30
0.0
  0
VERTEX
  5
315
330
284
100
AcDbEntity
  8
Profil
100
AcDbVertex
100
AcDb2dVertex
 10
34.06964492797852
 20
4.094859600067138
 30
0.0
  0
VERTEX
  5
316
330
284
100
AcDbEntity
  8
Profil
100
AcDbVertex
100
AcDb2dVertex
 10
34.04479598999023
 20
3.948652744293212
 30
0.0
  0
VERTEX
  5
317
330
284
100
AcDbEntity
  8
Profil
100
AcDbVertex
100
AcDb2dVertex
 10
34.02532196044922
 20
3.801014184951782
 30
0.0
  0
VERTEX
  5
318
330
284
100
AcDbEntity
  8
Profil
100
AcDbVertex
100
AcDb2dVertex
 10
34.01131057739258
 20
3.652068853378295
 30
0.0
  0
VERTEX
  5
319
330
284
100
AcDbEntity
  8
Profil
100
AcDbVertex
100
AcDb2dVertex
 10
34.00284194946289
 20
3.501940965652465
 30
0.0
  0
VERTEX
  5
31A
330
284
100
AcDbEntity
  8
Profil
100
AcDbVertex
100
AcDb2dVertex
 10
34.0
 20
3.350754976272583
 30
0.0
  0
VERTEX
  5
31B
330
284
100
AcDbEntity
  8
Profil
100
AcDbVertex
100
AcDb2dVertex
 10
34.0
 20
0.6492449641227723
 30
0.0
  0
VERTEX
  5
31C
330
284
100
AcDbEntity
  8
Profil
100
AcDbVertex
100
AcDb2dVertex
 10
34.00284194946289
 20
0.4980591833591462
 30
0.0
  0
VERTEX
  5
31D
330
284
100
AcDbEntity
  8
Profil
100
AcDbVertex
100
AcDb2dVertex
 10
34.01131057739258
 20
0.3479311466217041
 30
0.0
  0
VERTEX
  5
31E
330
284
100
AcDbEntity
  8
Profil
100
AcDbVertex
100
AcDb2dVertex
 10
34.02531814575195
 20
0.1989857405424118
 30
0.0
  0
VERTEX
  5
31F
330
284
100
AcDbEntity
  8
Profil
100
AcDbVertex
100
AcDb2dVertex
 10
34.04479598999023
 20
0.0513473451137543
 30
0.0
  0
VERTEX
  5
320
330
284
100
AcDbEntity
  8
Profil
100
AcDbVertex
100
AcDb2dVertex
 10
34.06964492797852
 20
-0.0948595479130745
 30
0.0
  0
VERTEX
  5
321
330
284
100
AcDbEntity
  8
Profil
100
AcDbVertex
100
AcDb2dVertex
 10
34.09979248046875
 20
-0.2395102977752685
 30
0.0
  0
VERTEX
  5
322
330
284
100
AcDbEntity
  8
Profil
100
AcDbVertex
100
AcDb2dVertex
 10
34.13514709472656
 20
-0.3824804723262787
 30
0.0
  0
VERTEX
  5
323
330
284
100
AcDbEntity
  8
Profil
100
AcDbVertex
100
AcDb2dVertex
 10
34.17562866210938
 20
-0.5236454606056214
 30
0.0
  0
VERTEX
  5
324
330
284
100
AcDbEntity
  8
Profil
100
AcDbVertex
100
AcDb2dVertex
 10
34.22116088867188
 20
-0.6628807187080384
 30
0.0
  0
VERTEX
  5
325
330
284
100
AcDbEntity
  8
Profil
100
AcDbVertex
100
AcDb2dVertex
 10
34.27164840698242
 20
-0.8000618815422058
 30
0.0
  0
VERTEX
  5
326
330
284
100
AcDbEntity
  8
Profil
100
AcDbVertex
100
AcDb2dVertex
 10
34.32701873779297
 20
-0.9350642561912536
 30
0.0
  0
VERTEX
  5
327
330
284
100
AcDbEntity
  8
Profil
100
AcDbVertex
100
AcDb2dVertex
 10
34.38718032836914
 20
-1.067763328552246
 30
0.0
  0
VERTEX
  5
328
330
284
100
AcDbEntity
  8
Profil
100
AcDbVertex
100
AcDb2dVertex
 10
34.45205688476562
 20
-1.198034524917602
 30
0.0
  0
VERTEX
  5
329
330
284
100
AcDbEntity
  8
Profil
100
AcDbVertex
100
AcDb2dVertex
 10
34.52156066894531
 20
-1.325753331184387
 30
0.0
  0
VERTEX
  5
32A
330
284
100
AcDbEntity
  8
Profil
100
AcDbVertex
100
AcDb2dVertex
 10
34.59560775756836
 20
-1.450795292854309
 30
0.0
  0
VERTEX
  5
32B
330
284
100
AcDbEntity
  8
Profil
100
AcDbVertex
100
AcDb2dVertex
 10
34.67412185668945
 20
-1.573035955429077
 30
0.0
  0
VERTEX
  5
32C
330
284
100
AcDbEntity
  8
Profil
100
AcDbVertex
100
AcDb2dVertex
 10
34.75701141357422
 20
-1.692350506782531
 30
0.0
  0
VERTEX
  5
32D
330
284
100
AcDbEntity
  8
Profil
100
AcDbVertex
100
AcDb2dVertex
 10
34.84420013427734
 20
-1.80861473083496
 30
0.0
  0
VERTEX
  5
32E
330
284
100
AcDbEntity
  8
Profil
100
AcDbVertex
100
AcDb2dVertex
 10
34.93559265136719
 20
-1.921703815460205
 30
0.0
  0
VERTEX
  5
32F
330
284
100
AcDbEntity
  8
Profil
100
AcDbVertex
100
AcDb2dVertex
 10
35.0311279296875
 20
-2.031493425369262
 30
0.0
  0
VERTEX
  5
330
330
284
100
AcDbEntity
  8
Profil
100
AcDbVertex
100
AcDb2dVertex
 10
35.13069915771485
 20
-2.137858867645263
 30
0.0
  0
VERTEX
  5
331
330
284
100
AcDbEntity
  8
Profil
100
AcDbVertex
100
AcDb2dVertex
 10
35.23423385620117
 20
-2.240675687789916
 30
0.0
  0
VERTEX
  5
332
330
284
100
AcDbEntity
  8
Profil
100
AcDbVertex
100
AcDb2dVertex
 10
35.34165191650391
 20
-2.339819431304931
 30
0.0
  0
VERTEX
  5
333
330
284
100
AcDbEntity
  8
Profil
100
AcDbVertex
100
AcDb2dVertex
 10
35.45286560058594
 20
-2.435165405273437
 30
0.0
  0
VERTEX
  5
334
330
284
100
AcDbEntity
  8
Profil
100
AcDbVertex
100
AcDb2dVertex
 10
35.56779479980469
 20
-2.526589393615722
 30
0.0
  0
VERTEX
  5
335
330
284
100
AcDbEntity
  8
Profil
100
AcDbVertex
100
AcDb2dVertex
 10
35.68634796142578
 20
-2.613966464996337
 30
0.0
  0
VERTEX
  5
336
330
284
100
AcDbEntity
  8
Profil
100
AcDbVertex
100
AcDb2dVertex
 10
35.80845642089844
 20
-2.697172164916992
 30
0.0
  0
VERTEX
  5
337
330
284
100
AcDbEntity
  8
Profil
100
AcDbVertex
100
AcDb2dVertex
 10
35.93402099609375
 20
-2.776082038879394
 30
0.0
  0
VERTEX
  5
338
330
284
100
AcDbEntity
  8
Profil
100
AcDbVertex
100
AcDb2dVertex
 10
36.06296920776367
 20
-2.850571632385253
 30
0.0
  0
VERTEX
  5
339
330
284
100
AcDbEntity
  8
Profil
100
AcDbVertex
100
AcDb2dVertex
 10
36.19521331787109
 20
-2.920516490936279
 30
0.0
  0
VERTEX
  5
33A
330
284
100
AcDbEntity
  8
Profil
100
AcDbVertex
100
AcDb2dVertex
 10
36.33067321777344
 20
-2.985791683197021
 30
0.0
  0
VERTEX
  5
33B
330
284
100
AcDbEntity
  8
Profil
100
AcDbVertex
100
AcDb2dVertex
 10
36.46926498413086
 20
-3.046273231506347
 30
0.0
  0
VERTEX
  5
33C
330
284
100
AcDbEntity
  8
Profil
100
AcDbVertex
100
AcDb2dVertex
 10
39.90000152587891
 20
-4.467329502105712
 30
0.0
  0
VERTEX
  5
33D
330
284
100
AcDbEntity
  8
Profil
100
AcDbVertex
100
AcDb2dVertex
 10
39.90000152587891
 20
-0.1500000059604645
 30
0.0
  0
VERTEX
  5
33E
330
284
100
AcDbEntity
  8
Profil
100
AcDbVertex
100
AcDb2dVertex
 10
42.0
 20
-0.1500000059604645
 30
0.0
  0
VERTEX
  5
33F
330
284
100
AcDbEntity
  8
Profil
100
AcDbVertex
100
AcDb2dVertex
 10
42.0
 20
-27.85000038146973
 30
0.0
  0
VERTEX
  5
340
330
284
100
AcDbEntity
  8
Profil
100
AcDbVertex
100
AcDb2dVertex
 10
39.90000152587891
 20
-27.85000038146973
 30
0.0
  0
VERTEX
  5
341
330
284
100
AcDbEntity
  8
Profil
100
AcDbVertex
100
AcDb2dVertex
 10
39.90000152587891
 20
-23.53267097473144
 30
0.0
  0
VERTEX
  5
342
330
284
100
AcDbEntity
  8
Profil
100
AcDbVertex
100
AcDb2dVertex
 10
36.46926498413086
 20
-24.95372772216797
 30
0.0
  0
VERTEX
  5
343
330
284
100
AcDbEntity
  8
Profil
100
AcDbVertex
100
AcDb2dVertex
 10
36.33067321777344
 20
-25.01420974731445
 30
0.0
  0
VERTEX
  5
344
330
284
100
AcDbEntity
  8
Profil
100
AcDbVertex
100
AcDb2dVertex
 10
36.19521713256836
 20
-25.0794849395752
 30
0.0
  0
VERTEX
  5
345
330
284
100
AcDbEntity
  8
Profil
100
AcDbVertex
100
AcDb2dVertex
 10
36.06296920776367
 20
-25.14942741394043
 30
0.0
  0
VERTEX
  5
346
330
284
100
AcDbEntity
  8
Profil
100
AcDbVertex
100
AcDb2dVertex
 10
35.93402099609375
 20
-25.22391891479492
 30
0.0
  0
VERTEX
  5
347
330
284
100
AcDbEntity
  8
Profil
100
AcDbVertex
100
AcDb2dVertex
 10
35.80845260620117
 20
-25.30283164978027
 30
0.0
  0
VERTEX
  5
348
330
284
100
AcDbEntity
  8
Profil
100
AcDbVertex
100
AcDb2dVertex
 10
35.68635177612305
 20
-25.38603401184082
 30
0.0
  0
VERTEX
  5
349
330
284
100
AcDbEntity
  8
Profil
100
AcDbVertex
100
AcDb2dVertex
 10
35.56779479980469
 20
-25.4734115600586
 30
0.0
  0
VERTEX
  5
34A
330
284
100
AcDbEntity
  8
Profil
100
AcDbVertex
100
AcDb2dVertex
 10
35.45286560058594
 20
-25.5648365020752
 30
0.0
  0
VERTEX
  5
34B
330
284
100
AcDbEntity
  8
Profil
100
AcDbVertex
100
AcDb2dVertex
 10
35.34165573120117
 20
-25.66018104553223
 30
0.0
  0
VERTEX
  5
34C
330
284
100
AcDbEntity
  8
Profil
100
AcDbVertex
100
AcDb2dVertex
 10
35.23423767089844
 20
-25.75932312011719
 30
0.0
  0
VERTEX
  5
34D
330
284
100
AcDbEntity
  8
Profil
100
AcDbVertex
100
AcDb2dVertex
 10
35.13069915771485
 20
-25.86214065551758
 30
0.0
  0
VERTEX
  5
34E
330
284
100
AcDbEntity
  8
Profil
100
AcDbVertex
100
AcDb2dVertex
 10
35.03112411499023
 20
-25.968505859375
 30
0.0
  0
VERTEX
  5
34F
330
284
100
AcDbEntity
  8
Profil
100
AcDbVertex
100
AcDb2dVertex
 10
34.93560028076172
 20
-26.07829475402832
 30
0.0
  0
VERTEX
  5
350
330
284
100
AcDbEntity
  8
Profil
100
AcDbVertex
100
AcDb2dVertex
 10
34.84420013427734
 20
-26.19138336181641
 30
0.0
  0
VERTEX
  5
351
330
284
100
AcDbEntity
  8
Profil
100
AcDbVertex
100
AcDb2dVertex
 10
34.75701141357422
 20
-26.30765151977539
 30
0.0
  0
VERTEX
  5
352
330
284
100
AcDbEntity
  8
Profil
100
AcDbVertex
100
AcDb2dVertex
 10
34.67412185668945
 20
-26.42696571350098
 30
0.0
  0
VERTEX
  5
353
330
284
100
AcDbEntity
  8
Profil
100
AcDbVertex
100
AcDb2dVertex
 10
34.59561157226563
 20
-26.54920387268067
 30
0.0
  0
VERTEX
  5
354
330
284
100
AcDbEntity
  8
Profil
100
AcDbVertex
100
AcDb2dVertex
 10
34.52156066894531
 20
-26.67424583435059
 30
0.0
  0
VERTEX
  5
355
330
284
100
AcDbEntity
  8
Profil
100
AcDbVertex
100
AcDb2dVertex
 10
34.45205688476562
 20
-26.80196571350098
 30
0.0
  0
VERTEX
  5
356
330
284
100
AcDbEntity
  8
Profil
100
AcDbVertex
100
AcDb2dVertex
 10
34.38718414306641
 20
-26.93223571777344
 30
0.0
  0
VERTEX
  5
357
330
284
100
AcDbEntity
  8
Profil
100
AcDbVertex
100
AcDb2dVertex
 10
34.32701873779297
 20
-27.06493759155274
 30
0.0
  0
VERTEX
  5
358
330
284
100
AcDbEntity
  8
Profil
100
AcDbVertex
100
AcDb2dVertex
 10
34.27164840698242
 20
-27.19993972778321
 30
0.0
  0
VERTEX
  5
359
330
284
100
AcDbEntity
  8
Profil
100
AcDbVertex
100
AcDb2dVertex
 10
34.22116088867188
 20
-27.33712005615235
 30
0.0
  0
VERTEX
  5
35A
330
284
100
AcDbEntity
  8
Profil
100
AcDbVertex
100
AcDb2dVertex
 10
34.17562866210938
 20
-27.47635459899902
 30
0.0
  0
VERTEX
  5
35B
330
284
100
AcDbEntity
  8
Profil
100
AcDbVertex
100
AcDb2dVertex
 10
34.13514709472656
 20
-27.61751937866211
 30
0.0
  0
VERTEX
  5
35C
330
284
100
AcDbEntity
  8
Profil
100
AcDbVertex
100
AcDb2dVertex
 10
34.09979248046875
 20
-27.76049041748047
 30
0.0
  0
VERTEX
  5
35D
330
284
100
AcDbEntity
  8
Profil
100
AcDbVertex
100
AcDb2dVertex
 10
34.06964492797852
 20
-27.9051399230957
 30
0.0
  0
VERTEX
  5
35E
330
284
100
AcDbEntity
  8
Profil
100
AcDbVertex
100
AcDb2dVertex
 10
34.04479598999023
 20
-28.05134582519531
 30
0.0
  0
VERTEX
  5
35F
330
284
100
AcDbEntity
  8
Profil
100
AcDbVertex
100
AcDb2dVertex
 10
34.02532196044922
 20
-28.1989860534668
 30
0.0
  0
VERTEX
  5
360
330
284
100
AcDbEntity
  8
Profil
100
AcDbVertex
100
AcDb2dVertex
 10
34.01131057739258
 20
-28.34793090820312
 30
0.0
  0
VERTEX
  5
361
330
284
100
AcDbEntity
  8
Profil
100
AcDbVertex
100
AcDb2dVertex
 10
34.00284194946289
 20
-28.4980583190918
 30
0.0
  0
VERTEX
  5
362
330
284
100
AcDbEntity
  8
Profil
100
AcDbVertex
100
AcDb2dVertex
 10
34.0
 20
-28.64924430847168
 30
0.0
  0
VERTEX
  5
363
330
284
100
AcDbEntity
  8
Profil
100
AcDbVertex
100
AcDb2dVertex
 10
34.0
 20
-32.44436645507813
 30
0.0
  0
VERTEX
  5
364
330
284
100
AcDbEntity
  8
Profil
100
AcDbVertex
100
AcDb2dVertex
 10
37.55563354492188
 20
-36.0
 30
0.0
  0
VERTEX
  5
365
330
284
100
AcDbEntity
  8
Profil
100
AcDbVertex
100
AcDb2dVertex
 10
39.90000152587891
 20
-36.0
 30
0.0
  0
VERTEX
  5
366
330
284
100
AcDbEntity
  8
Profil
100
AcDbVertex
100
AcDb2dVertex
 10
39.90000152587891
 20
-32.15000152587891
 30
0.0
  0
VERTEX
  5
367
330
284
100
AcDbEntity
  8
Profil
100
AcDbVertex
100
AcDb2dVertex
 10
42.0
 20
-32.15000152587891
 30
0.0
  0
VERTEX
  5
368
330
284
100
AcDbEntity
  8
Profil
100
AcDbVertex
100
AcDb2dVertex
 10
42.0
 20
-38.0
 30
0.0
  0
VERTEX
  5
369
330
284
100
AcDbEntity
  8
Profil
100
AcDbVertex
100
AcDb2dVertex
 10
38.0
 20
-38.0
 30
0.0
  0
VERTEX
  5
36A
330
284
100
AcDbEntity
  8
Profil
100
AcDbVertex
100
AcDb2dVertex
 10
38.0
 20
-42.0
 30
0.0
  0
VERTEX
  5
36B
330
284
100
AcDbEntity
  8
Profil
100
AcDbVertex
100
AcDb2dVertex
 10
32.15000152587891
 20
-42.0
 30
0.0
  0
VERTEX
  5
36C
330
284
100
AcDbEntity
  8
Profil
100
AcDbVertex
100
AcDb2dVertex
 10
32.15000152587891
 20
-39.90000152587891
 30
0.0
  0
VERTEX
  5
36D
330
284
100
AcDbEntity
  8
Profil
100
AcDbVertex
100
AcDb2dVertex
 10
36.0
 20
-39.90000152587891
 30
0.0
  0
VERTEX
  5
36E
330
284
100
AcDbEntity
  8
Profil
100
AcDbVertex
100
AcDb2dVertex
 10
36.0
 20
-37.55563354492188
 30
0.0
  0
VERTEX
  5
36F
330
284
100
AcDbEntity
  8
Profil
100
AcDbVertex
100
AcDb2dVertex
 10
32.44436645507813
 20
-34.0
 30
0.0
  0
VERTEX
  5
370
330
284
100
AcDbEntity
  8
Profil
100
AcDbVertex
100
AcDb2dVertex
 10
28.64924430847168
 20
-34.0
 30
0.0
  0
VERTEX
  5
371
330
284
100
AcDbEntity
  8
Profil
100
AcDbVertex
100
AcDb2dVertex
 10
28.4980583190918
 20
-34.00284194946289
 30
0.0
  0
VERTEX
  5
372
330
284
100
AcDbEntity
  8
Profil
100
AcDbVertex
100
AcDb2dVertex
 10
28.34793281555176
 20
-34.01131057739258
 30
0.0
  0
VERTEX
  5
373
330
284
100
AcDbEntity
  8
Profil
100
AcDbVertex
100
AcDb2dVertex
 10
28.19898414611817
 20
-34.02531814575195
 30
0.0
  0
VERTEX
  5
374
330
284
100
AcDbEntity
  8
Profil
100
AcDbVertex
100
AcDb2dVertex
 10
28.05134773254394
 20
-34.04479598999023
 30
0.0
  0
VERTEX
  5
375
330
284
100
AcDbEntity
  8
Profil
100
AcDbVertex
100
AcDb2dVertex
 10
27.90513801574707
 20
-34.06964492797852
 30
0.0
  0
VERTEX
  5
376
330
284
100
AcDbEntity
  8
Profil
100
AcDbVertex
100
AcDb2dVertex
 10
27.76049041748047
 20
-34.09979248046875
 30
0.0
  0
VERTEX
  5
377
330
284
100
AcDbEntity
  8
Profil
100
AcDbVertex
100
AcDb2dVertex
 10
27.61751937866211
 20
-34.13514709472656
 30
0.0
  0
VERTEX
  5
378
330
284
100
AcDbEntity
  8
Profil
100
AcDbVertex
100
AcDb2dVertex
 10
27.47635650634766
 20
-34.17562866210938
 30
0.0
  0
VERTEX
  5
379
330
284
100
AcDbEntity
  8
Profil
100
AcDbVertex
100
AcDb2dVertex
 10
27.33711814880371
 20
-34.22116088867188
 30
0.0
  0
VERTEX
  5
37A
330
284
100
AcDbEntity
  8
Profil
100
AcDbVertex
100
AcDb2dVertex
 10
27.19993972778321
 20
-34.27164840698242
 30
0.0
  0
VERTEX
  5
37B
330
284
100
AcDbEntity
  8
Profil
100
AcDbVertex
100
AcDb2dVertex
 10
27.06493759155274
 20
-34.32701873779297
 30
0.0
  0
VERTEX
  5
37C
330
284
100
AcDbEntity
  8
Profil
100
AcDbVertex
100
AcDb2dVertex
 10
26.9322395324707
 20
-34.38718032836914
 30
0.0
  0
VERTEX
  5
37D
330
284
100
AcDbEntity
  8
Profil
100
AcDbVertex
100
AcDb2dVertex
 10
26.80196571350098
 20
-34.45205688476562
 30
0.0
  0
VERTEX
  5
37E
330
284
100
AcDbEntity
  8
Profil
100
AcDbVertex
100
AcDb2dVertex
 10
26.67424774169922
 20
-34.52156066894531
 30
0.0
  0
VERTEX
  5
37F
330
284
100
AcDbEntity
  8
Profil
100
AcDbVertex
100
AcDb2dVertex
 10
26.54920196533203
 20
-34.59560775756836
 30
0.0
  0
VERTEX
  5
380
330
284
100
AcDbEntity
  8
Profil
100
AcDbVertex
100
AcDb2dVertex
 10
26.42696380615234
 20
-34.67412185668945
 30
0.0
  0
VERTEX
  5
381
330
284
100
AcDbEntity
  8
Profil
100
AcDbVertex
100
AcDb2dVertex
 10
26.30764961242676
 20
-34.75701141357422
 30
0.0
  0
VERTEX
  5
382
330
284
100
AcDbEntity
  8
Profil
100
AcDbVertex
100
AcDb2dVertex
 10
26.19138336181641
 20
-34.84420013427734
 30
0.0
  0
VERTEX
  5
383
330
284
100
AcDbEntity
  8
Profil
100
AcDbVertex
100
AcDb2dVertex
 10
26.07829666137695
 20
-34.93559265136719
 30
0.0
  0
VERTEX
  5
384
330
284
100
AcDbEntity
  8
Profil
100
AcDbVertex
100
AcDb2dVertex
 10
25.968505859375
 20
-35.0311279296875
 30
0.0
  0
VERTEX
  5
385
330
284
100
AcDbEntity
  8
Profil
100
AcDbVertex
100
AcDb2dVertex
 10
25.86214065551758
 20
-35.13069915771485
 30
0.0
  0
VERTEX
  5
386
330
284
100
AcDbEntity
  8
Profil
100
AcDbVertex
100
AcDb2dVertex
 10
25.75932312011719
 20
-35.23423385620117
 30
0.0
  0
VERTEX
  5
387
330
284
100
AcDbEntity
  8
Profil
100
AcDbVertex
100
AcDb2dVertex
 10
25.66018104553223
 20
-35.34165191650391
 30
0.0
  0
VERTEX
  5
388
330
284
100
AcDbEntity
  8
Profil
100
AcDbVertex
100
AcDb2dVertex
 10
25.56483459472656
 20
-35.45286560058594
 30
0.0
  0
VERTEX
  5
389
330
284
100
AcDbEntity
  8
Profil
100
AcDbVertex
100
AcDb2dVertex
 10
25.4734115600586
 20
-35.56779479980469
 30
0.0
  0
VERTEX
  5
38A
330
284
100
AcDbEntity
  8
Profil
100
AcDbVertex
100
AcDb2dVertex
 10
25.38603591918946
 20
-35.68634796142578
 30
0.0
  0
VERTEX
  5
38B
330
284
100
AcDbEntity
  8
Profil
100
AcDbVertex
100
AcDb2dVertex
 10
25.30282974243164
 20
-35.80845642089844
 30
0.0
  0
VERTEX
  5
38C
330
284
100
AcDbEntity
  8
Profil
100
AcDbVertex
100
AcDb2dVertex
 10
25.22391891479492
 20
-35.93402099609375
 30
0.0
  0
VERTEX
  5
38D
330
284
100
AcDbEntity
  8
Profil
100
AcDbVertex
100
AcDb2dVertex
 10
25.14942932128906
 20
-36.06296920776367
 30
0.0
  0
VERTEX
  5
38E
330
284
100
AcDbEntity
  8
Profil
100
AcDbVertex
100
AcDb2dVertex
 10
25.07948303222657
 20
-36.19521331787109
 30
0.0
  0
VERTEX
  5
38F
330
284
100
AcDbEntity
  8
Profil
100
AcDbVertex
100
AcDb2dVertex
 10
25.01420974731445
 20
-36.33067321777344
 30
0.0
  0
VERTEX
  5
390
330
284
100
AcDbEntity
  8
Profil
100
AcDbVertex
100
AcDb2dVertex
 10
24.95372772216797
 20
-36.46926498413086
 30
0.0
  0
VERTEX
  5
391
330
284
100
AcDbEntity
  8
Profil
100
AcDbVertex
100
AcDb2dVertex
 10
23.53267097473144
 20
-39.90000152587891
 30
0.0
  0
VERTEX
  5
392
330
284
100
AcDbEntity
  8
Profil
100
AcDbVertex
100
AcDb2dVertex
 10
27.85000038146973
 20
-39.90000152587891
 30
0.0
  0
VERTEX
  5
393
330
284
100
AcDbEntity
  8
Profil
100
AcDbVertex
100
AcDb2dVertex
 10
27.85000038146973
 20
-42.0
 30
0.0
  0
VERTEX
  5
394
330
284
100
AcDbEntity
  8
Profil
100
AcDbVertex
100
AcDb2dVertex
 10
0.1500000059604645
 20
-42.0
 30
0.0
  0
VERTEX
  5
395
330
284
100
AcDbEntity
  8
Profil
100
AcDbVertex
100
AcDb2dVertex
 10
0.1500000059604645
 20
-39.90000152587891
 30
0.0
  0
VERTEX
  5
396
330
284
100
AcDbEntity
  8
Profil
100
AcDbVertex
100
AcDb2dVertex
 10
4.467329502105712
 20
-39.90000152587891
 30
0.0
  0
VERTEX
  5
397
330
284
100
AcDbEntity
  8
Profil
100
AcDbVertex
100
AcDb2dVertex
 10
3.046273231506347
 20
-36.46926498413086
 30
0.0
  0
VERTEX
  5
398
330
284
100
AcDbEntity
  8
Profil
100
AcDbVertex
100
AcDb2dVertex
 10
2.9857919216156
 20
-36.33067321777344
 30
0.0
  0
VERTEX
  5
399
330
284
100
AcDbEntity
  8
Profil
100
AcDbVertex
100
AcDb2dVertex
 10
2.920516729354858
 20
-36.19521713256836
 30
0.0
  0
VERTEX
  5
39A
330
284
100
AcDbEntity
  8
Profil
100
AcDbVertex
100
AcDb2dVertex
 10
2.850571632385253
 20
-36.06296920776367
 30
0.0
  0
VERTEX
  5
39B
330
284
100
AcDbEntity
  8
Profil
100
AcDbVertex
100
AcDb2dVertex
 10
2.776082277297973
 20
-35.93402099609375
 30
0.0
  0
VERTEX
  5
39C
330
284
100
AcDbEntity
  8
Profil
100
AcDbVertex
100
AcDb2dVertex
 10
2.697172164916992
 20
-35.80845260620117
 30
0.0
  0
VERTEX
  5
39D
330
284
100
AcDbEntity
  8
Profil
100
AcDbVertex
100
AcDb2dVertex
 10
2.613966464996337
 20
-35.68635177612305
 30
0.0
  0
VERTEX
  5
39E
330
284
100
AcDbEntity
  8
Profil
100
AcDbVertex
100
AcDb2dVertex
 10
2.526589393615722
 20
-35.56779479980469
 30
0.0
  0
VERTEX
  5
39F
330
284
100
AcDbEntity
  8
Profil
100
AcDbVertex
100
AcDb2dVertex
 10
2.435165643692016
 20
-35.45286560058594
 30
0.0
  0
VERTEX
  5
3A0
330
284
100
AcDbEntity
  8
Profil
100
AcDbVertex
100
AcDb2dVertex
 10
2.33981966972351
 20
-35.34165573120117
 30
0.0
  0
VERTEX
  5
3A1
330
284
100
AcDbEntity
  8
Profil
100
AcDbVertex
100
AcDb2dVertex
 10
2.240675926208496
 20
-35.23423767089844
 30
0.0
  0
VERTEX
  5
3A2
330
284
100
AcDbEntity
  8
Profil
100
AcDbVertex
100
AcDb2dVertex
 10
2.137858867645263
 20
-35.13069915771485
 30
0.0
  0
VERTEX
  5
3A3
330
284
100
AcDbEntity
  8
Profil
100
AcDbVertex
100
AcDb2dVertex
 10
2.031493425369262
 20
-35.03112411499023
 30
0.0
  0
VERTEX
  5
3A4
330
284
100
AcDbEntity
  8
Profil
100
AcDbVertex
100
AcDb2dVertex
 10
1.921703934669494
 20
-34.93560028076172
 30
0.0
  0
VERTEX
  5
3A5
330
284
100
AcDbEntity
  8
Profil
100
AcDbVertex
100
AcDb2dVertex
 10
1.80861485004425
 20
-34.84420013427734
 30
0.0
  0
VERTEX
  5
3A6
330
284
100
AcDbEntity
  8
Profil
100
AcDbVertex
100
AcDb2dVertex
 10
1.692350506782531
 20
-34.75701141357422
 30
0.0
  0
VERTEX
  5
3A7
330
284
100
AcDbEntity
  8
Profil
100
AcDbVertex
100
AcDb2dVertex
 10
1.573035955429077
 20
-34.67412185668945
 30
0.0
  0
VERTEX
  5
3A8
330
284
100
AcDbEntity
  8
Profil
100
AcDbVertex
100
AcDb2dVertex
 10
1.450795173645019
 20
-34.59561157226563
 30
0.0
  0
VERTEX
  5
3A9
330
284
100
AcDbEntity
  8
Profil
100
AcDbVertex
100
AcDb2dVertex
 10
1.325753450393676
 20
-34.52156066894531
 30
0.0
  0
VERTEX
  5
3AA
330
284
100
AcDbEntity
  8
Profil
100
AcDbVertex
100
AcDb2dVertex
 10
1.198034524917602
 20
-34.45205688476562
 30
0.0
  0
VERTEX
  5
3AB
330
284
100
AcDbEntity
  8
Profil
100
AcDbVertex
100
AcDb2dVertex
 10
1.067763328552246
 20
-34.38718414306641
 30
0.0
  0
VERTEX
  5
3AC
330
284
100
AcDbEntity
  8
Profil
100
AcDbVertex
100
AcDb2dVertex
 10
0.9350641369819641
 20
-34.32701873779297
 30
0.0
  0
VERTEX
  5
3AD
330
284
100
AcDbEntity
  8
Profil
100
AcDbVertex
100
AcDb2dVertex
 10
0.800061821937561
 20
-34.27164840698242
 30
0.0
  0
VERTEX
  5
3AE
330
284
100
AcDbEntity
  8
Profil
100
AcDbVertex
100
AcDb2dVertex
 10
0.6628807187080384
 20
-34.22116088867188
 30
0.0
  0
VERTEX
  5
3AF
330
284
100
AcDbEntity
  8
Profil
100
AcDbVertex
100
AcDb2dVertex
 10
0.5236454606056214
 20
-34.17562866210938
 30
0.0
  0
VERTEX
  5
3B0
330
284
100
AcDbEntity
  8
Profil
100
AcDbVertex
100
AcDb2dVertex
 10
0.3824805319309234
 20
-34.13514709472656
 30
0.0
  0
VERTEX
  5
3B1
330
284
100
AcDbEntity
  8
Profil
100
AcDbVertex
100
AcDb2dVertex
 10
0.2395102679729462
 20
-34.09979248046875
 30
0.0
  0
VERTEX
  5
3B2
330
284
100
AcDbEntity
  8
Profil
100
AcDbVertex
100
AcDb2dVertex
 10
0.0948595404624939
 20
-34.06964492797852
 30
0.0
  0
VERTEX
  5
3B3
330
284
100
AcDbEntity
  8
Profil
100
AcDbVertex
100
AcDb2dVertex
 10
-0.0513473153114319
 20
-34.04479598999023
 30
0.0
  0
VERTEX
  5
3B4
330
284
100
AcDbEntity
  8
Profil
100
AcDbVertex
100
AcDb2dVertex
 10
-0.198985755443573
 20
-34.02532196044922
 30
0.0
  0
VERTEX
  5
3B5
330
284
100
AcDbEntity
  8
Profil
100
AcDbVertex
100
AcDb2dVertex
 10
-0.3479311466217041
 20
-34.01131057739258
 30
0.0
  0
VERTEX
  5
3B6
330
284
100
AcDbEntity
  8
Profil
100
AcDbVertex
100
AcDb2dVertex
 10
-0.4980590641498566
 20
-34.00284194946289
 30
0.0
  0
VERTEX
  5
3B7
330
284
100
AcDbEntity
  8
Profil
100
AcDbVertex
100
AcDb2dVertex
 10
-0.6492449641227723
 20
-34.0
 30
0.0
  0
VERTEX
  5
3B8
330
284
100
AcDbEntity
  8
Profil
100
AcDbVertex
100
AcDb2dVertex
 10
-3.350754976272583
 20
-34.0
 30
0.0
  0
VERTEX
  5
3B9
330
284
100
AcDbEntity
  8
Profil
100
AcDbVertex
100
AcDb2dVertex
 10
-3.501940965652465
 20
-34.00284194946289
 30
0.0
  0
VERTEX
  5
3BA
330
284
100
AcDbEntity
  8
Profil
100
AcDbVertex
100
AcDb2dVertex
 10
-3.652068853378295
 20
-34.01131057739258
 30
0.0
  0
VERTEX
  5
3BB
330
284
100
AcDbEntity
  8
Profil
100
AcDbVertex
100
AcDb2dVertex
 10
-3.801014900207519
 20
-34.02531814575195
 30
0.0
  0
VERTEX
  5
3BC
330
284
100
AcDbEntity
  8
Profil
100
AcDbVertex
100
AcDb2dVertex
 10
-3.948652982711791
 20
-34.04479598999023
 30
0.0
  0
VERTEX
  5
3BD
330
284
100
AcDbEntity
  8
Profil
100
AcDbVertex
100
AcDb2dVertex
 10
-4.094859600067138
 20
-34.06964492797852
 30
0.0
  0
VERTEX
  5
3BE
330
284
100
AcDbEntity
  8
Profil
100
AcDbVertex
100
AcDb2dVertex
 10
-4.239510536193847
 20
-34.09979248046875
 30
0.0
  0
VERTEX
  5
3BF
330
284
100
AcDbEntity
  8
Profil
100
AcDbVertex
100
AcDb2dVertex
 10
-4.38248062133789
 20
-34.13514709472656
 30
0.0
  0
VERTEX
  5
3C0
330
284
100
AcDbEntity
  8
Profil
100
AcDbVertex
100
AcDb2dVertex
 10
-4.523645401000976
 20
-34.17562866210938
 30
0.0
  0
VERTEX
  5
3C1
330
284
100
AcDbEntity
  8
Profil
100
AcDbVertex
100
AcDb2dVertex
 10
-4.662880897521972
 20
-34.22116088867188
 30
0.0
  0
VERTEX
  5
3C2
330
284
100
AcDbEntity
  8
Profil
100
AcDbVertex
100
AcDb2dVertex
 10
-4.800061225891113
 20
-34.27164840698242
 30
0.0
  0
VERTEX
  5
3C3
330
284
100
AcDbEntity
  8
Profil
100
AcDbVertex
100
AcDb2dVertex
 10
-4.935064315795898
 20
-34.32701873779297
 30
0.0
  0
VERTEX
  5
3C4
330
284
100
AcDbEntity
  8
Profil
100
AcDbVertex
100
AcDb2dVertex
 10
-5.067763328552246
 20
-34.38718032836914
 30
0.0
  0
VERTEX
  5
3C5
330
284
100
AcDbEntity
  8
Profil
100
AcDbVertex
100
AcDb2dVertex
 10
-5.198034286499023
 20
-34.45205688476562
 30
0.0
  0
VERTEX
  5
3C6
330
284
100
AcDbEntity
  8
Profil
100
AcDbVertex
100
AcDb2dVertex
 10
-5.325753211975097
 20
-34.52156066894531
 30
0.0
  0
VERTEX
  5
3C7
330
284
100
AcDbEntity
  8
Profil
100
AcDbVertex
100
AcDb2dVertex
 10
-5.450795173645019
 20
-34.59560775756836
 30
0.0
  0
VERTEX
  5
3C8
330
284
100
AcDbEntity
  8
Profil
100
AcDbVertex
100
AcDb2dVertex
 10
-5.573036193847656
 20
-34.67412185668945
 30
0.0
  0
VERTEX
  5
3C9
330
284
100
AcDbEntity
  8
Profil
100
AcDbVertex
100
AcDb2dVertex
 10
-5.6923508644104
 20
-34.75701141357422
 30
0.0
  0
VERTEX
  5
3CA
330
284
100
AcDbEntity
  8
Profil
100
AcDbVertex
100
AcDb2dVertex
 10
-5.80861473083496
 20
-34.84420013427734
 30
0.0
  0
VERTEX
  5
3CB
330
284
100
AcDbEntity
  8
Profil
100
AcDbVertex
100
AcDb2dVertex
 10
-5.921703815460205
 20
-34.93559265136719
 30
0.0
  0
VERTEX
  5
3CC
330
284
100
AcDbEntity
  8
Profil
100
AcDbVertex
100
AcDb2dVertex
 10
-6.031493186950683
 20
-35.0311279296875
 30
0.0
  0
VERTEX
  5
3CD
330
284
100
AcDbEntity
  8
Profil
100
AcDbVertex
100
AcDb2dVertex
 10
-6.137858867645263
 20
-35.13069915771485
 30
0.0
  0
VERTEX
  5
3CE
330
284
100
AcDbEntity
  8
Profil
100
AcDbVertex
100
AcDb2dVertex
 10
-6.240675926208496
 20
-35.23423385620117
 30
0.0
  0
VERTEX
  5
3CF
330
284
100
AcDbEntity
  8
Profil
100
AcDbVertex
100
AcDb2dVertex
 10
-6.339819431304931
 20
-35.34165191650391
 30
0.0
  0
VERTEX
  5
3D0
330
284
100
AcDbEntity
  8
Profil
100
AcDbVertex
100
AcDb2dVertex
 10
-6.435165405273437
 20
-35.45286560058594
 30
0.0
  0
VERTEX
  5
3D1
330
284
100
AcDbEntity
  8
Profil
100
AcDbVertex
100
AcDb2dVertex
 10
-6.526589393615722
 20
-35.56779479980469
 30
0.0
  0
VERTEX
  5
3D2
330
284
100
AcDbEntity
  8
Profil
100
AcDbVertex
100
AcDb2dVertex
 10
-6.613966464996337
 20
-35.68634796142578
 30
0.0
  0
VERTEX
  5
3D3
330
284
100
AcDbEntity
  8
Profil
100
AcDbVertex
100
AcDb2dVertex
 10
-6.697172164916992
 20
-35.80845642089844
 30
0.0
  0
VERTEX
  5
3D4
330
284
100
AcDbEntity
  8
Profil
100
AcDbVertex
100
AcDb2dVertex
 10
-6.776082515716552
 20
-35.93402099609375
 30
0.0
  0
VERTEX
  5
3D5
330
284
100
AcDbEntity
  8
Profil
100
AcDbVertex
100
AcDb2dVertex
 10
-6.850572109222412
 20
-36.06296920776367
 30
0.0
  0
VERTEX
  5
3D6
330
284
100
AcDbEntity
  8
Profil
100
AcDbVertex
100
AcDb2dVertex
 10
-6.920516490936279
 20
-36.19521331787109
 30
0.0
  0
VERTEX
  5
3D7
330
284
100
AcDbEntity
  8
Profil
100
AcDbVertex
100
AcDb2dVertex
 10
-6.985792160034179
 20
-36.33067321777344
 30
0.0
  0
VERTEX
  5
3D8
330
284
100
AcDbEntity
  8
Profil
100
AcDbVertex
100
AcDb2dVertex
 10
-7.046273231506347
 20
-36.46926498413086
 30
0.0
  0
VERTEX
  5
3D9
330
284
100
AcDbEntity
  8
Profil
100
AcDbVertex
100
AcDb2dVertex
 10
-8.467329978942871
 20
-39.90000152587891
 30
0.0
  0
VERTEX
  5
3DA
330
284
100
AcDbEntity
  8
Profil
100
AcDbVertex
100
AcDb2dVertex
 10
-4.150000095367431
 20
-39.90000152587891
 30
0.0
  0
VERTEX
  5
3DB
330
284
100
AcDbEntity
  8
Profil
100
AcDbVertex
100
AcDb2dVertex
 10
-4.150000095367431
 20
-42.0
 30
0.0
  0
VERTEX
  5
3DC
330
284
100
AcDbEntity
  8
Profil
100
AcDbVertex
100
AcDb2dVertex
 10
-31.85000038146973
 20
-42.0
 30
0.0
  0
VERTEX
  5
3DD
330
284
100
AcDbEntity
  8
Profil
100
AcDbVertex
100
AcDb2dVertex
 10
-31.85000038146973
 20
-39.90000152587891
 30
0.0
  0
VERTEX
  5
3DE
330
284
100
AcDbEntity
  8
Profil
100
AcDbVertex
100
AcDb2dVertex
 10
-27.53267097473145
 20
-39.90000152587891
 30
0.0
  0
VERTEX
  5
3DF
330
284
100
AcDbEntity
  8
Profil
100
AcDbVertex
100
AcDb2dVertex
 10
-28.95372772216797
 20
-36.46926498413086
 30
0.0
  0
VERTEX
  5
3E0
330
284
100
AcDbEntity
  8
Profil
100
AcDbVertex
100
AcDb2dVertex
 10
-29.01420974731446
 20
-36.33067321777344
 30
0.0
  0
VERTEX
  5
3E1
330
284
100
AcDbEntity
  8
Profil
100
AcDbVertex
100
AcDb2dVertex
 10
-29.07948493957519
 20
-36.19521713256836
 30
0.0
  0
VERTEX
  5
3E2
330
284
100
AcDbEntity
  8
Profil
100
AcDbVertex
100
AcDb2dVertex
 10
-29.14942741394043
 20
-36.06296920776367
 30
0.0
  0
VERTEX
  5
3E3
330
284
100
AcDbEntity
  8
Profil
100
AcDbVertex
100
AcDb2dVertex
 10
-29.22391891479492
 20
-35.93402099609375
 30
0.0
  0
VERTEX
  5
3E4
330
284
100
AcDbEntity
  8
Profil
100
AcDbVertex
100
AcDb2dVertex
 10
-29.30282974243164
 20
-35.80845260620117
 30
0.0
  0
VERTEX
  5
3E5
330
284
100
AcDbEntity
  8
Profil
100
AcDbVertex
100
AcDb2dVertex
 10
-29.38603591918946
 20
-35.68635177612305
 30
0.0
  0
VERTEX
  5
3E6
330
284
100
AcDbEntity
  8
Profil
100
AcDbVertex
100
AcDb2dVertex
 10
-29.47341346740723
 20
-35.56779479980469
 30
0.0
  0
VERTEX
  5
3E7
330
284
100
AcDbEntity
  8
Profil
100
AcDbVertex
100
AcDb2dVertex
 10
-29.5648365020752
 20
-35.45286560058594
 30
0.0
  0
VERTEX
  5
3E8
330
284
100
AcDbEntity
  8
Profil
100
AcDbVertex
100
AcDb2dVertex
 10
-29.66018104553223
 20
-35.34165573120117
 30
0.0
  0
VERTEX
  5
3E9
330
284
100
AcDbEntity
  8
Profil
100
AcDbVertex
100
AcDb2dVertex
 10
-29.75932312011719
 20
-35.23423767089844
 30
0.0
  0
VERTEX
  5
3EA
330
284
100
AcDbEntity
  8
Profil
100
AcDbVertex
100
AcDb2dVertex
 10
-29.86214065551758
 20
-35.13069915771485
 30
0.0
  0
VERTEX
  5
3EB
330
284
100
AcDbEntity
  8
Profil
100
AcDbVertex
100
AcDb2dVertex
 10
-29.968505859375
 20
-35.03112411499023
 30
0.0
  0
VERTEX
  5
3EC
330
284
100
AcDbEntity
  8
Profil
100
AcDbVertex
100
AcDb2dVertex
 10
-30.07829475402832
 20
-34.93560028076172
 30
0.0
  0
VERTEX
  5
3ED
330
284
100
AcDbEntity
  8
Profil
100
AcDbVertex
100
AcDb2dVertex
 10
-30.19138336181641
 20
-34.84420013427734
 30
0.0
  0
VERTEX
  5
3EE
330
284
100
AcDbEntity
  8
Profil
100
AcDbVertex
100
AcDb2dVertex
 10
-30.30765151977539
 20
-34.75701141357422
 30
0.0
  0
VERTEX
  5
3EF
330
284
100
AcDbEntity
  8
Profil
100
AcDbVertex
100
AcDb2dVertex
 10
-30.42696571350098
 20
-34.67412185668945
 30
0.0
  0
VERTEX
  5
3F0
330
284
100
AcDbEntity
  8
Profil
100
AcDbVertex
100
AcDb2dVertex
 10
-30.54920387268067
 20
-34.59561157226563
 30
0.0
  0
VERTEX
  5
3F1
330
284
100
AcDbEntity
  8
Profil
100
AcDbVertex
100
AcDb2dVertex
 10
-30.67424774169922
 20
-34.52156066894531
 30
0.0
  0
VERTEX
  5
3F2
330
284
100
AcDbEntity
  8
Profil
100
AcDbVertex
100
AcDb2dVertex
 10
-30.80196762084961
 20
-34.45205688476562
 30
0.0
  0
VERTEX
  5
3F3
330
284
100
AcDbEntity
  8
Profil
100
AcDbVertex
100
AcDb2dVertex
 10
-30.93223953247071
 20
-34.38718414306641
 30
0.0
  0
VERTEX
  5
3F4
330
284
100
AcDbEntity
  8
Profil
100
AcDbVertex
100
AcDb2dVertex
 10
-31.06493759155274
 20
-34.32701873779297
 30
0.0
  0
VERTEX
  5
3F5
330
284
100
AcDbEntity
  8
Profil
100
AcDbVertex
100
AcDb2dVertex
 10
-31.19994163513184
 20
-34.27164840698242
 30
0.0
  0
VERTEX
  5
3F6
330
284
100
AcDbEntity
  8
Profil
100
AcDbVertex
100
AcDb2dVertex
 10
-31.33712005615234
 20
-34.22116088867188
 30
0.0
  0
VERTEX
  5
3F7
330
284
100
AcDbEntity
  8
Profil
100
AcDbVertex
100
AcDb2dVertex
 10
-31.47635650634766
 20
-34.17562866210938
 30
0.0
  0
VERTEX
  5
3F8
330
284
100
AcDbEntity
  8
Profil
100
AcDbVertex
100
AcDb2dVertex
 10
-31.61751937866211
 20
-34.13514709472656
 30
0.0
  0
VERTEX
  5
3F9
330
284
100
AcDbEntity
  8
Profil
100
AcDbVertex
100
AcDb2dVertex
 10
-31.76049041748047
 20
-34.09979248046875
 30
0.0
  0
VERTEX
  5
3FA
330
284
100
AcDbEntity
  8
Profil
100
AcDbVertex
100
AcDb2dVertex
 10
-31.90514183044434
 20
-34.06964492797852
 30
0.0
  0
VERTEX
  5
3FB
330
284
100
AcDbEntity
  8
Profil
100
AcDbVertex
100
AcDb2dVertex
 10
-32.05134582519531
 20
-34.04479598999023
 30
0.0
  0
VERTEX
  5
3FC
330
284
100
AcDbEntity
  8
Profil
100
AcDbVertex
100
AcDb2dVertex
 10
-32.1989860534668
 20
-34.02532196044922
 30
0.0
  0
VERTEX
  5
3FD
330
284
100
AcDbEntity
  8
Profil
100
AcDbVertex
100
AcDb2dVertex
 10
-32.34793090820313
 20
-34.01131057739258
 30
0.0
  0
VERTEX
  5
3FE
330
284
100
AcDbEntity
  8
Profil
100
AcDbVertex
100
AcDb2dVertex
 10
-32.4980583190918
 20
-34.00284194946289
 30
0.0
  0
VERTEX
  5
3FF
330
284
100
AcDbEntity
  8
Profil
100
AcDbVertex
100
AcDb2dVertex
 10
-32.64924621582031
 20
-34.0
 30
0.0
  0
VERTEX
  5
400
330
284
100
AcDbEntity
  8
Profil
100
AcDbVertex
100
AcDb2dVertex
 10
-35.18743515014648
 20
-34.0
 30
0.0
  0
VERTEX
  5
401
330
284
100
AcDbEntity
  8
Profil
100
AcDbVertex
100
AcDb2dVertex
 10
-40.0
 20
-34.0
 30
0.0
  0
VERTEX
  5
402
330
284
100
AcDbEntity
  8
Profil
100
AcDbVertex
100
AcDb2dVertex
 10
-40.0
 20
-39.90000152587891
 30
0.0
  0
VERTEX
  5
403
330
284
100
AcDbEntity
  8
Profil
100
AcDbVertex
100
AcDb2dVertex
 10
-36.15000152587891
 20
-39.90000152587891
 30
0.0
  0
VERTEX
  5
404
330
284
100
AcDbEntity
  8
Profil
100
AcDbVertex
100
AcDb2dVertex
 10
-36.15000152587891
 20
-42.0
 30
0.0
  0
VERTEX
  5
405
330
284
100
AcDbEntity
  8
Profil
100
AcDbVertex
100
AcDb2dVertex
 10
-42.0
 20
-42.0
 30
0.0
  0
VERTEX
  5
406
330
284
100
AcDbEntity
  8
Profil
100
AcDbVertex
100
AcDb2dVertex
 10
-42.0
 20
-0.1500000059604645
 30
0.0
  0
VERTEX
  5
407
330
284
100
AcDbEntity
  8
Profil
100
AcDbVertex
100
AcDb2dVertex
 10
-39.90000152587891
 20
-0.1500000059604645
 30
0.0
  0
VERTEX
  5
408
330
284
100
AcDbEntity
  8
Profil
100
AcDbVertex
100
AcDb2dVertex
 10
-39.90000152587891
 20
-4.467329502105712
 30
0.0
  0
VERTEX
  5
409
330
284
100
AcDbEntity
  8
Profil
100
AcDbVertex
100
AcDb2dVertex
 10
-36.46926498413086
 20
-3.046273231506347
 30
0.0
  0
VERTEX
  5
40A
330
284
100
AcDbEntity
  8
Profil
100
AcDbVertex
100
AcDb2dVertex
 10
-36.33067321777344
 20
-2.9857919216156
 30
0.0
  0
VERTEX
  5
40B
330
284
100
AcDbEntity
  8
Profil
100
AcDbVertex
100
AcDb2dVertex
 10
-36.19521713256836
 20
-2.920516729354858
 30
0.0
  0
VERTEX
  5
40C
330
284
100
AcDbEntity
  8
Profil
100
AcDbVertex
100
AcDb2dVertex
 10
-36.06296920776367
 20
-2.850571632385253
 30
0.0
  0
VERTEX
  5
40D
330
284
100
AcDbEntity
  8
Profil
100
AcDbVertex
100
AcDb2dVertex
 10
-35.93402099609375
 20
-2.776082277297973
 30
0.0
  0
VERTEX
  5
40E
330
284
100
AcDbEntity
  8
Profil
100
AcDbVertex
100
AcDb2dVertex
 10
-35.80845260620117
 20
-2.697172164916992
 30
0.0
  0
VERTEX
  5
40F
330
284
100
AcDbEntity
  8
Profil
100
AcDbVertex
100
AcDb2dVertex
 10
-35.68635177612305
 20
-2.613966464996337
 30
0.0
  0
VERTEX
  5
410
330
284
100
AcDbEntity
  8
Profil
100
AcDbVertex
100
AcDb2dVertex
 10
-35.56779479980469
 20
-2.526589393615722
 30
0.0
  0
VERTEX
  5
411
330
284
100
AcDbEntity
  8
Profil
100
AcDbVertex
100
AcDb2dVertex
 10
-35.45286560058594
 20
-2.435165643692016
 30
0.0
  0
VERTEX
  5
412
330
284
100
AcDbEntity
  8
Profil
100
AcDbVertex
100
AcDb2dVertex
 10
-35.34165573120117
 20
-2.33981966972351
 30
0.0
  0
VERTEX
  5
413
330
284
100
AcDbEntity
  8
Profil
100
AcDbVertex
100
AcDb2dVertex
 10
-35.23423767089844
 20
-2.240675926208496
 30
0.0
  0
VERTEX
  5
414
330
284
100
AcDbEntity
  8
Profil
100
AcDbVertex
100
AcDb2dVertex
 10
-35.13069915771485
 20
-2.137858867645263
 30
0.0
  0
VERTEX
  5
415
330
284
100
AcDbEntity
  8
Profil
100
AcDbVertex
100
AcDb2dVertex
 10
-35.03112411499023
 20
-2.031493425369262
 30
0.0
  0
VERTEX
  5
416
330
284
100
AcDbEntity
  8
Profil
100
AcDbVertex
100
AcDb2dVertex
 10
-34.93560028076172
 20
-1.921703934669494
 30
0.0
  0
VERTEX
  5
417
330
284
100
AcDbEntity
  8
Profil
100
AcDbVertex
100
AcDb2dVertex
 10
-34.84420013427734
 20
-1.80861485004425
 30
0.0
  0
VERTEX
  5
418
330
284
100
AcDbEntity
  8
Profil
100
AcDbVertex
100
AcDb2dVertex
 10
-34.75701141357422
 20
-1.692350506782531
 30
0.0
  0
VERTEX
  5
419
330
284
100
AcDbEntity
  8
Profil
100
AcDbVertex
100
AcDb2dVertex
 10
-34.67412185668945
 20
-1.573035955429077
 30
0.0
  0
VERTEX
  5
41A
330
284
100
AcDbEntity
  8
Profil
100
AcDbVertex
100
AcDb2dVertex
 10
-34.59561157226563
 20
-1.450795173645019
 30
0.0
  0
VERTEX
  5
41B
330
284
100
AcDbEntity
  8
Profil
100
AcDbVertex
100
AcDb2dVertex
 10
-34.52156066894531
 20
-1.325753450393676
 30
0.0
  0
VERTEX
  5
41C
330
284
100
AcDbEntity
  8
Profil
100
AcDbVertex
100
AcDb2dVertex
 10
-34.45205688476562
 20
-1.198034524917602
 30
0.0
  0
VERTEX
  5
41D
330
284
100
AcDbEntity
  8
Profil
100
AcDbVertex
100
AcDb2dVertex
 10
-34.38718414306641
 20
-1.067763328552246
 30
0.0
  0
VERTEX
  5
41E
330
284
100
AcDbEntity
  8
Profil
100
AcDbVertex
100
AcDb2dVertex
 10
-34.32701873779297
 20
-0.9350641369819641
 30
0.0
  0
VERTEX
  5
41F
330
284
100
AcDbEntity
  8
Profil
100
AcDbVertex
100
AcDb2dVertex
 10
-34.27164840698242
 20
-0.800061821937561
 30
0.0
  0
VERTEX
  5
420
330
284
100
AcDbEntity
  8
Profil
100
AcDbVertex
100
AcDb2dVertex
 10
-34.22116088867188
 20
-0.6628807187080384
 30
0.0
  0
VERTEX
  5
421
330
284
100
AcDbEntity
  8
Profil
100
AcDbVertex
100
AcDb2dVertex
 10
-34.17562866210938
 20
-0.5236454606056214
 30
0.0
  0
VERTEX
  5
422
330
284
100
AcDbEntity
  8
Profil
100
AcDbVertex
100
AcDb2dVertex
 10
-34.13514709472656
 20
-0.3824805319309234
 30
0.0
  0
VERTEX
  5
423
330
284
100
AcDbEntity
  8
Profil
100
AcDbVertex
100
AcDb2dVertex
 10
-34.09979248046875
 20
-0.2395102679729462
 30
0.0
  0
VERTEX
  5
424
330
284
100
AcDbEntity
  8
Profil
100
AcDbVertex
100
AcDb2dVertex
 10
-34.06964492797852
 20
-0.0948595404624939
 30
0.0
  0
VERTEX
  5
425
330
284
100
AcDbEntity
  8
Profil
100
AcDbVertex
100
AcDb2dVertex
 10
-34.04479598999023
 20
0.0513473153114319
 30
0.0
  0
VERTEX
  5
426
330
284
100
AcDbEntity
  8
Profil
100
AcDbVertex
100
AcDb2dVertex
 10
-34.02532196044922
 20
0.198985755443573
 30
0.0
  0
VERTEX
  5
427
330
284
100
AcDbEntity
  8
Profil
100
AcDbVertex
100
AcDb2dVertex
 10
-34.01131057739258
 20
0.3479311466217041
 30
0.0
  0
VERTEX
  5
428
330
284
100
AcDbEntity
  8
Profil
100
AcDbVertex
100
AcDb2dVertex
 10
-34.00284194946289
 20
0.4980590641498566
 30
0.0
  0
VERTEX
  5
429
330
284
100
AcDbEntity
  8
Profil
100
AcDbVertex
100
AcDb2dVertex
 10
-34.0
 20
0.6492449641227723
 30
0.0
  0
VERTEX
  5
42A
330
284
100
AcDbEntity
  8
Profil
100
AcDbVertex
100
AcDb2dVertex
 10
-34.0
 20
3.350754976272583
 30
0.0
  0
VERTEX
  5
42B
330
284
100
AcDbEntity
  8
Profil
100
AcDbVertex
100
AcDb2dVertex
 10
-34.00284194946289
 20
3.501940965652465
 30
0.0
  0
VERTEX
  5
42C
330
284
100
AcDbEntity
  8
Profil
100
AcDbVertex
100
AcDb2dVertex
 10
-34.01131057739258
 20
3.652068853378295
 30
0.0
  0
VERTEX
  5
42D
330
284
100
AcDbEntity
  8
Profil
100
AcDbVertex
100
AcDb2dVertex
 10
-34.02531814575195
 20
3.801014900207519
 30
0.0
  0
VERTEX
  5
42E
330
284
100
AcDbEntity
  8
Profil
100
AcDbVertex
100
AcDb2dVertex
 10
-34.04479598999023
 20
3.948652982711791
 30
0.0
  0
VERTEX
  5
42F
330
284
100
AcDbEntity
  8
Profil
100
AcDbVertex
100
AcDb2dVertex
 10
-34.06964492797852
 20
4.094859600067138
 30
0.0
  0
VERTEX
  5
430
330
284
100
AcDbEntity
  8
Profil
100
AcDbVertex
100
AcDb2dVertex
 10
-34.09979248046875
 20
4.239510536193847
 30
0.0
  0
VERTEX
  5
431
330
284
100
AcDbEntity
  8
Profil
100
AcDbVertex
100
AcDb2dVertex
 10
-34.13514709472656
 20
4.38248062133789
 30
0.0
  0
VERTEX
  5
432
330
284
100
AcDbEntity
  8
Profil
100
AcDbVertex
100
AcDb2dVertex
 10
-34.17562866210938
 20
4.523645401000976
 30
0.0
  0
VERTEX
  5
433
330
284
100
AcDbEntity
  8
Profil
100
AcDbVertex
100
AcDb2dVertex
 10
-34.22116088867188
 20
4.662880897521972
 30
0.0
  0
VERTEX
  5
434
330
284
100
AcDbEntity
  8
Profil
100
AcDbVertex
100
AcDb2dVertex
 10
-34.27164840698242
 20
4.800061225891113
 30
0.0
  0
VERTEX
  5
435
330
284
100
AcDbEntity
  8
Profil
100
AcDbVertex
100
AcDb2dVertex
 10
-34.32701873779297
 20
4.935064315795898
 30
0.0
  0
VERTEX
  5
436
330
284
100
AcDbEntity
  8
Profil
100
AcDbVertex
100
AcDb2dVertex
 10
-34.38718032836914
 20
5.067763328552246
 30
0.0
  0
VERTEX
  5
437
330
284
100
AcDbEntity
  8
Profil
100
AcDbVertex
100
AcDb2dVertex
 10
-34.45205688476562
 20
5.198034286499023
 30
0.0
  0
VERTEX
  5
438
330
284
100
AcDbEntity
  8
Profil
100
AcDbVertex
100
AcDb2dVertex
 10
-34.52156066894531
 20
5.325753211975097
 30
0.0
  0
VERTEX
  5
439
330
284
100
AcDbEntity
  8
Profil
100
AcDbVertex
100
AcDb2dVertex
 10
-34.59560775756836
 20
5.450795173645019
 30
0.0
  0
VERTEX
  5
43A
330
284
100
AcDbEntity
  8
Profil
100
AcDbVertex
100
AcDb2dVertex
 10
-34.67412185668945
 20
5.573036193847656
 30
0.0
  0
VERTEX
  5
43B
330
284
100
AcDbEntity
  8
Profil
100
AcDbVertex
100
AcDb2dVertex
 10
-34.75701141357422
 20
5.6923508644104
 30
0.0
  0
VERTEX
  5
43C
330
284
100
AcDbEntity
  8
Profil
100
AcDbVertex
100
AcDb2dVertex
 10
-34.84420013427734
 20
5.80861473083496
 30
0.0
  0
VERTEX
  5
43D
330
284
100
AcDbEntity
  8
Profil
100
AcDbVertex
100
AcDb2dVertex
 10
-34.93559265136719
 20
5.921703815460205
 30
0.0
  0
VERTEX
  5
43E
330
284
100
AcDbEntity
  8
Profil
100
AcDbVertex
100
AcDb2dVertex
 10
-35.0311279296875
 20
6.031493186950683
 30
0.0
  0
VERTEX
  5
43F
330
284
100
AcDbEntity
  8
Profil
100
AcDbVertex
100
AcDb2dVertex
 10
-35.13069915771485
 20
6.137858867645263
 30
0.0
  0
VERTEX
  5
440
330
284
100
AcDbEntity
  8
Profil
100
AcDbVertex
100
AcDb2dVertex
 10
-35.23423385620117
 20
6.240675926208496
 30
0.0
  0
VERTEX
  5
441
330
284
100
AcDbEntity
  8
Profil
100
AcDbVertex
100
AcDb2dVertex
 10
-35.34165191650391
 20
6.339819431304931
 30
0.0
  0
VERTEX
  5
442
330
284
100
AcDbEntity
  8
Profil
100
AcDbVertex
100
AcDb2dVertex
 10
-35.45286560058594
 20
6.435165405273437
 30
0.0
  0
VERTEX
  5
443
330
284
100
AcDbEntity
  8
Profil
100
AcDbVertex
100
AcDb2dVertex
 10
-35.56779479980469
 20
6.526589393615722
 30
0.0
  0
VERTEX
  5
444
330
284
100
AcDbEntity
  8
Profil
100
AcDbVertex
100
AcDb2dVertex
 10
-35.68634796142578
 20
6.613966464996337
 30
0.0
  0
VERTEX
  5
445
330
284
100
AcDbEntity
  8
Profil
100
AcDbVertex
100
AcDb2dVertex
 10
-35.80845642089844
 20
6.697172164916992
 30
0.0
  0
VERTEX
  5
446
330
284
100
AcDbEntity
  8
Profil
100
AcDbVertex
100
AcDb2dVertex
 10
-35.93402099609375
 20
6.776082515716552
 30
0.0
  0
VERTEX
  5
447
330
284
100
AcDbEntity
  8
Profil
100
AcDbVertex
100
AcDb2dVertex
 10
-36.06296920776367
 20
6.850572109222412
 30
0.0
  0
VERTEX
  5
448
330
284
100
AcDbEntity
  8
Profil
100
AcDbVertex
100
AcDb2dVertex
 10
-36.19521331787109
 20
6.920516490936279
 30
0.0
  0
VERTEX
  5
449
330
284
100
AcDbEntity
  8
Profil
100
AcDbVertex
100
AcDb2dVertex
 10
-36.33067321777344
 20
6.985792160034179
 30
0.0
  0
VERTEX
  5
44A
330
284
100
AcDbEntity
  8
Profil
100
AcDbVertex
100
AcDb2dVertex
 10
-36.46926498413086
 20
7.046273231506347
 30
0.0
  0
VERTEX
  5
44B
330
284
100
AcDbEntity
  8
Profil
100
AcDbVertex
100
AcDb2dVertex
 10
-39.90000152587891
 20
8.467329978942871
 30
0.0
  0
VERTEX
  5
44C
330
284
100
AcDbEntity
  8
Profil
100
AcDbVertex
100
AcDb2dVertex
 10
-39.90000152587891
 20
4.150000095367431
 30
0.0
  0
VERTEX
  5
44D
330
284
100
AcDbEntity
  8
Profil
100
AcDbVertex
100
AcDb2dVertex
 10
-42.0
 20
4.150000095367431
 30
0.0
  0
VERTEX
  5
44E
330
284
100
AcDbEntity
  8
Profil
100
AcDbVertex
100
AcDb2dVertex
 10
-42.0
 20
42.0
 30
0.0
  0
SEQEND
  5
452
330
284
100
AcDbEntity
  8
Profil
  0
POLYLINE
  5
453
330
1F
100
AcDbEntity
  8
Konstruktion_Einfach
100
AcDb2dPolyline
 66
     1
 10
0.0
 20
0.0
 30
0.0
 70
     1
  0
VERTEX
  5
454
330
453
100
AcDbEntity
  8
Konstruktion_Einfach
100
AcDbVertex
100
AcDb2dVertex
 10
-42.0
 20
-42.0
 30
0.0
  0
VERTEX
  5
455
330
453
100
AcDbEntity
  8
Konstruktion_Einfach
100
AcDbVertex
100
AcDb2dVertex
 10
42.0
 20
-42.0
 30
0.0
  0
VERTEX
  5
456
330
453
100
AcDbEntity
  8
Konstruktion_Einfach
100
AcDbVertex
100
AcDb2dVertex
 10
42.0
 20
42.0
 30
0.0
  0
VERTEX
  5
457
330
453
100
AcDbEntity
  8
Konstruktion_Einfach
100
AcDbVertex
100
AcDb2dVertex
 10
-42.0
 20
42.0
 30
0.0
  0
SEQEND
  5
458
330
453
100
AcDbEntity
  8
Konstruktion_Einfach
  0
ENDSEC
  0
SECTION
  2
OBJECTS
  0
DICTIONARY
  5
C
330
0
100
AcDbDictionary
281
     1
  3
ACAD_COLOR
350
DC
  3
ACAD_DETAILVIEWSTYLE
350
F5
  3
ACAD_GROUP
350
D
  3
ACAD_LAYOUT
350
1A
  3
ACAD_MATERIAL
350
AA
  3
ACAD_MLEADERSTYLE
350
F1
  3
ACAD_MLINESTYLE
350
17
  3
ACAD_PLOTSETTINGS
350
19
  3
ACAD_PLOTSTYLENAME
350
E
  3
ACAD_SCALELIST
350
DF
  3
ACAD_SECTIONVIEWSTYLE
350
F3
  3
ACAD_TABLESTYLE
350
DD
  3
ACAD_VISUALSTYLE
350
C3
  3
ACDB_RECOMPOSE_DATA
350
465
  3
AcDbVariableDictionary
350
459
  0
DICTIONARY
  5
DC
102
{ACAD_REACTORS
330
C
102
}
330
C
100
AcDbDictionary
281
     1
  0
DICTIONARY
  5
F5
102
{ACAD_REACTORS
330
C
102
}
330
C
100
AcDbDictionary
281
     1
  3
Imperial24
350
F6
  0
DICTIONARY
  5
D
102
{ACAD_REACTORS
330
C
102
}
330
C
100
AcDbDictionary
281
     1
  0
DICTIONARY
  5
1A
102
{ACAD_REACTORS
330
C
102
}
330
C
100
AcDbDictionary
281
     1
  3
Layout1
350
1E
  3
Layout2
350
26
  3
Model
350
22
  0
DICTIONARY
  5
AA
102
{ACAD_REACTORS
330
C
102
}
330
C
100
AcDbDictionary
281
     1
  3
ByBlock
350
B3
  3
ByLayer
350
AB
  3
Global
350
BB
  0
DICTIONARY
  5
F1
102
{ACAD_REACTORS
330
C
102
}
330
C
100
AcDbDictionary
281
     1
  3
Standard
350
F2
  0
DICTIONARY
  5
17
102
{ACAD_REACTORS
330
C
102
}
330
C
100
AcDbDictionary
281
     1
  3
Standard
350
18
  0
DICTIONARY
  5
19
102
{ACAD_REACTORS
330
C
102
}
330
C
100
AcDbDictionary
281
     1
  0
ACDBDICTIONARYWDFLT
  5
E
102
{ACAD_REACTORS
330
C
102
}
330
C
100
AcDbDictionary
281
     1
  3
ByLayer
350
2D
  3
Normal
350
F
100
AcDbDictionaryWithDefault
340
F
  0
DICTIONARY
  5
DF
102
{ACAD_REACTORS
330
C
102
}
330
C
100
AcDbDictionary
281
     1
  3
A0
350
E0
  3
A1
350
E1
  3
A2
350
E2
  3
A3
350
E3
  3
A4
350
E4
  3
A5
350
E5
  3
A6
350
E6
  3
A7
350
E7
  3
A8
350
E8
  3
A9
350
E9
  3
B0
350
EA
  3
B1
350
EB
  3
B2
350
EC
  3
B3
350
ED
  3
B4
350
EE
  3
B5
350
EF
  3
B6
350
F0
  0
DICTIONARY
  5
F3
102
{ACAD_REACTORS
330
C
102
}
330
C
100
AcDbDictionary
281
     1
  3
Imperial24
350
F4
  0
DICTIONARY
  5
DD
102
{ACAD_REACTORS
330
C
102
}
330
C
100
AcDbDictionary
281
     1
  3
Standard
350
DE
  0
DICTIONARY
  5
C3
102
{ACAD_REACTORS
330
C
102
}
330
C
100
AcDbDictionary
281
     1
  3
2dWireframe
350
C9
  3
Basic
350
C8
  3
Brighten
350
CF
  3
ColorChange
350
D3
  3
Conceptual
350
CC
  3
Dim
350
CE
  3
EdgeColorOff
350
DB
  3
Facepattern
350
D2
  3
Flat
350
C4
  3
FlatWithEdges
350
C5
  3
Gouraud
350
C6
  3
GouraudWithEdges
350
C7
  3
Hidden
350
CB
  3
JitterOff
350
D9
  3
Linepattern
350
D1
  3
OverhangOff
350
DA
  3
Realistic
350
CD
  3
Shaded
350
D8
  3
Shaded with edges
350
D7
  3
Shades of Gray
350
D4
  3
Sketchy
350
D5
  3
Thicken
350
D0
  3
Wireframe
350
CA
  3
X-Ray
350
D6
  0
XRECORD
  5
465
102
{ACAD_REACTORS
330
C
102
}
330
C
100
AcDbXrecord
280
     1
 90
        1
330
DE
  0
DICTIONARY
  5
459
102
{ACAD_REACTORS
330
C
102
}
330
C
100
AcDbDictionary
281
     1
  3
CANNOSCALE
350
45F
  3
CMLEADERSTYLE
350
45B
  3
CTABLESTYLE
350
45A
  3
CVIEWDETAILSTYLE
350
45C
  3
CVIEWSECTIONSTYLE
350
45D
  3
LAYEREVAL
350
461
  3
LAYERNOTIFY
350
462
  3
LIGHTINGUNITS
350
460
  3
MSLTSCALE
350
45E
  0
ACDBDETAILVIEWSTYLE
  5
F6
102
{ACAD_XDICTIONARY
360
49A
102
}
102
{ACAD_REACTORS
330
F5
102
}
330
F5
100
AcDbModelDocViewStyle
 70
     0
  3
Imperial24
290
     0
100
AcDbDetailViewStyle
 70
     0
 71
     0
 90
        3
 71
     1
340
11
 62
   256
 40
0.24
340
0
 62
   256
 40
0.24
300

 40
0.36
280
     3
 71
     2
340
16
 90
       25
 62
   256
 71
     3
340
11
 62
   256
 40
0.24
 90
        1
 40
0.75
 90
        1
300
%<\AcVar ViewType \f "%tc1">% %<\AcVar ViewDetailId>%\PSCALE %<\AcVar ViewScale \f "%sn">%
 71
     4
340
16
 90
       25
 62
   256
340
16
 90
       25
 62
   256
280
     0
  0
LAYOUT
  5
1E
102
{ACAD_REACTORS
330
1A
102
}
330
1A
100
AcDbPlotSettings
  1

  2
\\KTXNTBDC\CASF2PN1
  4

  6

 40
0.0
 41
0.0
 42
0.0
 43
0.0
 44
0.0
 45
0.0
 46
0.0
 47
0.0
 48
0.0
 49
0.0
140
0.0
141
0.0
142
1.0
143
1.0
 70
   688
 72
     0
 73
     0
 74
     5
  7

 75
    16
147
1.0
 76
     0
 77
     2
 78
   300
148
0.0
149
0.0
100
AcDbLayout
  1
Layout1
 70
     1
 71
     1
 10
0.0
 20
0.0
 11
12.0
 21
9.0
 12
0.0
 22
0.0
 32
0.0
 14
1.000000000000000E+20
 24
1.000000000000000E+20
 34
1.000000000000000E+20
 15
-1.000000000000000E+20
 25
-1.000000000000000E+20
 35
-1.000000000000000E+20
146
0.0
 13
0.0
 23
0.0
 33
0.0
 16
1.0
 26
0.0
 36
0.0
 17
0.0
 27
1.0
 37
0.0
 76
     0
330
1B
  0
LAYOUT
  5
26
102
{ACAD_REACTORS
330
1A
102
}
330
1A
100
AcDbPlotSettings
  1

  2
\\KTXNTBDC\CASF2PN1
  4

  6

 40
0.0
 41
0.0
 42
0.0
 43
0.0
 44
0.0
 45
0.0
 46
0.0
 47
0.0
 48
0.0
 49
0.0
140
0.0
141
0.0
142
1.0
143
1.0
 70
   688
 72
     0
 73
     0
 74
     5
  7

 75
    16
147
1.0
 76
     0
 77
     2
 78
   300
148
0.0
149
0.0
100
AcDbLayout
  1
Layout2
 70
     1
 71
     2
 10
0.0
 20
0.0
 11
12.0
 21
9.0
 12
0.0
 22
0.0
 32
0.0
 14
0.0
 24
0.0
 34
0.0
 15
0.0
 25
0.0
 35
0.0
146
0.0
 13
0.0
 23
0.0
 33
0.0
 16
1.0
 26
0.0
 36
0.0
 17
0.0
 27
1.0
 37
0.0
 76
     0
330
23
  0
LAYOUT
  5
22
102
{ACAD_REACTORS
330
1A
102
}
330
1A
100
AcDbPlotSettings
  1

  2
\\KTXNTBDC\CASF2PN1
  4

  6

 40
0.0
 41
0.0
 42
0.0
 43
0.0
 44
0.0
 45
0.0
 46
0.0
 47
0.0
 48
0.0
 49
0.0
140
0.0
141
0.0
142
1.0
143
1.0
 70
  1712
 72
     0
 73
     0
 74
     0
  7

 75
     0
147
1.0
 76
     0
 77
     2
 78
   300
148
0.0
149
0.0
100
AcDbLayout
  1
Model
 70
     1
 71
     0
 10
0.0
 20
0.0
 11
12.0
 21
9.0
 12
0.0
 22
0.0
 32
0.0
 14
0.0
 24
0.0
 34
0.0
 15
0.0
 25
0.0
 35
0.0
146
0.0
 13
0.0
 23
0.0
 33
0.0
 16
1.0
 26
0.0
 36
0.0
 17
0.0
 27
1.0
 37
0.0
 76
     0
330
1F
  0
MATERIAL
  5
B3
102
{ACAD_XDICTIONARY
360
B4
102
}
102
{ACAD_REACTORS
330
AA
102
}
330
AA
100
AcDbMaterial
  1
ByBlock
 72
     0
 43
0.0208333333333333
 43
0.0
 43
0.0
 43
0.0
 43
0.0
 43
0.0208333333333333
 43
0.0
 43
0.0
 43
0.0
 43
0.0
 43
1.0
 43
0.0
 43
0.0
 43
0.0
 43
0.0
 43
1.0
 77
     0
 47
0.0208333333333333
 47
0.0
 47
0.0
 47
0.0
 47
0.0
 47
0.0208333333333333
 47
0.0
 47
0.0
 47
0.0
 47
0.0
 47
1.0
 47
0.0
 47
0.0
 47
0.0
 47
0.0
 47
1.0
171
     0
 49
0.0208333333333333
 49
0.0
 49
0.0
 49
0.0
 49
0.0
 49
0.0208333333333333
 49
0.0
 49
0.0
 49
0.0
 49
0.0
 49
1.0
 49
0.0
 49
0.0
 49
0.0
 49
0.0
 49
1.0
175
     0
142
0.0208333333333333
142
0.0
142
0.0
142
0.0
142
0.0
142
0.0208333333333333
142
0.0
142
0.0
142
0.0
142
0.0
142
1.0
142
0.0
142
0.0
142
0.0
142
0.0
142
1.0
179
     0
144
0.0208333333333333
144
0.0
144
0.0
144
0.0
144
0.0
144
0.0208333333333333
144
0.0
144
0.0
144
0.0
144
0.0
144
1.0
144
0.0
144
0.0
144
0.0
144
0.0
144
1.0
147
0.0208333333333333
147
0.0
147
0.0
147
0.0
147
0.0
147
0.0208333333333333
147
0.0
147
0.0
147
0.0
147
0.0
147
1.0
147
0.0
147
0.0
147
0.0
147
0.0
147
1.0
  0
MATERIAL
  5
AB
102
{ACAD_XDICTIONARY
360
AC
102
}
102
{ACAD_REACTORS
330
AA
102
}
330
AA
100
AcDbMaterial
  1
ByLayer
 72
     0
 43
0.0208333333333333
 43
0.0
 43
0.0
 43
0.0
 43
0.0
 43
0.0208333333333333
 43
0.0
 43
0.0
 43
0.0
 43
0.0
 43
1.0
 43
0.0
 43
0.0
 43
0.0
 43
0.0
 43
1.0
 77
     0
 47
0.0208333333333333
 47
0.0
 47
0.0
 47
0.0
 47
0.0
 47
0.0208333333333333
 47
0.0
 47
0.0
 47
0.0
 47
0.0
 47
1.0
 47
0.0
 47
0.0
 47
0.0
 47
0.0
 47
1.0
171
     0
 49
0.0208333333333333
 49
0.0
 49
0.0
 49
0.0
 49
0.0
 49
0.0208333333333333
 49
0.0
 49
0.0
 49
0.0
 49
0.0
 49
1.0
 49
0.0
 49
0.0
 49
0.0
 49
0.0
 49
1.0
175
     0
142
0.0208333333333333
142
0.0
142
0.0
142
0.0
142
0.0
142
0.0208333333333333
142
0.0
142
0.0
142
0.0
142
0.0
142
1.0
142
0.0
142
0.0
142
0.0
142
0.0
142
1.0
179
     0
144
0.0208333333333333
144
0.0
144
0.0
144
0.0
144
0.0
144
0.0208333333333333
144
0.0
144
0.0
144
0.0
144
0.0
144
1.0
144
0.0
144
0.0
144
0.0
144
0.0
144
1.0
147
0.0208333333333333
147
0.0
147
0.0
147
0.0
147
0.0
147
0.0208333333333333
147
0.0
147
0.0
147
0.0
147
0.0
147
1.0
147
0.0
147
0.0
147
0.0
147
0.0
147
1.0
  0
MATERIAL
  5
BB
102
{ACAD_XDICTIONARY
360
BC
102
}
102
{ACAD_REACTORS
330
AA
102
}
330
AA
100
AcDbMaterial
  1
Global
 72
     0
 43
0.0208333333333333
 43
0.0
 43
0.0
 43
0.0
 43
0.0
 43
0.0208333333333333
 43
0.0
 43
0.0
 43
0.0
 43
0.0
 43
1.0
 43
0.0
 43
0.0
 43
0.0
 43
0.0
 43
1.0
 77
     0
 47
0.0208333333333333
 47
0.0
 47
0.0
 47
0.0
 47
0.0
 47
0.0208333333333333
 47
0.0
 47
0.0
 47
0.0
 47
0.0
 47
1.0
 47
0.0
 47
0.0
 47
0.0
 47
0.0
 47
1.0
171
     0
 49
0.0208333333333333
 49
0.0
 49
0.0
 49
0.0
 49
0.0
 49
0.0208333333333333
 49
0.0
 49
0.0
 49
0.0
 49
0.0
 49
1.0
 49
0.0
 49
0.0
 49
0.0
 49
0.0
 49
1.0
175
     0
142
0.0208333333333333
142
0.0
142
0.0
142
0.0
142
0.0
142
0.0208333333333333
142
0.0
142
0.0
142
0.0
142
0.0
142
1.0
142
0.0
142
0.0
142
0.0
142
0.0
142
1.0
179
     0
144
0.0208333333333333
144
0.0
144
0.0
144
0.0
144
0.0
144
0.0208333333333333
144
0.0
144
0.0
144
0.0
144
0.0
144
1.0
144
0.0
144
0.0
144
0.0
144
0.0
144
1.0
147
0.0208333333333333
147
0.0
147
0.0
147
0.0
147
0.0
147
0.0208333333333333
147
0.0
147
0.0
147
0.0
147
0.0
147
1.0
147
0.0
147
0.0
147
0.0
147
0.0
147
1.0
  0
MLEADERSTYLE
  5
F2
102
{ACAD_XDICTIONARY
360
496
102
}
102
{ACAD_REACTORS
330
F1
102
}
330
F1
100
AcDbMLeaderStyle
179
     2
170
     2
171
     1
172
     0
 90
        2
 40
0.0
 41
0.0
173
     1
 91
-1056964608
340
14
 92
       -2
290
     1
 42
0.09
291
     1
 43
0.36
  3
Standard
 44
0.18
300

342
11
174
     1
178
     6
175
     1
176
     0
 93
-1056964608
 45
0.18
292
     0
297
     0
 46
0.18
 94
-1056964608
 47
1.0
 49
1.0
140
1.0
293
     1
141
0.0
294
     1
177
     0
142
1.0
295
     0
296
     0
143
0.125
271
     0
272
     9
273
     9
  0
MLINESTYLE
  5
18
102
{ACAD_REACTORS
330
17
102
}
330
17
100
AcDbMlineStyle
  2
STANDARD
 70
     0
  3

 62
   256
 51
90.0
 52
90.0
 71
     2
 49
0.5
 62
   256
  6
BYLAYER
 49
-0.5
 62
   256
  6
BYLAYER
  0
ACDBPLACEHOLDER
  5
2D
102
{ACAD_REACTORS
330
E
102
}
330
E
  0
ACDBPLACEHOLDER
  5
F
102
{ACAD_REACTORS
330
E
102
}
330
E
  0
SCALE
  5
E0
102
{ACAD_REACTORS
330
DF
102
}
330
DF
100
AcDbScale
 70
     0
300
1:1
140
1.0
141
1.0
290
     1
  0
SCALE
  5
E1
102
{ACAD_REACTORS
330
DF
102
}
330
DF
100
AcDbScale
 70
     0
300
1/128" = 1'-0"
140
0.0078125
141
12.0
290
     0
  0
SCALE
  5
E2
102
{ACAD_REACTORS
330
DF
102
}
330
DF
100
AcDbScale
 70
     0
300
1/64" = 1'-0"
140
0.015625
141
12.0
290
     0
  0
SCALE
  5
E3
102
{ACAD_REACTORS
330
DF
102
}
330
DF
100
AcDbScale
 70
     0
300
1/32" = 1'-0"
140
0.03125
141
12.0
290
     0
  0
SCALE
  5
E4
102
{ACAD_REACTORS
330
DF
102
}
330
DF
100
AcDbScale
 70
     0
300
1/16" = 1'-0"
140
0.0625
141
12.0
290
     0
  0
SCALE
  5
E5
102
{ACAD_REACTORS
330
DF
102
}
330
DF
100
AcDbScale
 70
     0
300
3/32" = 1'-0"
140
0.09375
141
12.0
290
     0
  0
SCALE
  5
E6
102
{ACAD_REACTORS
330
DF
102
}
330
DF
100
AcDbScale
 70
     0
300
1/8" = 1'-0"
140
0.125
141
12.0
290
     0
  0
SCALE
  5
E7
102
{ACAD_REACTORS
330
DF
102
}
330
DF
100
AcDbScale
 70
     0
300
3/16" = 1'-0"
140
0.1875
141
12.0
290
     0
  0
SCALE
  5
E8
102
{ACAD_REACTORS
330
DF
102
}
330
DF
100
AcDbScale
 70
     0
300
1/4" = 1'-0"
140
0.25
141
12.0
290
     0
  0
SCALE
  5
E9
102
{ACAD_REACTORS
330
DF
102
}
330
DF
100
AcDbScale
 70
     0
300
3/8" = 1'-0"
140
0.375
141
12.0
290
     0
  0
SCALE
  5
EA
102
{ACAD_REACTORS
330
DF
102
}
330
DF
100
AcDbScale
 70
     0
300
1/2" = 1'-0"
140
0.5
141
12.0
290
     0
  0
SCALE
  5
EB
102
{ACAD_REACTORS
330
DF
102
}
330
DF
100
AcDbScale
 70
     0
300
3/4" = 1'-0"
140
0.75
141
12.0
290
     0
  0
SCALE
  5
EC
102
{ACAD_REACTORS
330
DF
102
}
330
DF
100
AcDbScale
 70
     0
300
1" = 1'-0"
140
1.0
141
12.0
290
     0
  0
SCALE
  5
ED
102
{ACAD_REACTORS
330
DF
102
}
330
DF
100
AcDbScale
 70
     0
300
1-1/2" = 1'-0"
140
1.5
141
12.0
290
     0
  0
SCALE
  5
EE
102
{ACAD_REACTORS
330
DF
102
}
330
DF
100
AcDbScale
 70
     0
300
3" = 1'-0"
140
3.0
141
12.0
290
     0
  0
SCALE
  5
EF
102
{ACAD_REACTORS
330
DF
102
}
330
DF
100
AcDbScale
 70
     0
300
6" = 1'-0"
140
6.0
141
12.0
290
     0
  0
SCALE
  5
F0
102
{ACAD_REACTORS
330
DF
102
}
330
DF
100
AcDbScale
 70
     0
300
1'-0" = 1'-0"
140
12.0
141
12.0
290
     0
  0
ACDBSECTIONVIEWSTYLE
  5
F4
102
{ACAD_XDICTIONARY
360
498
102
}
102
{ACAD_REACTORS
330
F3
102
}
330
F3
100
AcDbModelDocViewStyle
 70
     0
  3
Imperial24
290
     0
100
AcDbSectionViewStyle
 70
     0
 71
     0
 90
       78
 71
     1
340
11
 62
   256
 40
0.24
340
0
340
0
 62
   256
 40
0.24
300
I, O, Q, S, X, Z
 40
0.48
 90
        3
 40
0.18
 90
        1
 71
     2
340
16
 90
       25
 62
   256
340
16
 90
       50
 62
   256
 40
0.24
 40
0.0
 40
0.24
 71
     3
340
11
 62
   256
 40
0.24
 90
        1
 40
0.75
 90
        1
300
%<\AcVar ViewType \f "%tc1">% %<\AcVar ViewSectionStartId>%-%<\AcVar ViewSectionEndId>%\PSCALE %<\AcVar ViewScale \f "%sn">%
 71
     4
 62
   256
 62
   257
300
ANSI31
 40
1.0
 90
        0
290
     0
290
     0
 90
        6
 40
0.0
 40
1.570796326794896
 40
0.2617993877991494
 40
1.308996938995747
 40
-0.2617993877991494
 40
1.832595714594046
  0
TABLESTYLE
  5
DE
102
{ACAD_XDICTIONARY
360
463
102
}
102
{ACAD_REACTORS
330
DD
102
}
330
DD
100
AcDbTableStyle
280
     0
  3
Standard
 70
     0
 71
     0
 40
0.06
 41
0.06
280
     0
281
     0
  7
Standard
140
0.18
170
     2
 62
     0
 63
     7
283
     0
 90
      512
 91
        0
  1

274
    -2
284
     1
 64
     0
275
    -2
285
     1
 65
     0
276
    -2
286
     1
 66
     0
277
    -2
287
     1
 67
     0
278
    -2
288
     1
 68
     0
279
    -2
289
     1
 69
     0
  7
Standard
140
0.25
170
     5
 62
     0
 63
     7
283
     0
 90
      512
 91
        0
  1

274
    -2
284
     1
 64
     0
275
    -2
285
     1
 65
     0
276
    -2
286
     1
 66
     0
277
    -2
287
     1
 67
     0
278
    -2
288
     1
 68
     0
279
    -2
289
     1
 69
     0
  7
Standard
140
0.18
170
     5
 62
     0
 63
     7
283
     0
 90
      512
 91
        0
  1

274
    -2
284
     1
 64
     0
275
    -2
285
     1
 65
     0
276
    -2
286
     1
 66
     0
277
    -2
287
     1
 67
     0
278
    -2
288
     1
 68
     0
279
    -2
289
     1
 69
     0
  0
VISUALSTYLE
  5
C9
102
{ACAD_XDICTIONARY
360
470
102
}
102
{ACAD_REACTORS
330
C3
102
}
330
C3
100
AcDbVisualStyle
  2
2dWireframe
 70
     4
177
     2
291
     0
 71
     0
176
     1
 72
     2
176
     1
 73
     0
176
     1
 90
        0
176
     1
 40
0.6
176
     1
 41
30.0
176
     1
 63
     7
421
 16777215
176
     1
 74
     1
176
     1
 91
        4
176
     1
 64
     7
176
     1
 65
   257
176
     1
 75
     1
176
     1
175
     1
176
     1
 42
1.0
176
     1
 92
        0
176
     1
 66
   257
176
     1
 43
1.0
176
     1
 76
     1
176
     1
 77
     6
176
     1
 78
     2
176
     1
 67
     7
176
     1
 79
     5
176
     1
170
     0
176
     1
171
     0
176
     1
290
     0
176
     1
 93
        1
176
     1
 44
0.0
176
     1
173
     0
176
     1
1001
ACAD
1000
AcDbSavedByObjectVersion
1070
     0
  0
VISUALSTYLE
  5
C8
102
{ACAD_XDICTIONARY
360
46E
102
}
102
{ACAD_REACTORS
330
C3
102
}
330
C3
100
AcDbVisualStyle
  2
Basic
 70
     7
177
     2
291
     1
 71
     1
176
     1
 72
     0
176
     1
 73
     1
176
     1
 90
        0
176
     1
 40
0.6
176
     1
 41
30.0
176
     1
 63
     7
421
 16777215
176
     1
 74
     0
176
     1
 91
        4
176
     1
 64
     7
176
     1
 65
   257
176
     1
 75
     1
176
     1
175
     1
176
     1
 42
1.0
176
     1
 92
        8
176
     1
 66
     7
176
     1
 43
1.0
176
     1
 76
     1
176
     1
 77
     6
176
     1
 78
     2
176
     1
 67
     7
176
     1
 79
     5
176
     1
170
     0
176
     1
171
     0
176
     1
290
     0
176
     1
 93
        1
176
     1
 44
0.0
176
     1
173
     0
176
     1
1001
ACAD
1000
AcDbSavedByObjectVersion
1070
     0
  0
VISUALSTYLE
  5
CF
102
{ACAD_XDICTIONARY
360
47C
102
}
102
{ACAD_REACTORS
330
C3
102
}
330
C3
100
AcDbVisualStyle
  2
Brighten
 70
    12
177
     2
291
     1
 71
     2
176
     1
 72
     2
176
     1
 73
     0
176
     1
 90
        0
176
     1
 40
0.6
176
     1
 41
30.0
176
     1
 63
     7
421
 16777215
176
     1
 74
     1
176
     1
 91
        4
176
     1
 64
     7
176
     1
 65
   257
176
     1
 75
     1
176
     1
175
     1
176
     1
 42
1.0
176
     1
 92
        8
176
     1
 66
     7
176
     1
 43
1.0
176
     1
 76
     1
176
     1
 77
     6
176
     1
 78
     2
176
     1
 67
     7
176
     1
 79
     5
176
     1
170
     0
176
     1
171
     0
176
     1
290
     0
176
     1
 93
        1
176
     1
 44
50.0
176
     1
173
     0
176
     1
1001
ACAD
1000
AcDbSavedByObjectVersion
1070
     0
  0
VISUALSTYLE
  5
D3
102
{ACAD_XDICTIONARY
360
484
102
}
102
{ACAD_REACTORS
330
C3
102
}
330
C3
100
AcDbVisualStyle
  2
ColorChange
 70
    16
177
     2
291
     1
 71
     2
176
     1
 72
     2
176
     1
 73
     3
176
     1
 90
        0
176
     1
 40
0.6
176
     1
 41
30.0
176
     1
 63
     8
421
  8421504
176
     1
 74
     1
176
     1
 91
        4
176
     1
 64
     7
176
     1
 65
   257
176
     1
 75
     1
176
     1
175
     1
176
     1
 42
1.0
176
     1
 92
        8
176
     1
 66
     8
424
  8421504
176
     1
 43
1.0
176
     1
 76
     1
176
     1
 77
     6
176
     1
 78
     2
176
     1
 67
     7
176
     1
 79
     5
176
     1
170
     0
176
     1
171
     0
176
     1
290
     0
176
     1
 93
        1
176
     1
 44
0.0
176
     1
173
     0
176
     1
1001
ACAD
1000
AcDbSavedByObjectVersion
1070
     0
  0
VISUALSTYLE
  5
CC
102
{ACAD_XDICTIONARY
360
476
102
}
102
{ACAD_REACTORS
330
C3
102
}
330
C3
100
AcDbVisualStyle
  2
Conceptual
 70
     9
177
     2
291
     0
 71
     3
176
     1
 72
     2
176
     1
 73
     0
176
     1
 90
        0
176
     1
 40
0.6
176
     1
 41
30.0
176
     1
 63
     7
421
 16777215
176
     1
 74
     2
176
     1
 91
        2
176
     1
 64
     7
176
     1
 65
   257
176
     1
 75
     1
176
     1
175
     1
176
     1
 42
179.0
176
     1
 92
        8
176
     1
 66
     7
176
     1
 43
1.0
176
     1
 76
     1
176
     1
 77
     6
176
     1
 78
     2
176
     1
 67
     7
176
     1
 79
     3
176
     1
170
     0
176
     1
171
     0
176
     1
290
     0
176
     1
 93
        1
176
     1
 44
0.0
176
     1
173
     0
176
     1
1001
ACAD
1000
AcDbSavedByObjectVersion
1070
     0
  0
VISUALSTYLE
  5
CE
102
{ACAD_XDICTIONARY
360
47A
102
}
102
{ACAD_REACTORS
330
C3
102
}
330
C3
100
AcDbVisualStyle
  2
Dim
 70
    11
177
     2
291
     1
 71
     2
176
     1
 72
     2
176
     1
 73
     0
176
     1
 90
        0
176
     1
 40
0.6
176
     1
 41
30.0
176
     1
 63
     7
421
 16777215
176
     1
 74
     1
176
     1
 91
        4
176
     1
 64
     7
176
     1
 65
   257
176
     1
 75
     1
176
     1
175
     1
176
     1
 42
1.0
176
     1
 92
        8
176
     1
 66
     7
176
     1
 43
1.0
176
     1
 76
     1
176
     1
 77
     6
176
     1
 78
     2
176
     1
 67
     7
176
     1
 79
     5
176
     1
170
     0
176
     1
171
     0
176
     1
290
     0
176
     1
 93
        1
176
     1
 44
-50.0
176
     1
173
     0
176
     1
1001
ACAD
1000
AcDbSavedByObjectVersion
1070
     0
  0
VISUALSTYLE
  5
DB
102
{ACAD_XDICTIONARY
360
494
102
}
102
{ACAD_REACTORS
330
C3
102
}
330
C3
100
AcDbVisualStyle
  2
EdgeColorOff
 70
    22
177
     2
291
     1
 71
     2
176
     0
 72
     2
176
     0
 73
     0
176
     0
 90
        0
176
     0
 40
0.6
176
     0
 41
30.0
176
     0
 63
     7
421
 16777215
176
     0
 74
     1
176
     0
 91
        4
176
     0
 64
     7
176
     0
 65
   257
176
     0
 75
     1
176
     0
175
     1
176
     0
 42
1.0
176
     0
 92
        8
176
     2
 66
     7
176
     0
 43
1.0
176
     0
 76
     1
176
     0
 77
     6
176
     0
 78
     2
176
     0
 67
     7
176
     0
 79
     5
176
     0
170
     0
176
     0
171
     0
176
     0
290
     0
176
     0
 93
        1
176
     0
 44
0.0
176
     0
173
     0
176
     0
1001
ACAD
1000
AcDbSavedByObjectVersion
1070
     0
  0
VISUALSTYLE
  5
D2
102
{ACAD_XDICTIONARY
360
482
102
}
102
{ACAD_REACTORS
330
C3
102
}
330
C3
100
AcDbVisualStyle
  2
Facepattern
 70
    15
177
     2
291
     1
 71
     2
176
     1
 72
     2
176
     1
 73
     0
176
     1
 90
        0
176
     1
 40
0.6
176
     1
 41
30.0
176
     1
 63
     7
421
 16777215
176
     1
 74
     1
176
     1
 91
        4
176
     1
 64
     7
176
     1
 65
   257
176
     1
 75
     1
176
     1
175
     1
176
     1
 42
1.0
176
     1
 92
        8
176
     1
 66
     7
176
     1
 43
1.0
176
     1
 76
     1
176
     1
 77
     6
176
     1
 78
     2
176
     1
 67
     7
176
     1
 79
     5
176
     1
170
     0
176
     1
171
     0
176
     1
290
     0
176
     1
 93
        1
176
     1
 44
0.0
176
     1
173
     0
176
     1
1001
ACAD
1000
AcDbSavedByObjectVersion
1070
     0
  0
VISUALSTYLE
  5
C4
102
{ACAD_XDICTIONARY
360
466
102
}
102
{ACAD_REACTORS
330
C3
102
}
330
C3
100
AcDbVisualStyle
  2
Flat
 70
     0
177
     2
291
     1
 71
     2
176
     1
 72
     1
176
     1
 73
     1
176
     1
 90
        2
176
     1
 40
0.6
176
     1
 41
30.0
176
     1
 63
     7
421
 16777215
176
     1
 74
     0
176
     1
 91
        0
176
     1
 64
     7
176
     1
 65
   257
176
     1
 75
     1
176
     1
175
     1
176
     1
 42
1.0
176
     1
 92
        8
176
     1
 66
     7
176
     1
 43
1.0
176
     1
 76
     1
176
     1
 77
     6
176
     1
 78
     2
176
     1
 67
     7
176
     1
 79
     5
176
     1
170
     0
176
     1
171
     0
176
     1
290
     0
176
     1
 93
       13
176
     1
 44
0.0
176
     1
173
     0
176
     1
1001
ACAD
1000
AcDbSavedByObjectVersion
1070
     0
  0
VISUALSTYLE
  5
C5
102
{ACAD_XDICTIONARY
360
468
102
}
102
{ACAD_REACTORS
330
C3
102
}
330
C3
100
AcDbVisualStyle
  2
FlatWithEdges
 70
     1
177
     2
291
     1
 71
     2
176
     1
 72
     1
176
     1
 73
     1
176
     1
 90
        2
176
     1
 40
0.6
176
     1
 41
30.0
176
     1
 63
     7
421
 16777215
176
     1
 74
     1
176
     1
 91
        0
176
     1
 64
     7
176
     1
 65
   257
176
     1
 75
     1
176
     1
175
     1
176
     1
 42
1.0
176
     1
 92
        0
176
     1
 66
   257
176
     1
 43
1.0
176
     1
 76
     1
176
     1
 77
     6
176
     1
 78
     2
176
     1
 67
     7
176
     1
 79
     5
176
     1
170
     0
176
     1
171
     0
176
     1
290
     0
176
     1
 93
       13
176
     1
 44
0.0
176
     1
173
     0
176
     1
1001
ACAD
1000
AcDbSavedByObjectVersion
1070
     0
  0
VISUALSTYLE
  5
C6
102
{ACAD_XDICTIONARY
360
46A
102
}
102
{ACAD_REACTORS
330
C3
102
}
330
C3
100
AcDbVisualStyle
  2
Gouraud
 70
     2
177
     2
291
     1
 71
     2
176
     1
 72
     2
176
     1
 73
     1
176
     1
 90
        2
176
     1
 40
0.6
176
     1
 41
30.0
176
     1
 63
     7
421
 16777215
176
     1
 74
     0
176
     1
 91
        0
176
     1
 64
     7
176
     1
 65
   257
176
     1
 75
     1
176
     1
175
     1
176
     1
 42
1.0
176
     1
 92
        0
176
     1
 66
     7
176
     1
 43
1.0
176
     1
 76
     1
176
     1
 77
     6
176
     1
 78
     2
176
     1
 67
     7
176
     1
 79
     5
176
     1
170
     0
176
     1
171
     0
176
     1
290
     0
176
     1
 93
       13
176
     1
 44
0.0
176
     1
173
     0
176
     1
1001
ACAD
1000
AcDbSavedByObjectVersion
1070
     0
  0
VISUALSTYLE
  5
C7
102
{ACAD_XDICTIONARY
360
46C
102
}
102
{ACAD_REACTORS
330
C3
102
}
330
C3
100
AcDbVisualStyle
  2
GouraudWithEdges
 70
     3
177
     2
291
     1
 71
     2
176
     1
 72
     2
176
     1
 73
     1
176
     1
 90
        2
176
     1
 40
0.6
176
     1
 41
30.0
176
     1
 63
     7
421
 16777215
176
     1
 74
     1
176
     1
 91
        0
176
     1
 64
     7
176
     1
 65
   257
176
     1
 75
     1
176
     1
175
     1
176
     1
 42
1.0
176
     1
 92
        0
176
     1
 66
   257
176
     1
 43
1.0
176
     1
 76
     1
176
     1
 77
     6
176
     1
 78
     2
176
     1
 67
     7
176
     1
 79
     5
176
     1
170
     0
176
     1
171
     0
176
     1
290
     0
176
     1
 93
       13
176
     1
 44
0.0
176
     1
173
     0
176
     1
1001
ACAD
1000
AcDbSavedByObjectVersion
1070
     0
  0
VISUALSTYLE
  5
CB
102
{ACAD_XDICTIONARY
360
474
102
}
102
{ACAD_REACTORS
330
C3
102
}
330
C3
100
AcDbVisualStyle
  2
Hidden
 70
     6
177
     2
291
     0
 71
     1
176
     1
 72
     2
176
     1
 73
     2
176
     1
 90
        0
176
     1
 40
0.6
176
     1
 41
30.0
176
     1
 63
     7
421
 16777215
176
     1
 74
     2
176
     1
 91
        2
176
     1
 64
     7
176
     1
 65
   257
176
     1
 75
     2
176
     1
175
     1
176
     1
 42
40.0
176
     1
 92
        0
176
     1
 66
   257
176
     1
 43
1.0
176
     1
 76
     1
176
     1
 77
     6
176
     1
 78
     2
176
     1
 67
     7
176
     1
 79
     3
176
     1
170
     0
176
     1
171
     0
176
     1
290
     0
176
     1
 93
        1
176
     1
 44
0.0
176
     1
173
     0
176
     1
1001
ACAD
1000
AcDbSavedByObjectVersion
1070
     0
  0
VISUALSTYLE
  5
D9
102
{ACAD_XDICTIONARY
360
490
102
}
102
{ACAD_REACTORS
330
C3
102
}
330
C3
100
AcDbVisualStyle
  2
JitterOff
 70
    20
177
     2
291
     1
 71
     2
176
     0
 72
     2
176
     0
 73
     0
176
     0
 90
        0
176
     0
 40
0.6
176
     0
 41
30.0
176
     0
 63
     7
421
 16777215
176
     0
 74
     1
176
     0
 91
        4
176
     0
 64
     7
176
     0
 65
   257
176
     0
 75
     1
176
     0
175
     1
176
     0
 42
1.0
176
     0
 92
       10
176
     2
 66
     7
176
     0
 43
1.0
176
     0
 76
     1
176
     0
 77
     6
176
     0
 78
     2
176
     0
 67
     7
176
     0
 79
     5
176
     0
170
     0
176
     0
171
     0
176
     0
290
     0
176
     0
 93
        1
176
     0
 44
0.0
176
     0
173
     0
176
     0
1001
ACAD
1000
AcDbSavedByObjectVersion
1070
     0
  0
VISUALSTYLE
  5
D1
102
{ACAD_XDICTIONARY
360
480
102
}
102
{ACAD_REACTORS
330
C3
102
}
330
C3
100
AcDbVisualStyle
  2
Linepattern
 70
    14
177
     2
291
     1
 71
     2
176
     1
 72
     2
176
     1
 73
     0
176
     1
 90
        0
176
     1
 40
0.6
176
     1
 41
30.0
176
     1
 63
     7
421
 16777215
176
     1
 74
     1
176
     1
 91
        4
176
     1
 64
     7
176
     1
 65
   257
176
     1
 75
     7
176
     1
175
     7
176
     1
 42
1.0
176
     1
 92
        8
176
     1
 66
     7
176
     1
 43
1.0
176
     1
 76
     1
176
     1
 77
     6
176
     1
 78
     2
176
     1
 67
     7
176
     1
 79
     5
176
     1
170
     0
176
     1
171
     0
176
     1
290
     0
176
     1
 93
        1
176
     1
 44
0.0
176
     1
173
     0
176
     1
1001
ACAD
1000
AcDbSavedByObjectVersion
1070
     0
  0
VISUALSTYLE
  5
DA
102
{ACAD_XDICTIONARY
360
492
102
}
102
{ACAD_REACTORS
330
C3
102
}
330
C3
100
AcDbVisualStyle
  2
OverhangOff
 70
    21
177
     2
291
     1
 71
     2
176
     0
 72
     2
176
     0
 73
     0
176
     0
 90
        0
176
     0
 40
0.6
176
     0
 41
30.0
176
     0
 63
     7
421
 16777215
176
     0
 74
     1
176
     0
 91
        4
176
     0
 64
     7
176
     0
 65
   257
176
     0
 75
     1
176
     0
175
     1
176
     0
 42
1.0
176
     0
 92
        9
176
     2
 66
     7
176
     0
 43
1.0
176
     0
 76
     1
176
     0
 77
     6
176
     0
 78
     2
176
     0
 67
     7
176
     0
 79
     5
176
     0
170
     0
176
     0
171
     0
176
     0
290
     0
176
     0
 93
        1
176
     0
 44
0.0
176
     0
173
     0
176
     0
1001
ACAD
1000
AcDbSavedByObjectVersion
1070
     0
  0
VISUALSTYLE
  5
CD
102
{ACAD_XDICTIONARY
360
478
102
}
102
{ACAD_REACTORS
330
C3
102
}
330
C3
100
AcDbVisualStyle
  2
Realistic
 70
     8
177
     2
291
     0
 71
     2
176
     1
 72
     3
176
     1
 73
     0
176
     1
 90
        2
176
     1
 40
0.6
176
     1
 41
30.0
176
     1
 63
     7
421
 16777215
176
     1
 74
     0
176
     1
 91
        0
176
     1
 64
     7
176
     1
 65
   257
176
     1
 75
     1
176
     1
175
     1
176
     1
 42
1.0
176
     1
 92
        8
176
     1
 66
   257
176
     1
 43
1.0
176
     1
 76
     1
176
     1
 77
     6
176
     1
 78
     2
176
     1
 67
     7
176
     1
 79
     3
176
     1
170
     0
176
     1
171
     0
176
     1
290
     0
176
     1
 93
       13
176
     1
 44
0.0
176
     1
173
     0
176
     1
1001
ACAD
1000
AcDbSavedByObjectVersion
1070
     0
  0
VISUALSTYLE
  5
D8
102
{ACAD_XDICTIONARY
360
48E
102
}
102
{ACAD_REACTORS
330
C3
102
}
330
C3
100
AcDbVisualStyle
  2
Shaded
 70
    27
177
     2
291
     0
 71
     2
176
     1
 72
     2
176
     1
 73
     1
176
     1
 90
        2
176
     1
 40
0.6
176
     1
 41
30.0
176
     1
 63
     7
421
 16777215
176
     1
 74
     0
176
     1
 91
        4
176
     1
 64
     7
176
     1
 65
   257
176
     1
 75
     1
176
     1
175
     1
176
     1
 42
1.0
176
     1
 92
        8
176
     1
 66
   257
176
     1
 43
1.0
176
     1
 76
     1
176
     1
 77
     6
176
     1
 78
     2
176
     1
 67
     8
425
  7895160
176
     1
 79
     3
176
     1
170
     0
176
     1
171
     0
176
     1
290
     0
176
     1
 93
        5
176
     1
 44
0.0
176
     1
173
     0
176
     1
1001
ACAD
1000
AcDbSavedByObjectVersion
1070
     0
  0
VISUALSTYLE
  5
D7
102
{ACAD_XDICTIONARY
360
48C
102
}
102
{ACAD_REACTORS
330
C3
102
}
330
C3
100
AcDbVisualStyle
  2
Shaded with edges
 70
    26
177
     2
291
     0
 71
     2
176
     1
 72
     2
176
     1
 73
     1
176
     1
 90
        2
176
     1
 40
0.6
176
     1
 41
30.0
176
     1
 63
     7
421
 16777215
176
     1
 74
     1
176
     1
 91
        2
176
     1
 64
     7
176
     1
 65
   257
176
     1
 75
     2
176
     1
175
     1
176
     1
 42
1.0
176
     1
 92
        8
176
     1
 66
   257
176
     1
 43
1.0
176
     1
 76
     1
176
     1
 77
     6
176
     1
 78
     2
176
     1
 67
     7
176
     1
 79
     3
176
     1
170
     0
176
     1
171
     0
176
     1
290
     0
176
     1
 93
        5
176
     1
 44
0.0
176
     1
173
     0
176
     1
1001
ACAD
1000
AcDbSavedByObjectVersion
1070
     0
  0
VISUALSTYLE
  5
D4
102
{ACAD_XDICTIONARY
360
486
102
}
102
{ACAD_REACTORS
330
C3
102
}
330
C3
100
AcDbVisualStyle
  2
Shades of Gray
 70
    23
177
     2
291
     0
 71
     2
176
     1
 72
     2
176
     1
 73
     3
176
     1
 90
        0
176
     1
 40
0.6
176
     1
 41
30.0
176
     1
 63
     7
421
 16777215
176
     1
 74
     2
176
     1
 91
        2
176
     1
 64
     7
176
     1
 65
     7
176
     1
 75
     1
176
     1
175
     1
176
     1
 42
40.0
176
     1
 92
        8
176
     1
 66
     7
176
     1
 43
1.0
176
     1
 76
     1
176
     1
 77
     6
176
     1
 78
     2
176
     1
 67
     7
176
     1
 79
     3
176
     1
170
     0
176
     1
171
     0
176
     1
290
     0
176
     1
 93
        1
176
     1
 44
0.0
176
     1
173
     0
176
     1
1001
ACAD
1000
AcDbSavedByObjectVersion
1070
     0
  0
VISUALSTYLE
  5
D5
102
{ACAD_XDICTIONARY
360
488
102
}
102
{ACAD_REACTORS
330
C3
102
}
330
C3
100
AcDbVisualStyle
  2
Sketchy
 70
    24
177
     2
291
     0
 71
     1
176
     1
 72
     2
176
     1
 73
     2
176
     1
 90
        0
176
     1
 40
0.6
176
     1
 41
30.0
176
     1
 63
     7
421
 16777215
176
     1
 74
     2
176
     1
 91
        2
176
     1
 64
     7
176
     1
 65
     7
176
     1
 75
     1
176
     1
175
     1
176
     1
 42
40.0
176
     1
 92
       11
176
     1
 66
     7
176
     1
 43
1.0
176
     1
 76
     1
176
     1
 77
     6
176
     1
 78
     2
176
     1
 67
     7
176
     1
 79
     6
176
     1
170
     0
176
     1
171
     0
176
     1
290
     0
176
     1
 93
        1
176
     1
 44
0.0
176
     1
173
     0
176
     1
1001
ACAD
1000
AcDbSavedByObjectVersion
1070
     0
  0
VISUALSTYLE
  5
D0
102
{ACAD_XDICTIONARY
360
47E
102
}
102
{ACAD_REACTORS
330
C3
102
}
330
C3
100
AcDbVisualStyle
  2
Thicken
 70
    13
177
     2
291
     1
 71
     2
176
     1
 72
     2
176
     1
 73
     0
176
     1
 90
        0
176
     1
 40
0.6
176
     1
 41
30.0
176
     1
 63
     7
421
 16777215
176
     1
 74
     1
176
     1
 91
        4
176
     1
 64
     7
176
     1
 65
   257
176
     1
 75
     1
176
     1
175
     1
176
     1
 42
1.0
176
     1
 92
       12
176
     1
 66
     7
176
     1
 43
1.0
176
     1
 76
     1
176
     1
 77
     6
176
     1
 78
     2
176
     1
 67
     7
176
     1
 79
     5
176
     1
170
     0
176
     1
171
     0
176
     1
290
     0
176
     1
 93
        1
176
     1
 44
0.0
176
     1
173
     0
176
     1
1001
ACAD
1000
AcDbSavedByObjectVersion
1070
     0
  0
VISUALSTYLE
  5
CA
102
{ACAD_XDICTIONARY
360
472
102
}
102
{ACAD_REACTORS
330
C3
102
}
330
C3
100
AcDbVisualStyle
  2
Wireframe
 70
     5
177
     2
291
     0
 71
     0
176
     1
 72
     2
176
     1
 73
     0
176
     1
 90
        0
176
     1
 40
0.6
176
     1
 41
30.0
176
     1
 63
     7
421
 16777215
176
     1
 74
     1
176
     1
 91
        4
176
     1
 64
     7
176
     1
 65
   257
176
     1
 75
     1
176
     1
175
     1
176
     1
 42
1.0
176
     1
 92
        0
176
     1
 66
   257
176
     1
 43
1.0
176
     1
 76
     1
176
     1
 77
     6
176
     1
 78
     2
176
     1
 67
     7
176
     1
 79
     3
176
     1
170
     0
176
     1
171
     0
176
     1
290
     0
176
     1
 93
        1
176
     1
 44
0.0
176
     1
173
     0
176
     1
1001
ACAD
1000
AcDbSavedByObjectVersion
1070
     0
  0
VISUALSTYLE
  5
D6
102
{ACAD_XDICTIONARY
360
48A
102
}
102
{ACAD_REACTORS
330
C3
102
}
330
C3
100
AcDbVisualStyle
  2
X-Ray
 70
    25
177
     2
291
     0
 71
     2
176
     1
 72
     2
176
     1
 73
     1
176
     1
 90
        1
176
     1
 40
0.5
176
     1
 41
30.0
176
     1
 63
     7
421
 16777215
176
     1
 74
     1
176
     1
 91
        0
176
     1
 64
     7
176
     1
 65
   257
176
     1
 75
     1
176
     1
175
     1
176
     1
 42
1.0
176
     1
 92
        8
176
     1
 66
     7
176
     1
 43
1.0
176
     1
 76
     1
176
     1
 77
     6
176
     1
 78
     2
176
     1
 67
     7
176
     1
 79
     3
176
     1
170
     0
176
     1
171
     0
176
     1
290
     0
176
     1
 93
       13
176
     1
 44
0.0
176
     1
173
     0
176
     1
1001
ACAD
1000
AcDbSavedByObjectVersion
1070
     0
  0
DICTIONARYVAR
  5
45F
102
{ACAD_REACTORS
330
459
102
}
330
459
100
DictionaryVariables
280
     0
  1
1:1
  0
DICTIONARYVAR
  5
45B
102
{ACAD_REACTORS
330
459
102
}
330
459
100
DictionaryVariables
280
     0
  1
STANDARD
  0
DICTIONARYVAR
  5
45A
102
{ACAD_REACTORS
330
459
102
}
330
459
100
DictionaryVariables
280
     0
  1
STANDARD
  0
DICTIONARYVAR
  5
45C
102
{ACAD_REACTORS
330
459
102
}
330
459
100
DictionaryVariables
280
     0
  1
Imperial24
  0
DICTIONARYVAR
  5
45D
102
{ACAD_REACTORS
330
459
102
}
330
459
100
DictionaryVariables
280
     0
  1
Imperial24
  0
DICTIONARYVAR
  5
461
102
{ACAD_REACTORS
330
459
102
}
330
459
100
DictionaryVariables
280
     0
  1
1
  0
DICTIONARYVAR
  5
462
102
{ACAD_REACTORS
330
459
102
}
330
459
100
DictionaryVariables
280
     0
  1
15
  0
DICTIONARYVAR
  5
460
102
{ACAD_REACTORS
330
459
102
}
330
459
100
DictionaryVariables
280
     0
  1
0
  0
DICTIONARYVAR
  5
45E
102
{ACAD_REACTORS
330
459
102
}
330
459
100
DictionaryVariables
280
     0
  1
0
  0
DICTIONARY
  5
49A
330
F6
100
AcDbDictionary
280
     1
281
     1
  3
ACAD_XREC_ROUNDTRIP
360
49B
  0
DICTIONARY
  5
B4
330
B3
100
AcDbDictionary
280
     1
281
     1
  3
BUMPTILE
360
B6
  3
DIFFUSETILE
360
B5
  3
OPACITYTILE
360
B9
  3
REFLECTIONTILE
360
B8
  3
REFRACTIONTILE
360
BA
  3
SPECULARTILE
360
B7
  0
DICTIONARY
  5
AC
330
AB
100
AcDbDictionary
280
     1
281
     1
  3
BUMPTILE
360
AE
  3
DIFFUSETILE
360
AD
  3
OPACITYTILE
360
B1
  3
REFLECTIONTILE
360
B0
  3
REFRACTIONTILE
360
B2
  3
SPECULARTILE
360
AF
  0
DICTIONARY
  5
BC
330
BB
100
AcDbDictionary
280
     1
281
     1
  3
BUMPTILE
360
BE
  3
DIFFUSETILE
360
BD
  3
OPACITYTILE
360
C1
  3
REFLECTIONTILE
360
C0
  3
REFRACTIONTILE
360
C2
  3
SPECULARTILE
360
BF
  0
DICTIONARY
  5
496
330
F2
100
AcDbDictionary
280
     1
281
     1
  3
ACAD_XREC_ROUNDTRIP
360
497
  0
DICTIONARY
  5
498
330
F4
100
AcDbDictionary
280
     1
281
     1
  3
ACAD_XREC_ROUNDTRIP
360
499
  0
DICTIONARY
  5
463
330
DE
100
AcDbDictionary
280
     1
281
     1
  3
ACAD_ROUNDTRIP_2008_TABLESTYLE_CELLSTYLEMAP
360
464
  0
DICTIONARY
  5
470
330
C9
100
AcDbDictionary
280
     1
281
     1
  3
ACAD_XREC_ROUNDTRIP
360
471
  0
DICTIONARY
  5
46E
330
C8
100
AcDbDictionary
280
     1
281
     1
  3
ACAD_XREC_ROUNDTRIP
360
46F
  0
DICTIONARY
  5
47C
330
CF
100
AcDbDictionary
280
     1
281
     1
  3
ACAD_XREC_ROUNDTRIP
360
47D
  0
DICTIONARY
  5
484
330
D3
100
AcDbDictionary
280
     1
281
     1
  3
ACAD_XREC_ROUNDTRIP
360
485
  0
DICTIONARY
  5
476
330
CC
100
AcDbDictionary
280
     1
281
     1
  3
ACAD_XREC_ROUNDTRIP
360
477
  0
DICTIONARY
  5
47A
330
CE
100
AcDbDictionary
280
     1
281
     1
  3
ACAD_XREC_ROUNDTRIP
360
47B
  0
DICTIONARY
  5
494
330
DB
100
AcDbDictionary
280
     1
281
     1
  3
ACAD_XREC_ROUNDTRIP
360
495
  0
DICTIONARY
  5
482
330
D2
100
AcDbDictionary
280
     1
281
     1
  3
ACAD_XREC_ROUNDTRIP
360
483
  0
DICTIONARY
  5
466
330
C4
100
AcDbDictionary
280
     1
281
     1
  3
ACAD_XREC_ROUNDTRIP
360
467
  0
DICTIONARY
  5
468
330
C5
100
AcDbDictionary
280
     1
281
     1
  3
ACAD_XREC_ROUNDTRIP
360
469
  0
DICTIONARY
  5
46A
330
C6
100
AcDbDictionary
280
     1
281
     1
  3
ACAD_XREC_ROUNDTRIP
360
46B
  0
DICTIONARY
  5
46C
330
C7
100
AcDbDictionary
280
     1
281
     1
  3
ACAD_XREC_ROUNDTRIP
360
46D
  0
DICTIONARY
  5
474
330
CB
100
AcDbDictionary
280
     1
281
     1
  3
ACAD_XREC_ROUNDTRIP
360
475
  0
DICTIONARY
  5
490
330
D9
100
AcDbDictionary
280
     1
281
     1
  3
ACAD_XREC_ROUNDTRIP
360
491
  0
DICTIONARY
  5
480
330
D1
100
AcDbDictionary
280
     1
281
     1
  3
ACAD_XREC_ROUNDTRIP
360
481
  0
DICTIONARY
  5
492
330
DA
100
AcDbDictionary
280
     1
281
     1
  3
ACAD_XREC_ROUNDTRIP
360
493
  0
DICTIONARY
  5
478
330
CD
100
AcDbDictionary
280
     1
281
     1
  3
ACAD_XREC_ROUNDTRIP
360
479
  0
DICTIONARY
  5
48E
330
D8
100
AcDbDictionary
280
     1
281
     1
  3
ACAD_XREC_ROUNDTRIP
360
48F
  0
DICTIONARY
  5
48C
330
D7
100
AcDbDictionary
280
     1
281
     1
  3
ACAD_XREC_ROUNDTRIP
360
48D
  0
DICTIONARY
  5
486
330
D4
100
AcDbDictionary
280
     1
281
     1
  3
ACAD_XREC_ROUNDTRIP
360
487
  0
DICTIONARY
  5
488
330
D5
100
AcDbDictionary
280
     1
281
     1
  3
ACAD_XREC_ROUNDTRIP
360
489
  0
DICTIONARY
  5
47E
330
D0
100
AcDbDictionary
280
     1
281
     1
  3
ACAD_XREC_ROUNDTRIP
360
47F
  0
DICTIONARY
  5
472
330
CA
100
AcDbDictionary
280
     1
281
     1
  3
ACAD_XREC_ROUNDTRIP
360
473
  0
DICTIONARY
  5
48A
330
D6
100
AcDbDictionary
280
     1
281
     1
  3
ACAD_XREC_ROUNDTRIP
360
48B
  0
XRECORD
  5
49B
102
{ACAD_REACTORS
330
49A
102
}
330
49A
100
AcDbXrecord
280
     1
102
DISPLAYNAME
  1
Imperial24
102
FLAGS
 90
        0
  0
XRECORD
  5
B6
102
{ACAD_REACTORS
330
B4
102
}
330
B4
100
AcDbXrecord
280
     1
270
     1
271
     1
  0
XRECORD
  5
B5
102
{ACAD_REACTORS
330
B4
102
}
330
B4
100
AcDbXrecord
280
     1
270
     1
271
     1
  0
XRECORD
  5
B9
102
{ACAD_REACTORS
330
B4
102
}
330
B4
100
AcDbXrecord
280
     1
270
     1
271
     1
  0
XRECORD
  5
B8
102
{ACAD_REACTORS
330
B4
102
}
330
B4
100
AcDbXrecord
280
     1
270
     1
271
     1
  0
XRECORD
  5
BA
102
{ACAD_REACTORS
330
B4
102
}
330
B4
100
AcDbXrecord
280
     1
270
     1
271
     1
  0
XRECORD
  5
B7
102
{ACAD_REACTORS
330
B4
102
}
330
B4
100
AcDbXrecord
280
     1
270
     1
271
     1
  0
XRECORD
  5
AE
102
{ACAD_REACTORS
330
AC
102
}
330
AC
100
AcDbXrecord
280
     1
270
     1
271
     1
  0
XRECORD
  5
AD
102
{ACAD_REACTORS
330
AC
102
}
330
AC
100
AcDbXrecord
280
     1
270
     1
271
     1
  0
XRECORD
  5
B1
102
{ACAD_REACTORS
330
AC
102
}
330
AC
100
AcDbXrecord
280
     1
270
     1
271
     1
  0
XRECORD
  5
B0
102
{ACAD_REACTORS
330
AC
102
}
330
AC
100
AcDbXrecord
280
     1
270
     1
271
     1
  0
XRECORD
  5
B2
102
{ACAD_REACTORS
330
AC
102
}
330
AC
100
AcDbXrecord
280
     1
270
     1
271
     1
  0
XRECORD
  5
AF
102
{ACAD_REACTORS
330
AC
102
}
330
AC
100
AcDbXrecord
280
     1
270
     1
271
     1
  0
XRECORD
  5
BE
102
{ACAD_REACTORS
330
BC
102
}
330
BC
100
AcDbXrecord
280
     1
270
     1
271
     1
  0
XRECORD
  5
BD
102
{ACAD_REACTORS
330
BC
102
}
330
BC
100
AcDbXrecord
280
     1
270
     1
271
     1
  0
XRECORD
  5
C1
102
{ACAD_REACTORS
330
BC
102
}
330
BC
100
AcDbXrecord
280
     1
270
     1
271
     1
  0
XRECORD
  5
C0
102
{ACAD_REACTORS
330
BC
102
}
330
BC
100
AcDbXrecord
280
     1
270
     1
271
     1
  0
XRECORD
  5
C2
102
{ACAD_REACTORS
330
BC
102
}
330
BC
100
AcDbXrecord
280
     1
270
     1
271
     1
  0
XRECORD
  5
BF
102
{ACAD_REACTORS
330
BC
102
}
330
BC
100
AcDbXrecord
280
     1
270
     1
271
     1
  0
XRECORD
  5
497
102
{ACAD_REACTORS
330
496
102
}
330
496
100
AcDbXrecord
280
     1
102
ACAD_ROUNDTRIP_2012_MLEADER_STYLE
298
     1
  0
XRECORD
  5
499
102
{ACAD_REACTORS
330
498
102
}
330
498
100
AcDbXrecord
280
     1
102
DISPLAYNAME
  1
Imperial24
102
FLAGS
 90
        0
  0
CELLSTYLEMAP
  5
464
102
{ACAD_REACTORS
330
463
102
}
330
463
100
AcDbCellStyleMap
 90
        3
300
CELLSTYLE
  1
TABLEFORMAT_BEGIN
 90
        5
170
     1
 91
        0
 92
    32768
 62
   257
 93
        1
300
CONTENTFORMAT
  1
CONTENTFORMAT_BEGIN
 90
        0
 91
        0
 92
      512
 93
        0
300

 40
0.0
140
1.0
 94
        5
 62
     0
340
11
144
0.25
309
CONTENTFORMAT_END
171
     0
 94
        0
309
TABLEFORMAT_END
  1
CELLSTYLE_BEGIN
 90
        1
 91
        1
300
_TITLE
309
CELLSTYLE_END
300
CELLSTYLE
  1
TABLEFORMAT_BEGIN
 90
        5
170
     1
 91
        0
 92
        0
 62
   257
 93
        1
300
CONTENTFORMAT
  1
CONTENTFORMAT_BEGIN
 90
        0
 91
        0
 92
      512
 93
        0
300

 40
0.0
140
1.0
 94
        5
 62
     0
340
11
144
0.18
309
CONTENTFORMAT_END
171
     0
 94
        0
309
TABLEFORMAT_END
  1
CELLSTYLE_BEGIN
 90
        2
 91
        1
300
_HEADER
309
CELLSTYLE_END
300
CELLSTYLE
  1
TABLEFORMAT_BEGIN
 90
        5
170
     1
 91
        0
 92
        0
 62
   257
 93
        1
300
CONTENTFORMAT
  1
CONTENTFORMAT_BEGIN
 90
        0
 91
        0
 92
      512
 93
        0
300

 40
0.0
140
1.0
 94
        2
 62
     0
340
11
144
0.18
309
CONTENTFORMAT_END
171
     0
 94
        0
309
TABLEFORMAT_END
  1
CELLSTYLE_BEGIN
 90
        3
 91
        2
300
_DATA
309
CELLSTYLE_END
  0
XRECORD
  5
471
102
{ACAD_REACTORS
330
470
102
}
330
470
100
AcDbXrecord
280
     1
102
RTVSPost2010Prop28
280
     1
102
RTVSPost2010PropOp28
 70
     1
102
RTVSPost2010Prop29
280
     1
102
RTVSPost2010PropOp29
 70
     1
102
RTVSPost2010Prop30
280
     0
102
RTVSPost2010PropOp30
 70
     1
102
RTVSPost2010Prop31
280
     0
102
RTVSPost2010PropOp31
 70
     1
102
RTVSPost2010Prop32
280
     0
102
RTVSPost2010PropOp32
 70
     1
102
RTVSPost2010Prop33
280
     0
102
RTVSPost2010PropOp33
 70
     1
102
RTVSPost2010Prop34
280
     0
102
RTVSPost2010PropOp34
 70
     1
102
RTVSPost2010Prop35
280
     0
102
RTVSPost2010PropOp35
 70
     1
102
RTVSPost2010Prop36
280
     0
102
RTVSPost2010PropOp36
 70
     1
102
RTVSPost2010Prop37
 90
       50
102
RTVSPost2010PropOp37
 70
     1
102
RTVSPost2010Prop38
140
0.0
102
RTVSPost2010PropOp38
 70
     1
102
RTVSPost2010Prop39
140
1.0
102
RTVSPost2010PropOp39
 70
     1
102
RTVSPost2010Prop40
 90
        0
102
RTVSPost2010PropOp40
 70
     1
102
RTVSPost2010Prop41ColorIndex
 90
       18
102
RTVSPost2010Prop41ColorRGB
 90
        0
102
RTVSPost2010PropOp41
 70
     1
102
RTVSPost2010Prop42
 90
       50
102
RTVSPost2010PropOp42
 70
     1
102
RTVSPost2010Prop43
 90
        3
102
RTVSPost2010PropOp43
 70
     1
102
RTVSPost2010Prop44ColorIndex
 90
        5
102
RTVSPost2010Prop44ColorRGB
 90
      255
102
RTVSPost2010PropOp44
 70
     1
102
RTVSPost2010Prop45
280
     0
102
RTVSPost2010PropOp45
 70
     1
102
RTVSPost2010Prop46
 90
       50
102
RTVSPost2010PropOp46
 70
     1
102
RTVSPost2010Prop47
 90
       50
102
RTVSPost2010PropOp47
 70
     1
102
RTVSPost2010Prop48
 90
       50
102
RTVSPost2010PropOp48
 70
     1
102
RTVSPost2010Prop49
280
     0
102
RTVSPost2010PropOp49
 70
     1
102
RTVSPost2010Prop50
 90
       50
102
RTVSPost2010PropOp50
 70
     1
102
RTVSPost2010Prop51ColorIndex
 90
      256
102
RTVSPost2010Prop51ColorRGB
 90
-16777216
102
RTVSPost2010PropOp51
 70
     0
102
RTVSPost2010Prop52
140
1.0
102
RTVSPost2010PropOp52
 70
     0
102
RTVSPost2010Prop53
 90
        2
102
RTVSPost2010PropOp53
 70
     1
102
RTVSPost2010Prop54
  1
strokes_ogs.tif
102
RTVSPost2010PropOp54
 70
     1
102
RTVSPost2010Prop55
280
     0
102
RTVSPost2010PropOp55
 70
     1
102
RTVSPost2010Prop56
140
1.0
102
RTVSPost2010PropOp56
 70
     1
102
RTVSPost2010Prop57
140
1.0
102
RTVSPost2010PropOp57
 70
     1
  0
XRECORD
  5
46F
102
{ACAD_REACTORS
330
46E
102
}
330
46E
100
AcDbXrecord
280
     1
102
RTVSPost2010Prop28
280
     0
102
RTVSPost2010PropOp28
 70
     1
102
RTVSPost2010Prop29
280
     1
102
RTVSPost2010PropOp29
 70
     1
102
RTVSPost2010Prop30
280
     1
102
RTVSPost2010PropOp30
 70
     1
102
RTVSPost2010Prop31
280
     0
102
RTVSPost2010PropOp31
 70
     1
102
RTVSPost2010Prop32
280
     0
102
RTVSPost2010PropOp32
 70
     1
102
RTVSPost2010Prop33
280
     0
102
RTVSPost2010PropOp33
 70
     1
102
RTVSPost2010Prop34
280
     0
102
RTVSPost2010PropOp34
 70
     1
102
RTVSPost2010Prop35
280
     0
102
RTVSPost2010PropOp35
 70
     1
102
RTVSPost2010Prop36
280
     0
102
RTVSPost2010PropOp36
 70
     1
102
RTVSPost2010Prop37
 90
       50
102
RTVSPost2010PropOp37
 70
     1
102
RTVSPost2010Prop38
140
0.0
102
RTVSPost2010PropOp38
 70
     1
102
RTVSPost2010Prop39
140
1.0
102
RTVSPost2010PropOp39
 70
     1
102
RTVSPost2010Prop40
 90
        0
102
RTVSPost2010PropOp40
 70
     1
102
RTVSPost2010Prop41ColorIndex
 90
       18
102
RTVSPost2010Prop41ColorRGB
 90
        0
102
RTVSPost2010PropOp41
 70
     1
102
RTVSPost2010Prop42
 90
       50
102
RTVSPost2010PropOp42
 70
     1
102
RTVSPost2010Prop43
 90
        3
102
RTVSPost2010PropOp43
 70
     1
102
RTVSPost2010Prop44ColorIndex
 90
        5
102
RTVSPost2010Prop44ColorRGB
 90
      255
102
RTVSPost2010PropOp44
 70
     1
102
RTVSPost2010Prop45
280
     0
102
RTVSPost2010PropOp45
 70
     1
102
RTVSPost2010Prop46
 90
       50
102
RTVSPost2010PropOp46
 70
     1
102
RTVSPost2010Prop47
 90
       50
102
RTVSPost2010PropOp47
 70
     1
102
RTVSPost2010Prop48
 90
       50
102
RTVSPost2010PropOp48
 70
     1
102
RTVSPost2010Prop49
280
     0
102
RTVSPost2010PropOp49
 70
     1
102
RTVSPost2010Prop50
 90
       50
102
RTVSPost2010PropOp50
 70
     1
102
RTVSPost2010Prop51ColorIndex
 90
      256
102
RTVSPost2010Prop51ColorRGB
 90
-16777216
102
RTVSPost2010PropOp51
 70
     0
102
RTVSPost2010Prop52
140
1.0
102
RTVSPost2010PropOp52
 70
     0
102
RTVSPost2010Prop53
 90
        2
102
RTVSPost2010PropOp53
 70
     1
102
RTVSPost2010Prop54
  1
strokes_ogs.tif
102
RTVSPost2010PropOp54
 70
     1
102
RTVSPost2010Prop55
280
     0
102
RTVSPost2010PropOp55
 70
     1
102
RTVSPost2010Prop56
140
1.0
102
RTVSPost2010PropOp56
 70
     1
102
RTVSPost2010Prop57
140
1.0
102
RTVSPost2010PropOp57
 70
     1
  0
XRECORD
  5
47D
102
{ACAD_REACTORS
330
47C
102
}
330
47C
100
AcDbXrecord
280
     1
102
RTVSPost2010Prop28
280
     0
102
RTVSPost2010PropOp28
 70
     1
102
RTVSPost2010Prop29
280
     1
102
RTVSPost2010PropOp29
 70
     1
102
RTVSPost2010Prop30
280
     1
102
RTVSPost2010PropOp30
 70
     1
102
RTVSPost2010Prop31
280
     0
102
RTVSPost2010PropOp31
 70
     1
102
RTVSPost2010Prop32
280
     0
102
RTVSPost2010PropOp32
 70
     1
102
RTVSPost2010Prop33
280
     0
102
RTVSPost2010PropOp33
 70
     1
102
RTVSPost2010Prop34
280
     0
102
RTVSPost2010PropOp34
 70
     1
102
RTVSPost2010Prop35
280
     0
102
RTVSPost2010PropOp35
 70
     1
102
RTVSPost2010Prop36
280
     0
102
RTVSPost2010PropOp36
 70
     1
102
RTVSPost2010Prop37
 90
       50
102
RTVSPost2010PropOp37
 70
     1
102
RTVSPost2010Prop38
140
0.0
102
RTVSPost2010PropOp38
 70
     1
102
RTVSPost2010Prop39
140
1.0
102
RTVSPost2010PropOp39
 70
     1
102
RTVSPost2010Prop40
 90
        0
102
RTVSPost2010PropOp40
 70
     1
102
RTVSPost2010Prop41ColorIndex
 90
       18
102
RTVSPost2010Prop41ColorRGB
 90
        0
102
RTVSPost2010PropOp41
 70
     1
102
RTVSPost2010Prop42
 90
       50
102
RTVSPost2010PropOp42
 70
     1
102
RTVSPost2010Prop43
 90
        3
102
RTVSPost2010PropOp43
 70
     1
102
RTVSPost2010Prop44ColorIndex
 90
        5
102
RTVSPost2010Prop44ColorRGB
 90
      255
102
RTVSPost2010PropOp44
 70
     1
102
RTVSPost2010Prop45
280
     0
102
RTVSPost2010PropOp45
 70
     1
102
RTVSPost2010Prop46
 90
       50
102
RTVSPost2010PropOp46
 70
     1
102
RTVSPost2010Prop47
 90
       50
102
RTVSPost2010PropOp47
 70
     1
102
RTVSPost2010Prop48
 90
       50
102
RTVSPost2010PropOp48
 70
     1
102
RTVSPost2010Prop49
280
     0
102
RTVSPost2010PropOp49
 70
     1
102
RTVSPost2010Prop50
 90
       50
102
RTVSPost2010PropOp50
 70
     1
102
RTVSPost2010Prop51ColorIndex
 90
      256
102
RTVSPost2010Prop51ColorRGB
 90
-16777216
102
RTVSPost2010PropOp51
 70
     0
102
RTVSPost2010Prop52
140
1.0
102
RTVSPost2010PropOp52
 70
     0
102
RTVSPost2010Prop53
 90
        2
102
RTVSPost2010PropOp53
 70
     1
102
RTVSPost2010Prop54
  1
strokes_ogs.tif
102
RTVSPost2010PropOp54
 70
     1
102
RTVSPost2010Prop55
280
     0
102
RTVSPost2010PropOp55
 70
     1
102
RTVSPost2010Prop56
140
1.0
102
RTVSPost2010PropOp56
 70
     1
102
RTVSPost2010Prop57
140
1.0
102
RTVSPost2010PropOp57
 70
     1
  0
XRECORD
  5
485
102
{ACAD_REACTORS
330
484
102
}
330
484
100
AcDbXrecord
280
     1
102
RTVSPost2010Prop28
280
     0
102
RTVSPost2010PropOp28
 70
     1
102
RTVSPost2010Prop29
280
     1
102
RTVSPost2010PropOp29
 70
     1
102
RTVSPost2010Prop30
280
     1
102
RTVSPost2010PropOp30
 70
     1
102
RTVSPost2010Prop31
280
     0
102
RTVSPost2010PropOp31
 70
     1
102
RTVSPost2010Prop32
280
     0
102
RTVSPost2010PropOp32
 70
     1
102
RTVSPost2010Prop33
280
     0
102
RTVSPost2010PropOp33
 70
     1
102
RTVSPost2010Prop34
280
     0
102
RTVSPost2010PropOp34
 70
     1
102
RTVSPost2010Prop35
280
     0
102
RTVSPost2010PropOp35
 70
     1
102
RTVSPost2010Prop36
280
     0
102
RTVSPost2010PropOp36
 70
     1
102
RTVSPost2010Prop37
 90
       50
102
RTVSPost2010PropOp37
 70
     1
102
RTVSPost2010Prop38
140
0.0
102
RTVSPost2010PropOp38
 70
     1
102
RTVSPost2010Prop39
140
1.0
102
RTVSPost2010PropOp39
 70
     1
102
RTVSPost2010Prop40
 90
        0
102
RTVSPost2010PropOp40
 70
     1
102
RTVSPost2010Prop41ColorIndex
 90
       18
102
RTVSPost2010Prop41ColorRGB
 90
        0
102
RTVSPost2010PropOp41
 70
     1
102
RTVSPost2010Prop42
 90
       50
102
RTVSPost2010PropOp42
 70
     1
102
RTVSPost2010Prop43
 90
        3
102
RTVSPost2010PropOp43
 70
     1
102
RTVSPost2010Prop44ColorIndex
 90
        5
102
RTVSPost2010Prop44ColorRGB
 90
      255
102
RTVSPost2010PropOp44
 70
     1
102
RTVSPost2010Prop45
280
     0
102
RTVSPost2010PropOp45
 70
     1
102
RTVSPost2010Prop46
 90
       50
102
RTVSPost2010PropOp46
 70
     1
102
RTVSPost2010Prop47
 90
       50
102
RTVSPost2010PropOp47
 70
     1
102
RTVSPost2010Prop48
 90
       50
102
RTVSPost2010PropOp48
 70
     1
102
RTVSPost2010Prop49
280
     0
102
RTVSPost2010PropOp49
 70
     1
102
RTVSPost2010Prop50
 90
       50
102
RTVSPost2010PropOp50
 70
     1
102
RTVSPost2010Prop51ColorIndex
 90
      256
102
RTVSPost2010Prop51ColorRGB
 90
-16777216
102
RTVSPost2010PropOp51
 70
     0
102
RTVSPost2010Prop52
140
1.0
102
RTVSPost2010PropOp52
 70
     0
102
RTVSPost2010Prop53
 90
        2
102
RTVSPost2010PropOp53
 70
     1
102
RTVSPost2010Prop54
  1
strokes_ogs.tif
102
RTVSPost2010PropOp54
 70
     1
102
RTVSPost2010Prop55
280
     0
102
RTVSPost2010PropOp55
 70
     1
102
RTVSPost2010Prop56
140
1.0
102
RTVSPost2010PropOp56
 70
     1
102
RTVSPost2010Prop57
140
1.0
102
RTVSPost2010PropOp57
 70
     1
  0
XRECORD
  5
477
102
{ACAD_REACTORS
330
476
102
}
330
476
100
AcDbXrecord
280
     1
102
RTVSPost2010Prop28
280
     0
102
RTVSPost2010PropOp28
 70
     1
102
RTVSPost2010Prop29
280
     1
102
RTVSPost2010PropOp29
 70
     1
102
RTVSPost2010Prop30
280
     1
102
RTVSPost2010PropOp30
 70
     1
102
RTVSPost2010Prop31
280
     0
102
RTVSPost2010PropOp31
 70
     1
102
RTVSPost2010Prop32
280
     0
102
RTVSPost2010PropOp32
 70
     1
102
RTVSPost2010Prop33
280
     0
102
RTVSPost2010PropOp33
 70
     1
102
RTVSPost2010Prop34
280
     0
102
RTVSPost2010PropOp34
 70
     1
102
RTVSPost2010Prop35
280
     0
102
RTVSPost2010PropOp35
 70
     1
102
RTVSPost2010Prop36
280
     0
102
RTVSPost2010PropOp36
 70
     1
102
RTVSPost2010Prop37
 90
       50
102
RTVSPost2010PropOp37
 70
     1
102
RTVSPost2010Prop38
140
0.0
102
RTVSPost2010PropOp38
 70
     1
102
RTVSPost2010Prop39
140
1.0
102
RTVSPost2010PropOp39
 70
     1
102
RTVSPost2010Prop40
 90
        0
102
RTVSPost2010PropOp40
 70
     1
102
RTVSPost2010Prop41ColorIndex
 90
       18
102
RTVSPost2010Prop41ColorRGB
 90
        0
102
RTVSPost2010PropOp41
 70
     1
102
RTVSPost2010Prop42
 90
       50
102
RTVSPost2010PropOp42
 70
     1
102
RTVSPost2010Prop43
 90
        3
102
RTVSPost2010PropOp43
 70
     1
102
RTVSPost2010Prop44ColorIndex
 90
        5
102
RTVSPost2010Prop44ColorRGB
 90
      255
102
RTVSPost2010PropOp44
 70
     1
102
RTVSPost2010Prop45
280
     0
102
RTVSPost2010PropOp45
 70
     1
102
RTVSPost2010Prop46
 90
       50
102
RTVSPost2010PropOp46
 70
     1
102
RTVSPost2010Prop47
 90
       50
102
RTVSPost2010PropOp47
 70
     1
102
RTVSPost2010Prop48
 90
       50
102
RTVSPost2010PropOp48
 70
     1
102
RTVSPost2010Prop49
280
     0
102
RTVSPost2010PropOp49
 70
     1
102
RTVSPost2010Prop50
 90
       50
102
RTVSPost2010PropOp50
 70
     1
102
RTVSPost2010Prop51ColorIndex
 90
      256
102
RTVSPost2010Prop51ColorRGB
 90
-16777216
102
RTVSPost2010PropOp51
 70
     0
102
RTVSPost2010Prop52
140
1.0
102
RTVSPost2010PropOp52
 70
     0
102
RTVSPost2010Prop53
 90
        2
102
RTVSPost2010PropOp53
 70
     1
102
RTVSPost2010Prop54
  1
strokes_ogs.tif
102
RTVSPost2010PropOp54
 70
     1
102
RTVSPost2010Prop55
280
     0
102
RTVSPost2010PropOp55
 70
     1
102
RTVSPost2010Prop56
140
1.0
102
RTVSPost2010PropOp56
 70
     1
102
RTVSPost2010Prop57
140
1.0
102
RTVSPost2010PropOp57
 70
     1
  0
XRECORD
  5
47B
102
{ACAD_REACTORS
330
47A
102
}
330
47A
100
AcDbXrecord
280
     1
102
RTVSPost2010Prop28
280
     0
102
RTVSPost2010PropOp28
 70
     1
102
RTVSPost2010Prop29
280
     1
102
RTVSPost2010PropOp29
 70
     1
102
RTVSPost2010Prop30
280
     1
102
RTVSPost2010PropOp30
 70
     1
102
RTVSPost2010Prop31
280
     0
102
RTVSPost2010PropOp31
 70
     1
102
RTVSPost2010Prop32
280
     0
102
RTVSPost2010PropOp32
 70
     1
102
RTVSPost2010Prop33
280
     0
102
RTVSPost2010PropOp33
 70
     1
102
RTVSPost2010Prop34
280
     0
102
RTVSPost2010PropOp34
 70
     1
102
RTVSPost2010Prop35
280
     0
102
RTVSPost2010PropOp35
 70
     1
102
RTVSPost2010Prop36
280
     0
102
RTVSPost2010PropOp36
 70
     1
102
RTVSPost2010Prop37
 90
       50
102
RTVSPost2010PropOp37
 70
     1
102
RTVSPost2010Prop38
140
0.0
102
RTVSPost2010PropOp38
 70
     1
102
RTVSPost2010Prop39
140
1.0
102
RTVSPost2010PropOp39
 70
     1
102
RTVSPost2010Prop40
 90
        0
102
RTVSPost2010PropOp40
 70
     1
102
RTVSPost2010Prop41ColorIndex
 90
       18
102
RTVSPost2010Prop41ColorRGB
 90
        0
102
RTVSPost2010PropOp41
 70
     1
102
RTVSPost2010Prop42
 90
       50
102
RTVSPost2010PropOp42
 70
     1
102
RTVSPost2010Prop43
 90
        3
102
RTVSPost2010PropOp43
 70
     1
102
RTVSPost2010Prop44ColorIndex
 90
        5
102
RTVSPost2010Prop44ColorRGB
 90
      255
102
RTVSPost2010PropOp44
 70
     1
102
RTVSPost2010Prop45
280
     0
102
RTVSPost2010PropOp45
 70
     1
102
RTVSPost2010Prop46
 90
       50
102
RTVSPost2010PropOp46
 70
     1
102
RTVSPost2010Prop47
 90
       50
102
RTVSPost2010PropOp47
 70
     1
102
RTVSPost2010Prop48
 90
       50
102
RTVSPost2010PropOp48
 70
     1
102
RTVSPost2010Prop49
280
     0
102
RTVSPost2010PropOp49
 70
     1
102
RTVSPost2010Prop50
 90
       50
102
RTVSPost2010PropOp50
 70
     1
102
RTVSPost2010Prop51ColorIndex
 90
      256
102
RTVSPost2010Prop51ColorRGB
 90
-16777216
102
RTVSPost2010PropOp51
 70
     0
102
RTVSPost2010Prop52
140
1.0
102
RTVSPost2010PropOp52
 70
     0
102
RTVSPost2010Prop53
 90
        2
102
RTVSPost2010PropOp53
 70
     1
102
RTVSPost2010Prop54
  1
strokes_ogs.tif
102
RTVSPost2010PropOp54
 70
     1
102
RTVSPost2010Prop55
280
     0
102
RTVSPost2010PropOp55
 70
     1
102
RTVSPost2010Prop56
140
1.0
102
RTVSPost2010PropOp56
 70
     1
102
RTVSPost2010Prop57
140
1.0
102
RTVSPost2010PropOp57
 70
     1
  0
XRECORD
  5
495
102
{ACAD_REACTORS
330
494
102
}
330
494
100
AcDbXrecord
280
     1
102
RTVSPost2010Prop28
280
     0
102
RTVSPost2010PropOp28
 70
     0
102
RTVSPost2010Prop29
280
     1
102
RTVSPost2010PropOp29
 70
     0
102
RTVSPost2010Prop30
280
     1
102
RTVSPost2010PropOp30
 70
     0
102
RTVSPost2010Prop31
280
     0
102
RTVSPost2010PropOp31
 70
     0
102
RTVSPost2010Prop32
280
     0
102
RTVSPost2010PropOp32
 70
     0
102
RTVSPost2010Prop33
280
     0
102
RTVSPost2010PropOp33
 70
     0
102
RTVSPost2010Prop34
280
     0
102
RTVSPost2010PropOp34
 70
     0
102
RTVSPost2010Prop35
280
     0
102
RTVSPost2010PropOp35
 70
     0
102
RTVSPost2010Prop36
280
     0
102
RTVSPost2010PropOp36
 70
     0
102
RTVSPost2010Prop37
 90
       50
102
RTVSPost2010PropOp37
 70
     0
102
RTVSPost2010Prop38
140
0.0
102
RTVSPost2010PropOp38
 70
     0
102
RTVSPost2010Prop39
140
1.0
102
RTVSPost2010PropOp39
 70
     0
102
RTVSPost2010Prop40
 90
        0
102
RTVSPost2010PropOp40
 70
     0
102
RTVSPost2010Prop41ColorIndex
 90
       18
102
RTVSPost2010Prop41ColorRGB
 90
        0
102
RTVSPost2010PropOp41
 70
     0
102
RTVSPost2010Prop42
 90
       50
102
RTVSPost2010PropOp42
 70
     0
102
RTVSPost2010Prop43
 90
        3
102
RTVSPost2010PropOp43
 70
     0
102
RTVSPost2010Prop44ColorIndex
 90
        5
102
RTVSPost2010Prop44ColorRGB
 90
      255
102
RTVSPost2010PropOp44
 70
     0
102
RTVSPost2010Prop45
280
     0
102
RTVSPost2010PropOp45
 70
     0
102
RTVSPost2010Prop46
 90
       50
102
RTVSPost2010PropOp46
 70
     0
102
RTVSPost2010Prop47
 90
       50
102
RTVSPost2010PropOp47
 70
     0
102
RTVSPost2010Prop48
 90
       50
102
RTVSPost2010PropOp48
 70
     0
102
RTVSPost2010Prop49
280
     0
102
RTVSPost2010PropOp49
 70
     0
102
RTVSPost2010Prop50
 90
       50
102
RTVSPost2010PropOp50
 70
     0
102
RTVSPost2010Prop51ColorIndex
 90
      256
102
RTVSPost2010Prop51ColorRGB
 90
-16777216
102
RTVSPost2010PropOp51
 70
     0
102
RTVSPost2010Prop52
140
1.0
102
RTVSPost2010PropOp52
 70
     0
102
RTVSPost2010Prop53
 90
        2
102
RTVSPost2010PropOp53
 70
     0
102
RTVSPost2010Prop54
  1
strokes_ogs.tif
102
RTVSPost2010PropOp54
 70
     0
102
RTVSPost2010Prop55
280
     0
102
RTVSPost2010PropOp55
 70
     0
102
RTVSPost2010Prop56
140
1.0
102
RTVSPost2010PropOp56
 70
     0
102
RTVSPost2010Prop57
140
1.0
102
RTVSPost2010PropOp57
 70
     0
  0
XRECORD
  5
483
102
{ACAD_REACTORS
330
482
102
}
330
482
100
AcDbXrecord
280
     1
102
RTVSPost2010Prop28
280
     0
102
RTVSPost2010PropOp28
 70
     1
102
RTVSPost2010Prop29
280
     1
102
RTVSPost2010PropOp29
 70
     1
102
RTVSPost2010Prop30
280
     1
102
RTVSPost2010PropOp30
 70
     1
102
RTVSPost2010Prop31
280
     0
102
RTVSPost2010PropOp31
 70
     1
102
RTVSPost2010Prop32
280
     0
102
RTVSPost2010PropOp32
 70
     1
102
RTVSPost2010Prop33
280
     0
102
RTVSPost2010PropOp33
 70
     1
102
RTVSPost2010Prop34
280
     0
102
RTVSPost2010PropOp34
 70
     1
102
RTVSPost2010Prop35
280
     0
102
RTVSPost2010PropOp35
 70
     1
102
RTVSPost2010Prop36
280
     0
102
RTVSPost2010PropOp36
 70
     1
102
RTVSPost2010Prop37
 90
       50
102
RTVSPost2010PropOp37
 70
     1
102
RTVSPost2010Prop38
140
0.0
102
RTVSPost2010PropOp38
 70
     1
102
RTVSPost2010Prop39
140
1.0
102
RTVSPost2010PropOp39
 70
     1
102
RTVSPost2010Prop40
 90
        0
102
RTVSPost2010PropOp40
 70
     1
102
RTVSPost2010Prop41ColorIndex
 90
       18
102
RTVSPost2010Prop41ColorRGB
 90
        0
102
RTVSPost2010PropOp41
 70
     1
102
RTVSPost2010Prop42
 90
       50
102
RTVSPost2010PropOp42
 70
     1
102
RTVSPost2010Prop43
 90
        3
102
RTVSPost2010PropOp43
 70
     1
102
RTVSPost2010Prop44ColorIndex
 90
        5
102
RTVSPost2010Prop44ColorRGB
 90
      255
102
RTVSPost2010PropOp44
 70
     1
102
RTVSPost2010Prop45
280
     0
102
RTVSPost2010PropOp45
 70
     1
102
RTVSPost2010Prop46
 90
       50
102
RTVSPost2010PropOp46
 70
     1
102
RTVSPost2010Prop47
 90
       50
102
RTVSPost2010PropOp47
 70
     1
102
RTVSPost2010Prop48
 90
       50
102
RTVSPost2010PropOp48
 70
     1
102
RTVSPost2010Prop49
280
     0
102
RTVSPost2010PropOp49
 70
     1
102
RTVSPost2010Prop50
 90
       50
102
RTVSPost2010PropOp50
 70
     1
102
RTVSPost2010Prop51ColorIndex
 90
      256
102
RTVSPost2010Prop51ColorRGB
 90
-16777216
102
RTVSPost2010PropOp51
 70
     0
102
RTVSPost2010Prop52
140
1.0
102
RTVSPost2010PropOp52
 70
     0
102
RTVSPost2010Prop53
 90
        2
102
RTVSPost2010PropOp53
 70
     1
102
RTVSPost2010Prop54
  1
strokes_ogs.tif
102
RTVSPost2010PropOp54
 70
     1
102
RTVSPost2010Prop55
280
     0
102
RTVSPost2010PropOp55
 70
     1
102
RTVSPost2010Prop56
140
1.0
102
RTVSPost2010PropOp56
 70
     1
102
RTVSPost2010Prop57
140
1.0
102
RTVSPost2010PropOp57
 70
     1
  0
XRECORD
  5
467
102
{ACAD_REACTORS
330
466
102
}
330
466
100
AcDbXrecord
280
     1
102
RTVSPost2010Prop28
280
     0
102
RTVSPost2010PropOp28
 70
     1
102
RTVSPost2010Prop29
280
     1
102
RTVSPost2010PropOp29
 70
     1
102
RTVSPost2010Prop30
280
     1
102
RTVSPost2010PropOp30
 70
     1
102
RTVSPost2010Prop31
280
     0
102
RTVSPost2010PropOp31
 70
     1
102
RTVSPost2010Prop32
280
     0
102
RTVSPost2010PropOp32
 70
     1
102
RTVSPost2010Prop33
280
     0
102
RTVSPost2010PropOp33
 70
     1
102
RTVSPost2010Prop34
280
     0
102
RTVSPost2010PropOp34
 70
     1
102
RTVSPost2010Prop35
280
     0
102
RTVSPost2010PropOp35
 70
     1
102
RTVSPost2010Prop36
280
     0
102
RTVSPost2010PropOp36
 70
     1
102
RTVSPost2010Prop37
 90
       50
102
RTVSPost2010PropOp37
 70
     1
102
RTVSPost2010Prop38
140
0.0
102
RTVSPost2010PropOp38
 70
     1
102
RTVSPost2010Prop39
140
1.0
102
RTVSPost2010PropOp39
 70
     1
102
RTVSPost2010Prop40
 90
        0
102
RTVSPost2010PropOp40
 70
     1
102
RTVSPost2010Prop41ColorIndex
 90
       18
102
RTVSPost2010Prop41ColorRGB
 90
        0
102
RTVSPost2010PropOp41
 70
     1
102
RTVSPost2010Prop42
 90
       50
102
RTVSPost2010PropOp42
 70
     1
102
RTVSPost2010Prop43
 90
        3
102
RTVSPost2010PropOp43
 70
     1
102
RTVSPost2010Prop44ColorIndex
 90
        5
102
RTVSPost2010Prop44ColorRGB
 90
      255
102
RTVSPost2010PropOp44
 70
     1
102
RTVSPost2010Prop45
280
     0
102
RTVSPost2010PropOp45
 70
     1
102
RTVSPost2010Prop46
 90
       50
102
RTVSPost2010PropOp46
 70
     1
102
RTVSPost2010Prop47
 90
       50
102
RTVSPost2010PropOp47
 70
     1
102
RTVSPost2010Prop48
 90
       50
102
RTVSPost2010PropOp48
 70
     1
102
RTVSPost2010Prop49
280
     0
102
RTVSPost2010PropOp49
 70
     1
102
RTVSPost2010Prop50
 90
       50
102
RTVSPost2010PropOp50
 70
     1
102
RTVSPost2010Prop51ColorIndex
 90
      256
102
RTVSPost2010Prop51ColorRGB
 90
-16777216
102
RTVSPost2010PropOp51
 70
     0
102
RTVSPost2010Prop52
140
1.0
102
RTVSPost2010PropOp52
 70
     0
102
RTVSPost2010Prop53
 90
        2
102
RTVSPost2010PropOp53
 70
     1
102
RTVSPost2010Prop54
  1
strokes_ogs.tif
102
RTVSPost2010PropOp54
 70
     1
102
RTVSPost2010Prop55
280
     0
102
RTVSPost2010PropOp55
 70
     1
102
RTVSPost2010Prop56
140
1.0
102
RTVSPost2010PropOp56
 70
     1
102
RTVSPost2010Prop57
140
1.0
102
RTVSPost2010PropOp57
 70
     1
  0
XRECORD
  5
469
102
{ACAD_REACTORS
330
468
102
}
330
468
100
AcDbXrecord
280
     1
102
RTVSPost2010Prop28
280
     0
102
RTVSPost2010PropOp28
 70
     1
102
RTVSPost2010Prop29
280
     1
102
RTVSPost2010PropOp29
 70
     1
102
RTVSPost2010Prop30
280
     1
102
RTVSPost2010PropOp30
 70
     1
102
RTVSPost2010Prop31
280
     0
102
RTVSPost2010PropOp31
 70
     1
102
RTVSPost2010Prop32
280
     0
102
RTVSPost2010PropOp32
 70
     1
102
RTVSPost2010Prop33
280
     0
102
RTVSPost2010PropOp33
 70
     1
102
RTVSPost2010Prop34
280
     0
102
RTVSPost2010PropOp34
 70
     1
102
RTVSPost2010Prop35
280
     0
102
RTVSPost2010PropOp35
 70
     1
102
RTVSPost2010Prop36
280
     0
102
RTVSPost2010PropOp36
 70
     1
102
RTVSPost2010Prop37
 90
       50
102
RTVSPost2010PropOp37
 70
     1
102
RTVSPost2010Prop38
140
0.0
102
RTVSPost2010PropOp38
 70
     1
102
RTVSPost2010Prop39
140
1.0
102
RTVSPost2010PropOp39
 70
     1
102
RTVSPost2010Prop40
 90
        0
102
RTVSPost2010PropOp40
 70
     1
102
RTVSPost2010Prop41ColorIndex
 90
       18
102
RTVSPost2010Prop41ColorRGB
 90
        0
102
RTVSPost2010PropOp41
 70
     1
102
RTVSPost2010Prop42
 90
       50
102
RTVSPost2010PropOp42
 70
     1
102
RTVSPost2010Prop43
 90
        3
102
RTVSPost2010PropOp43
 70
     1
102
RTVSPost2010Prop44ColorIndex
 90
        5
102
RTVSPost2010Prop44ColorRGB
 90
      255
102
RTVSPost2010PropOp44
 70
     1
102
RTVSPost2010Prop45
280
     0
102
RTVSPost2010PropOp45
 70
     1
102
RTVSPost2010Prop46
 90
       50
102
RTVSPost2010PropOp46
 70
     1
102
RTVSPost2010Prop47
 90
       50
102
RTVSPost2010PropOp47
 70
     1
102
RTVSPost2010Prop48
 90
       50
102
RTVSPost2010PropOp48
 70
     1
102
RTVSPost2010Prop49
280
     0
102
RTVSPost2010PropOp49
 70
     1
102
RTVSPost2010Prop50
 90
       50
102
RTVSPost2010PropOp50
 70
     1
102
RTVSPost2010Prop51ColorIndex
 90
      256
102
RTVSPost2010Prop51ColorRGB
 90
-16777216
102
RTVSPost2010PropOp51
 70
     0
102
RTVSPost2010Prop52
140
1.0
102
RTVSPost2010PropOp52
 70
     0
102
RTVSPost2010Prop53
 90
        2
102
RTVSPost2010PropOp53
 70
     1
102
RTVSPost2010Prop54
  1
strokes_ogs.tif
102
RTVSPost2010PropOp54
 70
     1
102
RTVSPost2010Prop55
280
     0
102
RTVSPost2010PropOp55
 70
     1
102
RTVSPost2010Prop56
140
1.0
102
RTVSPost2010PropOp56
 70
     1
102
RTVSPost2010Prop57
140
1.0
102
RTVSPost2010PropOp57
 70
     1
  0
XRECORD
  5
46B
102
{ACAD_REACTORS
330
46A
102
}
330
46A
100
AcDbXrecord
280
     1
102
RTVSPost2010Prop28
280
     0
102
RTVSPost2010PropOp28
 70
     1
102
RTVSPost2010Prop29
280
     1
102
RTVSPost2010PropOp29
 70
     1
102
RTVSPost2010Prop30
280
     1
102
RTVSPost2010PropOp30
 70
     1
102
RTVSPost2010Prop31
280
     0
102
RTVSPost2010PropOp31
 70
     1
102
RTVSPost2010Prop32
280
     0
102
RTVSPost2010PropOp32
 70
     1
102
RTVSPost2010Prop33
280
     0
102
RTVSPost2010PropOp33
 70
     1
102
RTVSPost2010Prop34
280
     0
102
RTVSPost2010PropOp34
 70
     1
102
RTVSPost2010Prop35
280
     0
102
RTVSPost2010PropOp35
 70
     1
102
RTVSPost2010Prop36
280
     0
102
RTVSPost2010PropOp36
 70
     1
102
RTVSPost2010Prop37
 90
       50
102
RTVSPost2010PropOp37
 70
     1
102
RTVSPost2010Prop38
140
0.0
102
RTVSPost2010PropOp38
 70
     1
102
RTVSPost2010Prop39
140
1.0
102
RTVSPost2010PropOp39
 70
     1
102
RTVSPost2010Prop40
 90
        0
102
RTVSPost2010PropOp40
 70
     1
102
RTVSPost2010Prop41ColorIndex
 90
       18
102
RTVSPost2010Prop41ColorRGB
 90
        0
102
RTVSPost2010PropOp41
 70
     1
102
RTVSPost2010Prop42
 90
       50
102
RTVSPost2010PropOp42
 70
     1
102
RTVSPost2010Prop43
 90
        3
102
RTVSPost2010PropOp43
 70
     1
102
RTVSPost2010Prop44ColorIndex
 90
        5
102
RTVSPost2010Prop44ColorRGB
 90
      255
102
RTVSPost2010PropOp44
 70
     1
102
RTVSPost2010Prop45
280
     0
102
RTVSPost2010PropOp45
 70
     1
102
RTVSPost2010Prop46
 90
       50
102
RTVSPost2010PropOp46
 70
     1
102
RTVSPost2010Prop47
 90
       50
102
RTVSPost2010PropOp47
 70
     1
102
RTVSPost2010Prop48
 90
       50
102
RTVSPost2010PropOp48
 70
     1
102
RTVSPost2010Prop49
280
     0
102
RTVSPost2010PropOp49
 70
     1
102
RTVSPost2010Prop50
 90
       50
102
RTVSPost2010PropOp50
 70
     1
102
RTVSPost2010Prop51ColorIndex
 90
      256
102
RTVSPost2010Prop51ColorRGB
 90
-16777216
102
RTVSPost2010PropOp51
 70
     0
102
RTVSPost2010Prop52
140
1.0
102
RTVSPost2010PropOp52
 70
     0
102
RTVSPost2010Prop53
 90
        2
102
RTVSPost2010PropOp53
 70
     1
102
RTVSPost2010Prop54
  1
strokes_ogs.tif
102
RTVSPost2010PropOp54
 70
     1
102
RTVSPost2010Prop55
280
     0
102
RTVSPost2010PropOp55
 70
     1
102
RTVSPost2010Prop56
140
1.0
102
RTVSPost2010PropOp56
 70
     1
102
RTVSPost2010Prop57
140
1.0
102
RTVSPost2010PropOp57
 70
     1
  0
XRECORD
  5
46D
102
{ACAD_REACTORS
330
46C
102
}
330
46C
100
AcDbXrecord
280
     1
102
RTVSPost2010Prop28
280
     0
102
RTVSPost2010PropOp28
 70
     1
102
RTVSPost2010Prop29
280
     1
102
RTVSPost2010PropOp29
 70
     1
102
RTVSPost2010Prop30
280
     1
102
RTVSPost2010PropOp30
 70
     1
102
RTVSPost2010Prop31
280
     0
102
RTVSPost2010PropOp31
 70
     1
102
RTVSPost2010Prop32
280
     0
102
RTVSPost2010PropOp32
 70
     1
102
RTVSPost2010Prop33
280
     0
102
RTVSPost2010PropOp33
 70
     1
102
RTVSPost2010Prop34
280
     0
102
RTVSPost2010PropOp34
 70
     1
102
RTVSPost2010Prop35
280
     0
102
RTVSPost2010PropOp35
 70
     1
102
RTVSPost2010Prop36
280
     0
102
RTVSPost2010PropOp36
 70
     1
102
RTVSPost2010Prop37
 90
       50
102
RTVSPost2010PropOp37
 70
     1
102
RTVSPost2010Prop38
140
0.0
102
RTVSPost2010PropOp38
 70
     1
102
RTVSPost2010Prop39
140
1.0
102
RTVSPost2010PropOp39
 70
     1
102
RTVSPost2010Prop40
 90
        0
102
RTVSPost2010PropOp40
 70
     1
102
RTVSPost2010Prop41ColorIndex
 90
       18
102
RTVSPost2010Prop41ColorRGB
 90
        0
102
RTVSPost2010PropOp41
 70
     1
102
RTVSPost2010Prop42
 90
       50
102
RTVSPost2010PropOp42
 70
     1
102
RTVSPost2010Prop43
 90
        3
102
RTVSPost2010PropOp43
 70
     1
102
RTVSPost2010Prop44ColorIndex
 90
        5
102
RTVSPost2010Prop44ColorRGB
 90
      255
102
RTVSPost2010PropOp44
 70
     1
102
RTVSPost2010Prop45
280
     0
102
RTVSPost2010PropOp45
 70
     1
102
RTVSPost2010Prop46
 90
       50
102
RTVSPost2010PropOp46
 70
     1
102
RTVSPost2010Prop47
 90
       50
102
RTVSPost2010PropOp47
 70
     1
102
RTVSPost2010Prop48
 90
       50
102
RTVSPost2010PropOp48
 70
     1
102
RTVSPost2010Prop49
280
     0
102
RTVSPost2010PropOp49
 70
     1
102
RTVSPost2010Prop50
 90
       50
102
RTVSPost2010PropOp50
 70
     1
102
RTVSPost2010Prop51ColorIndex
 90
      256
102
RTVSPost2010Prop51ColorRGB
 90
-16777216
102
RTVSPost2010PropOp51
 70
     0
102
RTVSPost2010Prop52
140
1.0
102
RTVSPost2010PropOp52
 70
     0
102
RTVSPost2010Prop53
 90
        2
102
RTVSPost2010PropOp53
 70
     1
102
RTVSPost2010Prop54
  1
strokes_ogs.tif
102
RTVSPost2010PropOp54
 70
     1
102
RTVSPost2010Prop55
280
     0
102
RTVSPost2010PropOp55
 70
     1
102
RTVSPost2010Prop56
140
1.0
102
RTVSPost2010PropOp56
 70
     1
102
RTVSPost2010Prop57
140
1.0
102
RTVSPost2010PropOp57
 70
     1
  0
XRECORD
  5
475
102
{ACAD_REACTORS
330
474
102
}
330
474
100
AcDbXrecord
280
     1
102
RTVSPost2010Prop28
280
     0
102
RTVSPost2010PropOp28
 70
     1
102
RTVSPost2010Prop29
280
     1
102
RTVSPost2010PropOp29
 70
     1
102
RTVSPost2010Prop30
280
     1
102
RTVSPost2010PropOp30
 70
     1
102
RTVSPost2010Prop31
280
     0
102
RTVSPost2010PropOp31
 70
     1
102
RTVSPost2010Prop32
280
     0
102
RTVSPost2010PropOp32
 70
     1
102
RTVSPost2010Prop33
280
     0
102
RTVSPost2010PropOp33
 70
     1
102
RTVSPost2010Prop34
280
     0
102
RTVSPost2010PropOp34
 70
     1
102
RTVSPost2010Prop35
280
     0
102
RTVSPost2010PropOp35
 70
     1
102
RTVSPost2010Prop36
280
     0
102
RTVSPost2010PropOp36
 70
     1
102
RTVSPost2010Prop37
 90
       50
102
RTVSPost2010PropOp37
 70
     1
102
RTVSPost2010Prop38
140
0.0
102
RTVSPost2010PropOp38
 70
     1
102
RTVSPost2010Prop39
140
1.0
102
RTVSPost2010PropOp39
 70
     1
102
RTVSPost2010Prop40
 90
        0
102
RTVSPost2010PropOp40
 70
     1
102
RTVSPost2010Prop41ColorIndex
 90
       18
102
RTVSPost2010Prop41ColorRGB
 90
        0
102
RTVSPost2010PropOp41
 70
     1
102
RTVSPost2010Prop42
 90
       50
102
RTVSPost2010PropOp42
 70
     1
102
RTVSPost2010Prop43
 90
        3
102
RTVSPost2010PropOp43
 70
     1
102
RTVSPost2010Prop44ColorIndex
 90
        5
102
RTVSPost2010Prop44ColorRGB
 90
      255
102
RTVSPost2010PropOp44
 70
     1
102
RTVSPost2010Prop45
280
     0
102
RTVSPost2010PropOp45
 70
     1
102
RTVSPost2010Prop46
 90
       50
102
RTVSPost2010PropOp46
 70
     1
102
RTVSPost2010Prop47
 90
       50
102
RTVSPost2010PropOp47
 70
     1
102
RTVSPost2010Prop48
 90
       50
102
RTVSPost2010PropOp48
 70
     1
102
RTVSPost2010Prop49
280
     0
102
RTVSPost2010PropOp49
 70
     1
102
RTVSPost2010Prop50
 90
       50
102
RTVSPost2010PropOp50
 70
     1
102
RTVSPost2010Prop51ColorIndex
 90
      256
102
RTVSPost2010Prop51ColorRGB
 90
-16777216
102
RTVSPost2010PropOp51
 70
     0
102
RTVSPost2010Prop52
140
1.0
102
RTVSPost2010PropOp52
 70
     0
102
RTVSPost2010Prop53
 90
        2
102
RTVSPost2010PropOp53
 70
     1
102
RTVSPost2010Prop54
  1
strokes_ogs.tif
102
RTVSPost2010PropOp54
 70
     1
102
RTVSPost2010Prop55
280
     0
102
RTVSPost2010PropOp55
 70
     1
102
RTVSPost2010Prop56
140
1.0
102
RTVSPost2010PropOp56
 70
     1
102
RTVSPost2010Prop57
140
1.0
102
RTVSPost2010PropOp57
 70
     1
  0
XRECORD
  5
491
102
{ACAD_REACTORS
330
490
102
}
330
490
100
AcDbXrecord
280
     1
102
RTVSPost2010Prop28
280
     0
102
RTVSPost2010PropOp28
 70
     0
102
RTVSPost2010Prop29
280
     1
102
RTVSPost2010PropOp29
 70
     0
102
RTVSPost2010Prop30
280
     1
102
RTVSPost2010PropOp30
 70
     0
102
RTVSPost2010Prop31
280
     0
102
RTVSPost2010PropOp31
 70
     0
102
RTVSPost2010Prop32
280
     0
102
RTVSPost2010PropOp32
 70
     0
102
RTVSPost2010Prop33
280
     0
102
RTVSPost2010PropOp33
 70
     0
102
RTVSPost2010Prop34
280
     0
102
RTVSPost2010PropOp34
 70
     0
102
RTVSPost2010Prop35
280
     0
102
RTVSPost2010PropOp35
 70
     0
102
RTVSPost2010Prop36
280
     0
102
RTVSPost2010PropOp36
 70
     0
102
RTVSPost2010Prop37
 90
       50
102
RTVSPost2010PropOp37
 70
     0
102
RTVSPost2010Prop38
140
0.0
102
RTVSPost2010PropOp38
 70
     0
102
RTVSPost2010Prop39
140
1.0
102
RTVSPost2010PropOp39
 70
     0
102
RTVSPost2010Prop40
 90
        0
102
RTVSPost2010PropOp40
 70
     0
102
RTVSPost2010Prop41ColorIndex
 90
       18
102
RTVSPost2010Prop41ColorRGB
 90
        0
102
RTVSPost2010PropOp41
 70
     0
102
RTVSPost2010Prop42
 90
       50
102
RTVSPost2010PropOp42
 70
     0
102
RTVSPost2010Prop43
 90
        3
102
RTVSPost2010PropOp43
 70
     0
102
RTVSPost2010Prop44ColorIndex
 90
        5
102
RTVSPost2010Prop44ColorRGB
 90
      255
102
RTVSPost2010PropOp44
 70
     0
102
RTVSPost2010Prop45
280
     0
102
RTVSPost2010PropOp45
 70
     0
102
RTVSPost2010Prop46
 90
       50
102
RTVSPost2010PropOp46
 70
     0
102
RTVSPost2010Prop47
 90
       50
102
RTVSPost2010PropOp47
 70
     0
102
RTVSPost2010Prop48
 90
       50
102
RTVSPost2010PropOp48
 70
     0
102
RTVSPost2010Prop49
280
     0
102
RTVSPost2010PropOp49
 70
     0
102
RTVSPost2010Prop50
 90
       50
102
RTVSPost2010PropOp50
 70
     0
102
RTVSPost2010Prop51ColorIndex
 90
      256
102
RTVSPost2010Prop51ColorRGB
 90
-16777216
102
RTVSPost2010PropOp51
 70
     0
102
RTVSPost2010Prop52
140
1.0
102
RTVSPost2010PropOp52
 70
     0
102
RTVSPost2010Prop53
 90
        2
102
RTVSPost2010PropOp53
 70
     0
102
RTVSPost2010Prop54
  1
strokes_ogs.tif
102
RTVSPost2010PropOp54
 70
     0
102
RTVSPost2010Prop55
280
     0
102
RTVSPost2010PropOp55
 70
     0
102
RTVSPost2010Prop56
140
1.0
102
RTVSPost2010PropOp56
 70
     0
102
RTVSPost2010Prop57
140
1.0
102
RTVSPost2010PropOp57
 70
     0
  0
XRECORD
  5
481
102
{ACAD_REACTORS
330
480
102
}
330
480
100
AcDbXrecord
280
     1
102
RTVSPost2010Prop28
280
     0
102
RTVSPost2010PropOp28
 70
     1
102
RTVSPost2010Prop29
280
     1
102
RTVSPost2010PropOp29
 70
     1
102
RTVSPost2010Prop30
280
     1
102
RTVSPost2010PropOp30
 70
     1
102
RTVSPost2010Prop31
280
     0
102
RTVSPost2010PropOp31
 70
     1
102
RTVSPost2010Prop32
280
     0
102
RTVSPost2010PropOp32
 70
     1
102
RTVSPost2010Prop33
280
     0
102
RTVSPost2010PropOp33
 70
     1
102
RTVSPost2010Prop34
280
     0
102
RTVSPost2010PropOp34
 70
     1
102
RTVSPost2010Prop35
280
     0
102
RTVSPost2010PropOp35
 70
     1
102
RTVSPost2010Prop36
280
     0
102
RTVSPost2010PropOp36
 70
     1
102
RTVSPost2010Prop37
 90
       50
102
RTVSPost2010PropOp37
 70
     1
102
RTVSPost2010Prop38
140
0.0
102
RTVSPost2010PropOp38
 70
     1
102
RTVSPost2010Prop39
140
1.0
102
RTVSPost2010PropOp39
 70
     1
102
RTVSPost2010Prop40
 90
        0
102
RTVSPost2010PropOp40
 70
     1
102
RTVSPost2010Prop41ColorIndex
 90
       18
102
RTVSPost2010Prop41ColorRGB
 90
        0
102
RTVSPost2010PropOp41
 70
     1
102
RTVSPost2010Prop42
 90
       50
102
RTVSPost2010PropOp42
 70
     1
102
RTVSPost2010Prop43
 90
        3
102
RTVSPost2010PropOp43
 70
     1
102
RTVSPost2010Prop44ColorIndex
 90
        5
102
RTVSPost2010Prop44ColorRGB
 90
      255
102
RTVSPost2010PropOp44
 70
     1
102
RTVSPost2010Prop45
280
     0
102
RTVSPost2010PropOp45
 70
     1
102
RTVSPost2010Prop46
 90
       50
102
RTVSPost2010PropOp46
 70
     1
102
RTVSPost2010Prop47
 90
       50
102
RTVSPost2010PropOp47
 70
     1
102
RTVSPost2010Prop48
 90
       50
102
RTVSPost2010PropOp48
 70
     1
102
RTVSPost2010Prop49
280
     0
102
RTVSPost2010PropOp49
 70
     1
102
RTVSPost2010Prop50
 90
       50
102
RTVSPost2010PropOp50
 70
     1
102
RTVSPost2010Prop51ColorIndex
 90
      256
102
RTVSPost2010Prop51ColorRGB
 90
-16777216
102
RTVSPost2010PropOp51
 70
     0
102
RTVSPost2010Prop52
140
1.0
102
RTVSPost2010PropOp52
 70
     0
102
RTVSPost2010Prop53
 90
        2
102
RTVSPost2010PropOp53
 70
     1
102
RTVSPost2010Prop54
  1
strokes_ogs.tif
102
RTVSPost2010PropOp54
 70
     1
102
RTVSPost2010Prop55
280
     0
102
RTVSPost2010PropOp55
 70
     1
102
RTVSPost2010Prop56
140
1.0
102
RTVSPost2010PropOp56
 70
     1
102
RTVSPost2010Prop57
140
1.0
102
RTVSPost2010PropOp57
 70
     1
  0
XRECORD
  5
493
102
{ACAD_REACTORS
330
492
102
}
330
492
100
AcDbXrecord
280
     1
102
RTVSPost2010Prop28
280
     0
102
RTVSPost2010PropOp28
 70
     0
102
RTVSPost2010Prop29
280
     1
102
RTVSPost2010PropOp29
 70
     0
102
RTVSPost2010Prop30
280
     1
102
RTVSPost2010PropOp30
 70
     0
102
RTVSPost2010Prop31
280
     0
102
RTVSPost2010PropOp31
 70
     0
102
RTVSPost2010Prop32
280
     0
102
RTVSPost2010PropOp32
 70
     0
102
RTVSPost2010Prop33
280
     0
102
RTVSPost2010PropOp33
 70
     0
102
RTVSPost2010Prop34
280
     0
102
RTVSPost2010PropOp34
 70
     0
102
RTVSPost2010Prop35
280
     0
102
RTVSPost2010PropOp35
 70
     0
102
RTVSPost2010Prop36
280
     0
102
RTVSPost2010PropOp36
 70
     0
102
RTVSPost2010Prop37
 90
       50
102
RTVSPost2010PropOp37
 70
     0
102
RTVSPost2010Prop38
140
0.0
102
RTVSPost2010PropOp38
 70
     0
102
RTVSPost2010Prop39
140
1.0
102
RTVSPost2010PropOp39
 70
     0
102
RTVSPost2010Prop40
 90
        0
102
RTVSPost2010PropOp40
 70
     0
102
RTVSPost2010Prop41ColorIndex
 90
       18
102
RTVSPost2010Prop41ColorRGB
 90
        0
102
RTVSPost2010PropOp41
 70
     0
102
RTVSPost2010Prop42
 90
       50
102
RTVSPost2010PropOp42
 70
     0
102
RTVSPost2010Prop43
 90
        3
102
RTVSPost2010PropOp43
 70
     0
102
RTVSPost2010Prop44ColorIndex
 90
        5
102
RTVSPost2010Prop44ColorRGB
 90
      255
102
RTVSPost2010PropOp44
 70
     0
102
RTVSPost2010Prop45
280
     0
102
RTVSPost2010PropOp45
 70
     0
102
RTVSPost2010Prop46
 90
       50
102
RTVSPost2010PropOp46
 70
     0
102
RTVSPost2010Prop47
 90
       50
102
RTVSPost2010PropOp47
 70
     0
102
RTVSPost2010Prop48
 90
       50
102
RTVSPost2010PropOp48
 70
     0
102
RTVSPost2010Prop49
280
     0
102
RTVSPost2010PropOp49
 70
     0
102
RTVSPost2010Prop50
 90
       50
102
RTVSPost2010PropOp50
 70
     0
102
RTVSPost2010Prop51ColorIndex
 90
      256
102
RTVSPost2010Prop51ColorRGB
 90
-16777216
102
RTVSPost2010PropOp51
 70
     0
102
RTVSPost2010Prop52
140
1.0
102
RTVSPost2010PropOp52
 70
     0
102
RTVSPost2010Prop53
 90
        2
102
RTVSPost2010PropOp53
 70
     0
102
RTVSPost2010Prop54
  1
strokes_ogs.tif
102
RTVSPost2010PropOp54
 70
     0
102
RTVSPost2010Prop55
280
     0
102
RTVSPost2010PropOp55
 70
     0
102
RTVSPost2010Prop56
140
1.0
102
RTVSPost2010PropOp56
 70
     0
102
RTVSPost2010Prop57
140
1.0
102
RTVSPost2010PropOp57
 70
     0
  0
XRECORD
  5
479
102
{ACAD_REACTORS
330
478
102
}
330
478
100
AcDbXrecord
280
     1
102
RTVSPost2010Prop28
280
     0
102
RTVSPost2010PropOp28
 70
     1
102
RTVSPost2010Prop29
280
     1
102
RTVSPost2010PropOp29
 70
     1
102
RTVSPost2010Prop30
280
     1
102
RTVSPost2010PropOp30
 70
     1
102
RTVSPost2010Prop31
280
     0
102
RTVSPost2010PropOp31
 70
     1
102
RTVSPost2010Prop32
280
     0
102
RTVSPost2010PropOp32
 70
     1
102
RTVSPost2010Prop33
280
     0
102
RTVSPost2010PropOp33
 70
     1
102
RTVSPost2010Prop34
280
     0
102
RTVSPost2010PropOp34
 70
     1
102
RTVSPost2010Prop35
280
     0
102
RTVSPost2010PropOp35
 70
     1
102
RTVSPost2010Prop36
280
     0
102
RTVSPost2010PropOp36
 70
     1
102
RTVSPost2010Prop37
 90
       50
102
RTVSPost2010PropOp37
 70
     1
102
RTVSPost2010Prop38
140
0.0
102
RTVSPost2010PropOp38
 70
     1
102
RTVSPost2010Prop39
140
1.0
102
RTVSPost2010PropOp39
 70
     1
102
RTVSPost2010Prop40
 90
        0
102
RTVSPost2010PropOp40
 70
     1
102
RTVSPost2010Prop41ColorIndex
 90
       18
102
RTVSPost2010Prop41ColorRGB
 90
        0
102
RTVSPost2010PropOp41
 70
     1
102
RTVSPost2010Prop42
 90
       50
102
RTVSPost2010PropOp42
 70
     1
102
RTVSPost2010Prop43
 90
        3
102
RTVSPost2010PropOp43
 70
     1
102
RTVSPost2010Prop44ColorIndex
 90
        5
102
RTVSPost2010Prop44ColorRGB
 90
      255
102
RTVSPost2010PropOp44
 70
     1
102
RTVSPost2010Prop45
280
     0
102
RTVSPost2010PropOp45
 70
     1
102
RTVSPost2010Prop46
 90
       50
102
RTVSPost2010PropOp46
 70
     1
102
RTVSPost2010Prop47
 90
       50
102
RTVSPost2010PropOp47
 70
     1
102
RTVSPost2010Prop48
 90
       50
102
RTVSPost2010PropOp48
 70
     1
102
RTVSPost2010Prop49
280
     0
102
RTVSPost2010PropOp49
 70
     1
102
RTVSPost2010Prop50
 90
       50
102
RTVSPost2010PropOp50
 70
     1
102
RTVSPost2010Prop51ColorIndex
 90
      256
102
RTVSPost2010Prop51ColorRGB
 90
-16777216
102
RTVSPost2010PropOp51
 70
     0
102
RTVSPost2010Prop52
140
1.0
102
RTVSPost2010PropOp52
 70
     0
102
RTVSPost2010Prop53
 90
        2
102
RTVSPost2010PropOp53
 70
     1
102
RTVSPost2010Prop54
  1
strokes_ogs.tif
102
RTVSPost2010PropOp54
 70
     1
102
RTVSPost2010Prop55
280
     0
102
RTVSPost2010PropOp55
 70
     1
102
RTVSPost2010Prop56
140
1.0
102
RTVSPost2010PropOp56
 70
     1
102
RTVSPost2010Prop57
140
1.0
102
RTVSPost2010PropOp57
 70
     1
  0
XRECORD
  5
48F
102
{ACAD_REACTORS
330
48E
102
}
330
48E
100
AcDbXrecord
280
     1
102
RTVSPost2010Prop28
280
     0
102
RTVSPost2010PropOp28
 70
     1
102
RTVSPost2010Prop29
280
     1
102
RTVSPost2010PropOp29
 70
     1
102
RTVSPost2010Prop30
280
     1
102
RTVSPost2010PropOp30
 70
     1
102
RTVSPost2010Prop31
280
     0
102
RTVSPost2010PropOp31
 70
     1
102
RTVSPost2010Prop32
280
     0
102
RTVSPost2010PropOp32
 70
     1
102
RTVSPost2010Prop33
280
     0
102
RTVSPost2010PropOp33
 70
     1
102
RTVSPost2010Prop34
280
     0
102
RTVSPost2010PropOp34
 70
     1
102
RTVSPost2010Prop35
280
     0
102
RTVSPost2010PropOp35
 70
     1
102
RTVSPost2010Prop36
280
     0
102
RTVSPost2010PropOp36
 70
     1
102
RTVSPost2010Prop37
 90
       50
102
RTVSPost2010PropOp37
 70
     1
102
RTVSPost2010Prop38
140
0.0
102
RTVSPost2010PropOp38
 70
     1
102
RTVSPost2010Prop39
140
1.0
102
RTVSPost2010PropOp39
 70
     1
102
RTVSPost2010Prop40
 90
        0
102
RTVSPost2010PropOp40
 70
     1
102
RTVSPost2010Prop41ColorIndex
 90
       18
102
RTVSPost2010Prop41ColorRGB
 90
        0
102
RTVSPost2010PropOp41
 70
     1
102
RTVSPost2010Prop42
 90
       50
102
RTVSPost2010PropOp42
 70
     1
102
RTVSPost2010Prop43
 90
        3
102
RTVSPost2010PropOp43
 70
     1
102
RTVSPost2010Prop44ColorIndex
 90
        5
102
RTVSPost2010Prop44ColorRGB
 90
      255
102
RTVSPost2010PropOp44
 70
     1
102
RTVSPost2010Prop45
280
     0
102
RTVSPost2010PropOp45
 70
     1
102
RTVSPost2010Prop46
 90
       50
102
RTVSPost2010PropOp46
 70
     1
102
RTVSPost2010Prop47
 90
       50
102
RTVSPost2010PropOp47
 70
     1
102
RTVSPost2010Prop48
 90
       50
102
RTVSPost2010PropOp48
 70
     1
102
RTVSPost2010Prop49
280
     0
102
RTVSPost2010PropOp49
 70
     1
102
RTVSPost2010Prop50
 90
       50
102
RTVSPost2010PropOp50
 70
     1
102
RTVSPost2010Prop51ColorIndex
 90
      256
102
RTVSPost2010Prop51ColorRGB
 90
-16777216
102
RTVSPost2010PropOp51
 70
     0
102
RTVSPost2010Prop52
140
1.0
102
RTVSPost2010PropOp52
 70
     0
102
RTVSPost2010Prop53
 90
        2
102
RTVSPost2010PropOp53
 70
     1
102
RTVSPost2010Prop54
  1
strokes_ogs.tif
102
RTVSPost2010PropOp54
 70
     1
102
RTVSPost2010Prop55
280
     0
102
RTVSPost2010PropOp55
 70
     1
102
RTVSPost2010Prop56
140
1.0
102
RTVSPost2010PropOp56
 70
     1
102
RTVSPost2010Prop57
140
1.0
102
RTVSPost2010PropOp57
 70
     1
  0
XRECORD
  5
48D
102
{ACAD_REACTORS
330
48C
102
}
330
48C
100
AcDbXrecord
280
     1
102
RTVSPost2010Prop28
280
     0
102
RTVSPost2010PropOp28
 70
     1
102
RTVSPost2010Prop29
280
     1
102
RTVSPost2010PropOp29
 70
     1
102
RTVSPost2010Prop30
280
     1
102
RTVSPost2010PropOp30
 70
     1
102
RTVSPost2010Prop31
280
     0
102
RTVSPost2010PropOp31
 70
     1
102
RTVSPost2010Prop32
280
     0
102
RTVSPost2010PropOp32
 70
     1
102
RTVSPost2010Prop33
280
     0
102
RTVSPost2010PropOp33
 70
     1
102
RTVSPost2010Prop34
280
     0
102
RTVSPost2010PropOp34
 70
     1
102
RTVSPost2010Prop35
280
     0
102
RTVSPost2010PropOp35
 70
     1
102
RTVSPost2010Prop36
280
     0
102
RTVSPost2010PropOp36
 70
     1
102
RTVSPost2010Prop37
 90
       50
102
RTVSPost2010PropOp37
 70
     1
102
RTVSPost2010Prop38
140
0.0
102
RTVSPost2010PropOp38
 70
     1
102
RTVSPost2010Prop39
140
1.0
102
RTVSPost2010PropOp39
 70
     1
102
RTVSPost2010Prop40
 90
        0
102
RTVSPost2010PropOp40
 70
     1
102
RTVSPost2010Prop41ColorIndex
 90
       18
102
RTVSPost2010Prop41ColorRGB
 90
        0
102
RTVSPost2010PropOp41
 70
     1
102
RTVSPost2010Prop42
 90
       50
102
RTVSPost2010PropOp42
 70
     1
102
RTVSPost2010Prop43
 90
        3
102
RTVSPost2010PropOp43
 70
     1
102
RTVSPost2010Prop44ColorIndex
 90
        5
102
RTVSPost2010Prop44ColorRGB
 90
      255
102
RTVSPost2010PropOp44
 70
     1
102
RTVSPost2010Prop45
280
     0
102
RTVSPost2010PropOp45
 70
     1
102
RTVSPost2010Prop46
 90
       50
102
RTVSPost2010PropOp46
 70
     1
102
RTVSPost2010Prop47
 90
       50
102
RTVSPost2010PropOp47
 70
     1
102
RTVSPost2010Prop48
 90
       50
102
RTVSPost2010PropOp48
 70
     1
102
RTVSPost2010Prop49
280
     0
102
RTVSPost2010PropOp49
 70
     1
102
RTVSPost2010Prop50
 90
       50
102
RTVSPost2010PropOp50
 70
     1
102
RTVSPost2010Prop51ColorIndex
 90
      256
102
RTVSPost2010Prop51ColorRGB
 90
-16777216
102
RTVSPost2010PropOp51
 70
     0
102
RTVSPost2010Prop52
140
1.0
102
RTVSPost2010PropOp52
 70
     0
102
RTVSPost2010Prop53
 90
        2
102
RTVSPost2010PropOp53
 70
     1
102
RTVSPost2010Prop54
  1
strokes_ogs.tif
102
RTVSPost2010PropOp54
 70
     1
102
RTVSPost2010Prop55
280
     0
102
RTVSPost2010PropOp55
 70
     1
102
RTVSPost2010Prop56
140
1.0
102
RTVSPost2010PropOp56
 70
     1
102
RTVSPost2010Prop57
140
1.0
102
RTVSPost2010PropOp57
 70
     1
  0
XRECORD
  5
487
102
{ACAD_REACTORS
330
486
102
}
330
486
100
AcDbXrecord
280
     1
102
RTVSPost2010Prop28
280
     0
102
RTVSPost2010PropOp28
 70
     1
102
RTVSPost2010Prop29
280
     1
102
RTVSPost2010PropOp29
 70
     1
102
RTVSPost2010Prop30
280
     1
102
RTVSPost2010PropOp30
 70
     1
102
RTVSPost2010Prop31
280
     0
102
RTVSPost2010PropOp31
 70
     1
102
RTVSPost2010Prop32
280
     0
102
RTVSPost2010PropOp32
 70
     1
102
RTVSPost2010Prop33
280
     0
102
RTVSPost2010PropOp33
 70
     1
102
RTVSPost2010Prop34
280
     0
102
RTVSPost2010PropOp34
 70
     1
102
RTVSPost2010Prop35
280
     0
102
RTVSPost2010PropOp35
 70
     1
102
RTVSPost2010Prop36
280
     0
102
RTVSPost2010PropOp36
 70
     1
102
RTVSPost2010Prop37
 90
       50
102
RTVSPost2010PropOp37
 70
     1
102
RTVSPost2010Prop38
140
0.0
102
RTVSPost2010PropOp38
 70
     1
102
RTVSPost2010Prop39
140
1.0
102
RTVSPost2010PropOp39
 70
     1
102
RTVSPost2010Prop40
 90
        0
102
RTVSPost2010PropOp40
 70
     1
102
RTVSPost2010Prop41ColorIndex
 90
       18
102
RTVSPost2010Prop41ColorRGB
 90
        0
102
RTVSPost2010PropOp41
 70
     1
102
RTVSPost2010Prop42
 90
       50
102
RTVSPost2010PropOp42
 70
     1
102
RTVSPost2010Prop43
 90
        3
102
RTVSPost2010PropOp43
 70
     1
102
RTVSPost2010Prop44ColorIndex
 90
        5
102
RTVSPost2010Prop44ColorRGB
 90
      255
102
RTVSPost2010PropOp44
 70
     1
102
RTVSPost2010Prop45
280
     0
102
RTVSPost2010PropOp45
 70
     1
102
RTVSPost2010Prop46
 90
       50
102
RTVSPost2010PropOp46
 70
     1
102
RTVSPost2010Prop47
 90
       50
102
RTVSPost2010PropOp47
 70
     1
102
RTVSPost2010Prop48
 90
       50
102
RTVSPost2010PropOp48
 70
     1
102
RTVSPost2010Prop49
280
     0
102
RTVSPost2010PropOp49
 70
     1
102
RTVSPost2010Prop50
 90
       50
102
RTVSPost2010PropOp50
 70
     1
102
RTVSPost2010Prop51ColorIndex
 90
      256
102
RTVSPost2010Prop51ColorRGB
 90
-16777216
102
RTVSPost2010PropOp51
 70
     0
102
RTVSPost2010Prop52
140
1.0
102
RTVSPost2010PropOp52
 70
     0
102
RTVSPost2010Prop53
 90
        2
102
RTVSPost2010PropOp53
 70
     1
102
RTVSPost2010Prop54
  1
strokes_ogs.tif
102
RTVSPost2010PropOp54
 70
     1
102
RTVSPost2010Prop55
280
     0
102
RTVSPost2010PropOp55
 70
     1
102
RTVSPost2010Prop56
140
1.0
102
RTVSPost2010PropOp56
 70
     1
102
RTVSPost2010Prop57
140
1.0
102
RTVSPost2010PropOp57
 70
     1
  0
XRECORD
  5
489
102
{ACAD_REACTORS
330
488
102
}
330
488
100
AcDbXrecord
280
     1
102
RTVSPost2010Prop28
280
     0
102
RTVSPost2010PropOp28
 70
     1
102
RTVSPost2010Prop29
280
     1
102
RTVSPost2010PropOp29
 70
     1
102
RTVSPost2010Prop30
280
     1
102
RTVSPost2010PropOp30
 70
     1
102
RTVSPost2010Prop31
280
     0
102
RTVSPost2010PropOp31
 70
     1
102
RTVSPost2010Prop32
280
     0
102
RTVSPost2010PropOp32
 70
     1
102
RTVSPost2010Prop33
280
     0
102
RTVSPost2010PropOp33
 70
     1
102
RTVSPost2010Prop34
280
     0
102
RTVSPost2010PropOp34
 70
     1
102
RTVSPost2010Prop35
280
     0
102
RTVSPost2010PropOp35
 70
     1
102
RTVSPost2010Prop36
280
     0
102
RTVSPost2010PropOp36
 70
     1
102
RTVSPost2010Prop37
 90
       50
102
RTVSPost2010PropOp37
 70
     1
102
RTVSPost2010Prop38
140
0.0
102
RTVSPost2010PropOp38
 70
     1
102
RTVSPost2010Prop39
140
1.0
102
RTVSPost2010PropOp39
 70
     1
102
RTVSPost2010Prop40
 90
        0
102
RTVSPost2010PropOp40
 70
     1
102
RTVSPost2010Prop41ColorIndex
 90
       18
102
RTVSPost2010Prop41ColorRGB
 90
        0
102
RTVSPost2010PropOp41
 70
     1
102
RTVSPost2010Prop42
 90
       50
102
RTVSPost2010PropOp42
 70
     1
102
RTVSPost2010Prop43
 90
        3
102
RTVSPost2010PropOp43
 70
     1
102
RTVSPost2010Prop44ColorIndex
 90
        5
102
RTVSPost2010Prop44ColorRGB
 90
      255
102
RTVSPost2010PropOp44
 70
     1
102
RTVSPost2010Prop45
280
     0
102
RTVSPost2010PropOp45
 70
     1
102
RTVSPost2010Prop46
 90
       50
102
RTVSPost2010PropOp46
 70
     1
102
RTVSPost2010Prop47
 90
       50
102
RTVSPost2010PropOp47
 70
     1
102
RTVSPost2010Prop48
 90
       50
102
RTVSPost2010PropOp48
 70
     1
102
RTVSPost2010Prop49
280
     0
102
RTVSPost2010PropOp49
 70
     1
102
RTVSPost2010Prop50
 90
       50
102
RTVSPost2010PropOp50
 70
     1
102
RTVSPost2010Prop51ColorIndex
 90
      256
102
RTVSPost2010Prop51ColorRGB
 90
-16777216
102
RTVSPost2010PropOp51
 70
     0
102
RTVSPost2010Prop52
140
1.0
102
RTVSPost2010PropOp52
 70
     0
102
RTVSPost2010Prop53
 90
        2
102
RTVSPost2010PropOp53
 70
     1
102
RTVSPost2010Prop54
  1
strokes_ogs.tif
102
RTVSPost2010PropOp54
 70
     1
102
RTVSPost2010Prop55
280
     0
102
RTVSPost2010PropOp55
 70
     1
102
RTVSPost2010Prop56
140
1.0
102
RTVSPost2010PropOp56
 70
     1
102
RTVSPost2010Prop57
140
1.0
102
RTVSPost2010PropOp57
 70
     1
  0
XRECORD
  5
47F
102
{ACAD_REACTORS
330
47E
102
}
330
47E
100
AcDbXrecord
280
     1
102
RTVSPost2010Prop28
280
     0
102
RTVSPost2010PropOp28
 70
     1
102
RTVSPost2010Prop29
280
     1
102
RTVSPost2010PropOp29
 70
     1
102
RTVSPost2010Prop30
280
     1
102
RTVSPost2010PropOp30
 70
     1
102
RTVSPost2010Prop31
280
     0
102
RTVSPost2010PropOp31
 70
     1
102
RTVSPost2010Prop32
280
     0
102
RTVSPost2010PropOp32
 70
     1
102
RTVSPost2010Prop33
280
     0
102
RTVSPost2010PropOp33
 70
     1
102
RTVSPost2010Prop34
280
     0
102
RTVSPost2010PropOp34
 70
     1
102
RTVSPost2010Prop35
280
     0
102
RTVSPost2010PropOp35
 70
     1
102
RTVSPost2010Prop36
280
     0
102
RTVSPost2010PropOp36
 70
     1
102
RTVSPost2010Prop37
 90
       50
102
RTVSPost2010PropOp37
 70
     1
102
RTVSPost2010Prop38
140
0.0
102
RTVSPost2010PropOp38
 70
     1
102
RTVSPost2010Prop39
140
1.0
102
RTVSPost2010PropOp39
 70
     1
102
RTVSPost2010Prop40
 90
        0
102
RTVSPost2010PropOp40
 70
     1
102
RTVSPost2010Prop41ColorIndex
 90
       18
102
RTVSPost2010Prop41ColorRGB
 90
        0
102
RTVSPost2010PropOp41
 70
     1
102
RTVSPost2010Prop42
 90
       50
102
RTVSPost2010PropOp42
 70
     1
102
RTVSPost2010Prop43
 90
        3
102
RTVSPost2010PropOp43
 70
     1
102
RTVSPost2010Prop44ColorIndex
 90
        5
102
RTVSPost2010Prop44ColorRGB
 90
      255
102
RTVSPost2010PropOp44
 70
     1
102
RTVSPost2010Prop45
280
     0
102
RTVSPost2010PropOp45
 70
     1
102
RTVSPost2010Prop46
 90
       50
102
RTVSPost2010PropOp46
 70
     1
102
RTVSPost2010Prop47
 90
       50
102
RTVSPost2010PropOp47
 70
     1
102
RTVSPost2010Prop48
 90
       50
102
RTVSPost2010PropOp48
 70
     1
102
RTVSPost2010Prop49
280
     0
102
RTVSPost2010PropOp49
 70
     1
102
RTVSPost2010Prop50
 90
       50
102
RTVSPost2010PropOp50
 70
     1
102
RTVSPost2010Prop51ColorIndex
 90
      256
102
RTVSPost2010Prop51ColorRGB
 90
-16777216
102
RTVSPost2010PropOp51
 70
     0
102
RTVSPost2010Prop52
140
1.0
102
RTVSPost2010PropOp52
 70
     0
102
RTVSPost2010Prop53
 90
        2
102
RTVSPost2010PropOp53
 70
     1
102
RTVSPost2010Prop54
  1
strokes_ogs.tif
102
RTVSPost2010PropOp54
 70
     1
102
RTVSPost2010Prop55
280
     0
102
RTVSPost2010PropOp55
 70
     1
102
RTVSPost2010Prop56
140
1.0
102
RTVSPost2010PropOp56
 70
     1
102
RTVSPost2010Prop57
140
1.0
102
RTVSPost2010PropOp57
 70
     1
  0
XRECORD
  5
473
102
{ACAD_REACTORS
330
472
102
}
330
472
100
AcDbXrecord
280
     1
102
RTVSPost2010Prop28
280
     0
102
RTVSPost2010PropOp28
 70
     1
102
RTVSPost2010Prop29
280
     1
102
RTVSPost2010PropOp29
 70
     1
102
RTVSPost2010Prop30
280
     1
102
RTVSPost2010PropOp30
 70
     1
102
RTVSPost2010Prop31
280
     0
102
RTVSPost2010PropOp31
 70
     1
102
RTVSPost2010Prop32
280
     0
102
RTVSPost2010PropOp32
 70
     1
102
RTVSPost2010Prop33
280
     0
102
RTVSPost2010PropOp33
 70
     1
102
RTVSPost2010Prop34
280
     0
102
RTVSPost2010PropOp34
 70
     1
102
RTVSPost2010Prop35
280
     0
102
RTVSPost2010PropOp35
 70
     1
102
RTVSPost2010Prop36
280
     0
102
RTVSPost2010PropOp36
 70
     1
102
RTVSPost2010Prop37
 90
       50
102
RTVSPost2010PropOp37
 70
     1
102
RTVSPost2010Prop38
140
0.0
102
RTVSPost2010PropOp38
 70
     1
102
RTVSPost2010Prop39
140
1.0
102
RTVSPost2010PropOp39
 70
     1
102
RTVSPost2010Prop40
 90
        0
102
RTVSPost2010PropOp40
 70
     1
102
RTVSPost2010Prop41ColorIndex
 90
       18
102
RTVSPost2010Prop41ColorRGB
 90
        0
102
RTVSPost2010PropOp41
 70
     1
102
RTVSPost2010Prop42
 90
       50
102
RTVSPost2010PropOp42
 70
     1
102
RTVSPost2010Prop43
 90
        3
102
RTVSPost2010PropOp43
 70
     1
102
RTVSPost2010Prop44ColorIndex
 90
        5
102
RTVSPost2010Prop44ColorRGB
 90
      255
102
RTVSPost2010PropOp44
 70
     1
102
RTVSPost2010Prop45
280
     0
102
RTVSPost2010PropOp45
 70
     1
102
RTVSPost2010Prop46
 90
       50
102
RTVSPost2010PropOp46
 70
     1
102
RTVSPost2010Prop47
 90
       50
102
RTVSPost2010PropOp47
 70
     1
102
RTVSPost2010Prop48
 90
       50
102
RTVSPost2010PropOp48
 70
     1
102
RTVSPost2010Prop49
280
     0
102
RTVSPost2010PropOp49
 70
     1
102
RTVSPost2010Prop50
 90
       50
102
RTVSPost2010PropOp50
 70
     1
102
RTVSPost2010Prop51ColorIndex
 90
      256
102
RTVSPost2010Prop51ColorRGB
 90
-16777216
102
RTVSPost2010PropOp51
 70
     0
102
RTVSPost2010Prop52
140
1.0
102
RTVSPost2010PropOp52
 70
     0
102
RTVSPost2010Prop53
 90
        2
102
RTVSPost2010PropOp53
 70
     1
102
RTVSPost2010Prop54
  1
strokes_ogs.tif
102
RTVSPost2010PropOp54
 70
     1
102
RTVSPost2010Prop55
280
     0
102
RTVSPost2010PropOp55
 70
     1
102
RTVSPost2010Prop56
140
1.0
102
RTVSPost2010PropOp56
 70
     1
102
RTVSPost2010Prop57
140
1.0
102
RTVSPost2010PropOp57
 70
     1
  0
XRECORD
  5
48B
102
{ACAD_REACTORS
330
48A
102
}
330
48A
100
AcDbXrecord
280
     1
102
RTVSPost2010Prop28
280
     0
102
RTVSPost2010PropOp28
 70
     1
102
RTVSPost2010Prop29
280
     1
102
RTVSPost2010PropOp29
 70
     1
102
RTVSPost2010Prop30
280
     1
102
RTVSPost2010PropOp30
 70
     1
102
RTVSPost2010Prop31
280
     0
102
RTVSPost2010PropOp31
 70
     1
102
RTVSPost2010Prop32
280
     0
102
RTVSPost2010PropOp32
 70
     1
102
RTVSPost2010Prop33
280
     0
102
RTVSPost2010PropOp33
 70
     1
102
RTVSPost2010Prop34
280
     0
102
RTVSPost2010PropOp34
 70
     1
102
RTVSPost2010Prop35
280
     0
102
RTVSPost2010PropOp35
 70
     1
102
RTVSPost2010Prop36
280
     0
102
RTVSPost2010PropOp36
 70
     1
102
RTVSPost2010Prop37
 90
       50
102
RTVSPost2010PropOp37
 70
     1
102
RTVSPost2010Prop38
140
0.0
102
RTVSPost2010PropOp38
 70
     1
102
RTVSPost2010Prop39
140
1.0
102
RTVSPost2010PropOp39
 70
     1
102
RTVSPost2010Prop40
 90
        0
102
RTVSPost2010PropOp40
 70
     1
102
RTVSPost2010Prop41ColorIndex
 90
       18
102
RTVSPost2010Prop41ColorRGB
 90
        0
102
RTVSPost2010PropOp41
 70
     1
102
RTVSPost2010Prop42
 90
       50
102
RTVSPost2010PropOp42
 70
     1
102
RTVSPost2010Prop43
 90
        3
102
RTVSPost2010PropOp43
 70
     1
102
RTVSPost2010Prop44ColorIndex
 90
        5
102
RTVSPost2010Prop44ColorRGB
 90
      255
102
RTVSPost2010PropOp44
 70
     1
102
RTVSPost2010Prop45
280
     0
102
RTVSPost2010PropOp45
 70
     1
102
RTVSPost2010Prop46
 90
       50
102
RTVSPost2010PropOp46
 70
     1
102
RTVSPost2010Prop47
 90
       50
102
RTVSPost2010PropOp47
 70
     1
102
RTVSPost2010Prop48
 90
       50
102
RTVSPost2010PropOp48
 70
     1
102
RTVSPost2010Prop49
280
     0
102
RTVSPost2010PropOp49
 70
     1
102
RTVSPost2010Prop50
 90
       50
102
RTVSPost2010PropOp50
 70
     1
102
RTVSPost2010Prop51ColorIndex
 90
      256
102
RTVSPost2010Prop51ColorRGB
 90
-16777216
102
RTVSPost2010PropOp51
 70
     0
102
RTVSPost2010Prop52
140
1.0
102
RTVSPost2010PropOp52
 70
     0
102
RTVSPost2010Prop53
 90
        2
102
RTVSPost2010PropOp53
 70
     1
102
RTVSPost2010Prop54
  1
strokes_ogs.tif
102
RTVSPost2010PropOp54
 70
     1
102
RTVSPost2010Prop55
280
     0
102
RTVSPost2010PropOp55
 70
     1
102
RTVSPost2010Prop56
140
1.0
102
RTVSPost2010PropOp56
 70
     1
102
RTVSPost2010Prop57
140
1.0
102
RTVSPost2010PropOp57
 70
     1
  0
ENDSEC
  0
EOF
