  0
SECTION
  2
HEADER
  9
$ACADVER
  1
AC1024
  9
$ACADMAINTVER
 70
   226
  9
$DWGCODEPAGE
  3
ANSI_1252
  9
$INSBASE
 10
0.0
 20
0.0
 30
0.0
  9
$EXTMIN
 10
1.000000000000000E+20
 20
1.000000000000000E+20
 30
1.000000000000000E+20
  9
$EXTMAX
 10
-1.000000000000000E+20
 20
-1.000000000000000E+20
 30
-1.000000000000000E+20
  9
$LIMMIN
 10
0.0
 20
0.0
  9
$LIMMAX
 10
12.0
 20
9.0
  9
$ORTHOMODE
 70
     0
  9
$REGENMODE
 70
     1
  9
$FILLMODE
 70
     1
  9
$QTEXTMODE
 70
     0
  9
$MIRRTEXT
 70
     1
  9
$LTSCALE
 40
1.0
  9
$ATTMODE
 70
     1
  9
$TEXTSIZE
 40
0.2
  9
$TRACEWID
 40
0.05
  9
$TEXTSTYLE
  7
Standard
  9
$CLAYER
  8
0
  9
$CELTYPE
  6
ByLayer
  9
$CECOLOR
 62
   256
  9
$CELTSCALE
 40
1.0
  9
$DISPSILH
 70
     0
  9
$DIMSCALE
 40
1.0
  9
$DIMASZ
 40
0.18
  9
$DIMEXO
 40
0.0625
  9
$DIMDLI
 40
0.38
  9
$DIMRND
 40
0.0
  9
$DIMDLE
 40
0.0
  9
$DIMEXE
 40
0.18
  9
$DIMTP
 40
0.0
  9
$DIMTM
 40
0.0
  9
$DIMTXT
 40
0.18
  9
$DIMCEN
 40
0.09
  9
$DIMTSZ
 40
0.0
  9
$DIMTOL
 70
     0
  9
$DIMLIM
 70
     0
  9
$DIMTIH
 70
     1
  9
$DIMTOH
 70
     1
  9
$DIMSE1
 70
     0
  9
$DIMSE2
 70
     0
  9
$DIMTAD
 70
     0
  9
$DIMZIN
 70
     0
  9
$DIMBLK
  1

  9
$DIMASO
 70
     1
  9
$DIMSHO
 70
     1
  9
$DIMPOST
  1

  9
$DIMAPOST
  1

  9
$DIMALT
 70
     0
  9
$DIMALTD
 70
     2
  9
$DIMALTF
 40
25.4
  9
$DIMLFAC
 40
1.0
  9
$DIMTOFL
 70
     0
  9
$DIMTVP
 40
0.0
  9
$DIMTIX
 70
     0
  9
$DIMSOXD
 70
     0
  9
$DIMSAH
 70
     0
  9
$DIMBLK1
  1

  9
$DIMBLK2
  1

  9
$DIMSTYLE
  2
Standard
  9
$DIMCLRD
 70
     0
  9
$DIMCLRE
 70
     0
  9
$DIMCLRT
 70
     0
  9
$DIMTFAC
 40
1.0
  9
$DIMGAP
 40
0.09
  9
$DIMJUST
 70
     0
  9
$DIMSD1
 70
     0
  9
$DIMSD2
 70
     0
  9
$DIMTOLJ
 70
     1
  9
$DIMTZIN
 70
     0
  9
$DIMALTZ
 70
     0
  9
$DIMALTTZ
 70
     0
  9
$DIMUPT
 70
     0
  9
$DIMDEC
 70
     4
  9
$DIMTDEC
 70
     4
  9
$DIMALTU
 70
     2
  9
$DIMALTTD
 70
     2
  9
$DIMTXSTY
  7
Standard
  9
$DIMAUNIT
 70
     0
  9
$DIMADEC
 70
     0
  9
$DIMALTRND
 40
0.0
  9
$DIMAZIN
 70
     0
  9
$DIMDSEP
 70
    46
  9
$DIMATFIT
 70
     3
  9
$DIMFRAC
 70
     0
  9
$DIMLDRBLK
  1

  9
$DIMLUNIT
 70
     2
  9
$DIMLWD
 70
    -2
  9
$DIMLWE
 70
    -2
  9
$DIMTMOVE
 70
     0
  9
$DIMFXL
 40
1.0
  9
$DIMFXLON
 70
     0
  9
$DIMJOGANG
 40
0.7853981633974483
  9
$DIMTFILL
 70
     0
  9
$DIMTFILLCLR
 70
     0
  9
$DIMARCSYM
 70
     0
  9
$DIMLTYPE
  6

  9
$DIMLTEX1
  6

  9
$DIMLTEX2
  6

  9
$DIMTXTDIRECTION
 70
     0
  9
$LUNITS
 70
     2
  9
$LUPREC
 70
     4
  9
$SKETCHINC
 40
0.1
  9
$FILLETRAD
 40
0.5
  9
$AUNITS
 70
     0
  9
$AUPREC
 70
     0
  9
$MENU
  1
.
  9
$ELEVATION
 40
0.0
  9
$PELEVATION
 40
0.0
  9
$THICKNESS
 40
0.0
  9
$LIMCHECK
 70
     0
  9
$CHAMFERA
 40
0.5
  9
$CHAMFERB
 40
0.5
  9
$CHAMFERC
 40
1.0
  9
$CHAMFERD
 40
0.0
  9
$SKPOLY
 70
     0
  9
$TDCREATE
 40
2451380.888761574
  9
$TDUCREATE
 40
2451380.805432396
  9
$TDUPDATE
 40
2451380.924513889
  9
$TDUUPDATE
 40
2451380.841180556
  9
$TDINDWG
 40
0.0075602199
  9
$TDUSRTIMER
 40
0.0075511806
  9
$USRTIMER
 70
     1
  9
$ANGBASE
 50
0.0
  9
$ANGDIR
 70
     0
  9
$PDMODE
 70
     0
  9
$PDSIZE
 40
0.0
  9
$PLINEWID
 40
0.0
  9
$SPLFRAME
 70
     0
  9
$SPLINETYPE
 70
     6
  9
$SPLINESEGS
 70
     8
  9
$HANDSEED
  5
1C0
  9
$SURFTAB1
 70
     6
  9
$SURFTAB2
 70
     6
  9
$SURFTYPE
 70
     6
  9
$SURFU
 70
     6
  9
$SURFV
 70
     6
  9
$UCSBASE
  2

  9
$UCSNAME
  2

  9
$UCSORG
 10
0.0
 20
0.0
 30
0.0
  9
$UCSXDIR
 10
1.0
 20
0.0
 30
0.0
  9
$UCSYDIR
 10
0.0
 20
1.0
 30
0.0
  9
$UCSORTHOREF
  2

  9
$UCSORTHOVIEW
 70
     0
  9
$UCSORGTOP
 10
0.0
 20
0.0
 30
0.0
  9
$UCSORGBOTTOM
 10
0.0
 20
0.0
 30
0.0
  9
$UCSORGLEFT
 10
0.0
 20
0.0
 30
0.0
  9
$UCSORGRIGHT
 10
0.0
 20
0.0
 30
0.0
  9
$UCSORGFRONT
 10
0.0
 20
0.0
 30
0.0
  9
$UCSORGBACK
 10
0.0
 20
0.0
 30
0.0
  9
$PUCSBASE
  2

  9
$PUCSNAME
  2

  9
$PUCSORG
 10
0.0
 20
0.0
 30
0.0
  9
$PUCSXDIR
 10
1.0
 20
0.0
 30
0.0
  9
$PUCSYDIR
 10
0.0
 20
1.0
 30
0.0
  9
$PUCSORTHOREF
  2

  9
$PUCSORTHOVIEW
 70
     0
  9
$PUCSORGTOP
 10
0.0
 20
0.0
 30
0.0
  9
$PUCSORGBOTTOM
 10
0.0
 20
0.0
 30
0.0
  9
$PUCSORGLEFT
 10
0.0
 20
0.0
 30
0.0
  9
$PUCSORGRIGHT
 10
0.0
 20
0.0
 30
0.0
  9
$PUCSORGFRONT
 10
0.0
 20
0.0
 30
0.0
  9
$PUCSORGBACK
 10
0.0
 20
0.0
 30
0.0
  9
$USERI1
 70
     0
  9
$USERI2
 70
     0
  9
$USERI3
 70
     0
  9
$USERI4
 70
     0
  9
$USERI5
 70
     0
  9
$USERR1
 40
0.0
  9
$USERR2
 40
0.0
  9
$USERR3
 40
0.0
  9
$USERR4
 40
0.0
  9
$USERR5
 40
0.0
  9
$WORLDVIEW
 70
     1
  9
$SHADEDGE
 70
     3
  9
$SHADEDIF
 70
    70
  9
$TILEMODE
 70
     1
  9
$MAXACTVP
 70
    64
  9
$PINSBASE
 10
0.0
 20
0.0
 30
0.0
  9
$PLIMCHECK
 70
     0
  9
$PEXTMIN
 10
1.000000000000000E+20
 20
1.000000000000000E+20
 30
1.000000000000000E+20
  9
$PEXTMAX
 10
-1.000000000000000E+20
 20
-1.000000000000000E+20
 30
-1.000000000000000E+20
  9
$PLIMMIN
 10
0.0
 20
0.0
  9
$PLIMMAX
 10
12.0
 20
9.0
  9
$UNITMODE
 70
     0
  9
$VISRETAIN
 70
     1
  9
$PLINEGEN
 70
     0
  9
$PSLTSCALE
 70
     1
  9
$TREEDEPTH
 70
  3020
  9
$CMLSTYLE
  2
Standard
  9
$CMLJUST
 70
     0
  9
$CMLSCALE
 40
1.0
  9
$PROXYGRAPHICS
 70
     1
  9
$MEASUREMENT
 70
     1
  9
$CELWEIGHT
370
    -1
  9
$ENDCAPS
280
     0
  9
$JOINSTYLE
280
     0
  9
$LWDISPLAY
290
     0
  9
$INSUNITS
 70
     4
  9
$HYPERLINKBASE
  1

  9
$STYLESHEET
  1

  9
$XEDIT
290
     1
  9
$CEPSNTYPE
380
     0
  9
$PSTYLEMODE
290
     1
  9
$FINGERPRINTGUID
  2
{12F50282-3ED8-11D3-A8B7-0060B0F84BC6}
  9
$VERSIONGUID
  2
{12F50293-3ED8-11D3-A8B7-0060B0F84BC6}
  9
$EXTNAMES
290
     1
  9
$PSVPSCALE
 40
0.0
  9
$OLESTARTUP
290
     0
  9
$SORTENTS
280
   127
  9
$INDEXCTL
280
     0
  9
$HIDETEXT
280
     0
  9
$XCLIPFRAME
280
     2
  9
$HALOGAP
280
     0
  9
$OBSCOLOR
 70
   257
  9
$OBSLTYPE
280
     0
  9
$INTERSECTIONDISPLAY
280
     0
  9
$INTERSECTIONCOLOR
 70
   257
  9
$DIMASSOC
280
     1
  9
$PROJECTNAME
  1

  9
$CAMERADISPLAY
290
     0
  9
$LENSLENGTH
 40
50.0
  9
$CAMERAHEIGHT
 40
0.0
  9
$STEPSPERSEC
 40
2.0
  9
$STEPSIZE
 40
6.0
  9
$3DDWFPREC
 40
2.0
  9
$PSOLWIDTH
 40
0.25
  9
$PSOLHEIGHT
 40
4.0
  9
$LOFTANG1
 40
1.570796326794896
  9
$LOFTANG2
 40
1.570796326794896
  9
$LOFTMAG1
 40
0.0
  9
$LOFTMAG2
 40
0.0
  9
$LOFTPARAM
 70
     7
  9
$LOFTNORMALS
280
     1
  9
$LATITUDE
 40
37.795
  9
$LONGITUDE
 40
-122.394
  9
$NORTHDIRECTION
 40
0.0
  9
$TIMEZONE
 70
 -8000
  9
$LIGHTGLYPHDISPLAY
280
     1
  9
$TILEMODELIGHTSYNCH
280
     1
  9
$CMATERIAL
347
AB
  9
$SOLIDHIST
280
     0
  9
$SHOWHIST
280
     1
  9
$DWFFRAME
280
     2
  9
$DGNFRAME
280
     0
  9
$REALWORLDSCALE
290
     1
  9
$INTERFERECOLOR
 62
     1
  9
$INTERFEREOBJVS
345
CD
  9
$INTERFEREVPVS
346
CA
  9
$CSHADOW
280
     0
  9
$SHADOWPLANELOCATION
 40
0.0
  0
ENDSEC
  0
SECTION
  2
CLASSES
  0
CLASS
  1
ACDBDICTIONARYWDFLT
  2
AcDbDictionaryWithDefault
  3
ObjectDBX Classes
 90
        0
 91
        1
280
     0
281
     0
  0
CLASS
  1
ACDBPLACEHOLDER
  2
AcDbPlaceHolder
  3
ObjectDBX Classes
 90
        0
 91
        2
280
     0
281
     0
  0
CLASS
  1
LAYOUT
  2
AcDbLayout
  3
ObjectDBX Classes
 90
        0
 91
        3
280
     0
281
     0
  0
CLASS
  1
MATERIAL
  2
AcDbMaterial
  3
ObjectDBX Classes
 90
     1153
 91
        3
280
     0
281
     0
  0
CLASS
  1
VISUALSTYLE
  2
AcDbVisualStyle
  3
ObjectDBX Classes
 90
     4095
 91
       24
280
     0
281
     0
  0
CLASS
  1
TABLESTYLE
  2
AcDbTableStyle
  3
ObjectDBX Classes
 90
     4095
 91
        1
280
     0
281
     0
  0
CLASS
  1
SCALE
  2
AcDbScale
  3
ObjectDBX Classes
 90
     1153
 91
       17
280
     0
281
     0
  0
CLASS
  1
MLEADERSTYLE
  2
AcDbMLeaderStyle
  3
ACDB_MLEADERSTYLE_CLASS
 90
     4095
 91
        1
280
     0
281
     0
  0
CLASS
  1
ACDBSECTIONVIEWSTYLE
  2
AcDbSectionViewStyle
  3
ObjectDBX Classes
 90
     1025
 91
        1
280
     0
281
     0
  0
CLASS
  1
ACDBDETAILVIEWSTYLE
  2
AcDbDetailViewStyle
  3
ObjectDBX Classes
 90
     1025
 91
        1
280
     0
281
     0
  0
CLASS
  1
MESH
  2
AcDbSubDMesh
  3
ObjectDBX Classes
 90
        0
 91
        1
280
     0
281
     1
  0
CLASS
  1
DICTIONARYVAR
  2
AcDbDictionaryVar
  3
ObjectDBX Classes
 90
        0
 91
        9
280
     0
281
     0
  0
CLASS
  1
CELLSTYLEMAP
  2
AcDbCellStyleMap
  3
ObjectDBX Classes
 90
     1152
 91
        1
280
     0
281
     0
  0
ENDSEC
  0
SECTION
  2
TABLES
  0
TABLE
  2
VPORT
  5
8
330
0
100
AcDbSymbolTable
 70
     1
  0
VPORT
  5
A8
330
8
100
AcDbSymbolTableRecord
100
AcDbViewportTableRecord
  2
*Active
 70
     0
 10
0.0
 20
0.0
 11
1.0
 21
1.0
 12
0.0
 22
24.49489784240723
 13
0.0
 23
0.0
 14
0.5
 24
0.5
 15
0.5
 25
0.5
 16
-1.0
 26
-1.0
 36
1.0
 17
0.0
 27
0.0
 37
0.0
 40
179.9999991569787
 41
1.154700546491227
 42
50.0
 43
0.0
 44
0.0
 50
0.0
 51
0.0
 71
     0
 72
   100
 73
     1
 74
     3
 75
     0
 76
     0
 77
     0
 78
     0
281
     0
 65
     1
110
0.0
120
0.0
130
0.0
111
1.0
121
0.0
131
0.0
112
0.0
122
1.0
132
0.0
 79
     0
146
0.0
348
C9
 60
     3
 61
     5
292
     1
282
     1
141
0.0
142
0.0
 63
   250
421
  3355443
  0
ENDTAB
  0
TABLE
  2
LTYPE
  5
5
330
0
100
AcDbSymbolTable
 70
     1
  0
LTYPE
  5
14
330
5
100
AcDbSymbolTableRecord
100
AcDbLinetypeTableRecord
  2
ByBlock
 70
     0
  3

 72
    65
 73
     0
 40
0.0
  0
LTYPE
  5
15
330
5
100
AcDbSymbolTableRecord
100
AcDbLinetypeTableRecord
  2
ByLayer
 70
     0
  3

 72
    65
 73
     0
 40
0.0
  0
LTYPE
  5
16
330
5
100
AcDbSymbolTableRecord
100
AcDbLinetypeTableRecord
  2
Continuous
 70
     0
  3
Solid line
 72
    65
 73
     0
 40
0.0
  0
ENDTAB
  0
TABLE
  2
LAYER
  5
2
330
0
100
AcDbSymbolTable
 70
     3
  0
LAYER
  5
10
330
2
100
AcDbSymbolTableRecord
100
AcDbLayerTableRecord
  2
0
 70
     0
 62
   153
420
  7507413
  6
Continuous
370
    -3
390
F
347
BB
  0
LAYER
  5
2B
330
2
100
AcDbSymbolTableRecord
100
AcDbLayerTableRecord
  2
ASHADE
 70
     4
 62
     7
  6
Continuous
370
    -3
390
2D
347
BB
  0
LAYER
  5
F9
330
2
100
AcDbSymbolTableRecord
100
AcDbLayerTableRecord
  2
Insert Point
 70
     0
 62
    41
420
 16768895
  6
Continuous
370
    -3
390
F
347
BB
  0
ENDTAB
  0
TABLE
  2
STYLE
  5
3
330
0
100
AcDbSymbolTable
 70
     2
  0
STYLE
  5
11
330
3
100
AcDbSymbolTableRecord
100
AcDbTextStyleTableRecord
  2
Standard
 70
     0
 40
0.0
 41
1.0
 50
0.0
 71
     0
 42
0.2
  3
txt
  4

  0
STYLE
  5
2C
330
3
100
AcDbSymbolTableRecord
100
AcDbTextStyleTableRecord
  2
ASHADE
 70
     0
 40
0.2
 41
1.0
 50
0.0
 71
     0
 42
0.2
  3
simplex
  4

  0
ENDTAB
  0
TABLE
  2
VIEW
  5
6
330
0
100
AcDbSymbolTable
 70
     0
  0
ENDTAB
  0
TABLE
  2
UCS
  5
7
330
0
100
AcDbSymbolTable
 70
     0
  0
ENDTAB
  0
TABLE
  2
APPID
  5
9
330
0
100
AcDbSymbolTable
 70
     6
  0
APPID
  5
12
330
9
100
AcDbSymbolTableRecord
100
AcDbRegAppTableRecord
  2
ACAD
 70
     0
  0
APPID
  5
8F
330
9
100
AcDbSymbolTableRecord
100
AcDbRegAppTableRecord
  2
AVE_RENDER
 70
     0
  0
APPID
  5
90
330
9
100
AcDbSymbolTableRecord
100
AcDbRegAppTableRecord
  2
AVE_ENTITY_MATERIAL
 70
     0
  0
APPID
  5
9C
330
9
100
AcDbSymbolTableRecord
100
AcDbRegAppTableRecord
  2
AVE_FINISH
 70
     0
  0
APPID
  5
9D
330
9
100
AcDbSymbolTableRecord
100
AcDbRegAppTableRecord
  2
AVE_MATERIAL
 70
     0
  0
APPID
  5
9E
330
9
100
AcDbSymbolTableRecord
100
AcDbRegAppTableRecord
  2
AVE_GLOBAL
 70
     0
  0
ENDTAB
  0
TABLE
  2
DIMSTYLE
  5
A
330
0
100
AcDbSymbolTable
 70
     1
100
AcDbDimStyleTable
 71
     0
  0
DIMSTYLE
105
27
330
A
100
AcDbSymbolTableRecord
100
AcDbDimStyleTableRecord
  2
Standard
 70
     0
340
11
  0
ENDTAB
  0
TABLE
  2
BLOCK_RECORD
  5
1
330
0
100
AcDbSymbolTable
 70
     6
  0
BLOCK_RECORD
  5
1F
330
1
100
AcDbSymbolTableRecord
100
AcDbBlockTableRecord
  2
*Model_Space
340
22
 70
     0
280
     1
281
     0
  0
BLOCK_RECORD
  5
1B
330
1
100
AcDbSymbolTableRecord
100
AcDbBlockTableRecord
  2
*Paper_Space
340
1E
 70
     0
280
     1
281
     0
  0
BLOCK_RECORD
  5
23
330
1
100
AcDbSymbolTableRecord
100
AcDbBlockTableRecord
  2
*Paper_Space0
340
26
 70
     0
280
     1
281
     0
  0
BLOCK_RECORD
  5
2E
330
1
100
AcDbSymbolTableRecord
100
AcDbBlockTableRecord
  2
direct
340
0
 70
     0
280
     1
281
     0
  0
BLOCK_RECORD
  5
42
330
1
100
AcDbSymbolTableRecord
100
AcDbBlockTableRecord
  2
overhead
340
0
 70
     0
280
     1
281
     0
  0
BLOCK_RECORD
  5
5F
330
1
100
AcDbSymbolTableRecord
100
AcDbBlockTableRecord
  2
sh_spot
340
0
 70
     0
280
     1
281
     0
  0
BLOCK_RECORD
  5
91
330
1
100
AcDbSymbolTableRecord
100
AcDbBlockTableRecord
  2
AVE_RENDER
340
0
102
{BLKREFS
331
94
331
95
331
96
331
97
331
98
331
99
331
9A
331
9B
102
}
 70
     0
280
     1
281
     0
  0
BLOCK_RECORD
  5
9F
330
1
100
AcDbSymbolTableRecord
100
AcDbBlockTableRecord
  2
AVE_GLOBAL
340
0
102
{BLKREFS
331
A2
102
}
 70
     0
280
     1
281
     0
  0
ENDTAB
  0
ENDSEC
  0
SECTION
  2
BLOCKS
  0
BLOCK
  5
20
330
1F
100
AcDbEntity
  8
0
100
AcDbBlockBegin
  2
*Model_Space
 70
     0
 10
0.0
 20
0.0
 30
0.0
  3
*Model_Space
  1

  0
ENDBLK
  5
21
330
1F
100
AcDbEntity
  8
0
100
AcDbBlockEnd
  0
BLOCK
  5
1C
330
1B
100
AcDbEntity
 67
     1
  8
0
100
AcDbBlockBegin
  2
*Paper_Space
 70
     0
 10
0.0
 20
0.0
 30
0.0
  3
*Paper_Space
  1

  0
ENDBLK
  5
1D
330
1B
100
AcDbEntity
 67
     1
  8
0
100
AcDbBlockEnd
  0
BLOCK
  5
24
330
23
100
AcDbEntity
 67
     1
  8
0
100
AcDbBlockBegin
  2
*Paper_Space0
 70
     0
 10
0.0
 20
0.0
 30
0.0
  3
*Paper_Space0
  1

  0
ENDBLK
  5
25
330
23
100
AcDbEntity
 67
     1
  8
0
100
AcDbBlockEnd
  0
BLOCK
  5
40
330
2E
100
AcDbEntity
  8
0
100
AcDbBlockBegin
  2
direct
 70
     2
 10
0.0
 20
0.0
 30
0.0
  3
direct
  1

  0
ATTDEF
  5
2F
330
2E
100
AcDbEntity
  8
ASHADE
  6
Continuous
 62
     1
100
AcDbText
 10
0.0
 20
-0.1
 30
0.0
 40
0.2
  1

  7
ASHADE
 72
     1
 11
0.0
 21
-0.1
 31
0.0
100
AcDbAttributeDefinition
280
     0
  3
Light Name
  2
SNAME
 70
     0
280
     0
  0
ARC
  5
30
330
2E
100
AcDbEntity
  8
ASHADE
  6
Continuous
 62
     7
100
AcDbCircle
 10
0.0
 20
0.0
 30
0.0
 40
0.3
100
AcDbArc
 50
205.6792886194569
 51
334.3207113805431
  0
ARC
  5
31
330
2E
100
AcDbEntity
  8
ASHADE
  6
Continuous
 62
     7
100
AcDbCircle
 10
0.0
 20
0.0
 30
0.0
 40
0.3
100
AcDbArc
 50
25.67928861945685
 51
154.3207113805431
  0
LINE
  5
32
330
2E
100
AcDbEntity
  8
ASHADE
  6
Continuous
 62
     7
100
AcDbLine
 10
-0.21
 20
0.2142428528562855
 30
0.0
 11
-0.21
 21
0.5
 31
0.0
  0
LINE
  5
33
330
2E
100
AcDbEntity
  8
ASHADE
  6
Continuous
 62
     7
100
AcDbLine
 10
-0.11
 20
0.2791057147390572
 30
0.0
 11
-0.11
 21
0.5
 31
0.0
  0
LINE
  5
34
330
2E
100
AcDbEntity
  8
ASHADE
  6
Continuous
 62
     7
100
AcDbLine
 10
0.21
 20
0.2142428528562855
 30
0.0
 11
0.21
 21
0.5
 31
0.0
  0
ATTDEF
  5
35
330
2E
100
AcDbEntity
  8
ASHADE
  6
Continuous
 62
     7
100
AcDbText
 10
0.0
 20
0.25
 30
0.0
 40
0.01
  1

100
AcDbAttributeDefinition
280
     0
  3
Look-at Y
  2
LAY
 70
     1
280
     0
  0
ATTDEF
  5
36
330
2E
100
AcDbEntity
  8
ASHADE
  6
Continuous
 62
     7
100
AcDbText
 10
0.0
 20
0.22
 30
0.0
 40
0.01
  1
1
100
AcDbAttributeDefinition
280
     0
  3
Light Intensity
  2
INTENSITY
 70
     1
280
     0
  0
ATTDEF
  5
37
330
2E
100
AcDbEntity
  8
ASHADE
  6
Continuous
 62
     7
100
AcDbText
 10
0.0
 20
0.16
 30
0.0
 40
0.01
  1
-1
100
AcDbAttributeDefinition
280
     0
  3
*not used*
  2
BEAMD
 70
     1
280
     0
  0
ATTDEF
  5
38
330
2E
100
AcDbEntity
  8
ASHADE
  6
Continuous
 62
     7
100
AcDbText
 10
0.0
 20
0.175
 30
0.0
 40
0.01
  1
-1
100
AcDbAttributeDefinition
280
     0
  3
*not used*
  2
CONED
 70
     1
280
     0
  0
ATTDEF
  5
39
330
2E
100
AcDbEntity
  8
ASHADE
  6
Continuous
 62
     7
100
AcDbText
 10
0.0
 20
0.19
 30
0.0
 40
0.01
  1
0
100
AcDbAttributeDefinition
280
     0
  3
Depth Map Size
  2
CONEA
 70
     1
280
     0
  0
ATTDEF
  5
3A
330
2E
100
AcDbEntity
  8
ASHADE
  6
Continuous
 62
     7
100
AcDbText
 10
0.0
 20
0.2050000000000001
 30
0.0
 40
0.01
  1
1,1,1
100
AcDbAttributeDefinition
280
     0
  3
Light Color (RGB)
  2
COLOR
 70
     1
280
     0
  0
ATTDEF
  5
3B
330
2E
100
AcDbEntity
  8
ASHADE
  6
Continuous
 62
     7
100
AcDbText
 10
0.0
 20
0.235
 30
0.0
 40
0.01
  1

100
AcDbAttributeDefinition
280
     0
  3
Look-at Z
  2
LAZ
 70
     1
280
     0
  0
LINE
  5
3C
330
2E
100
AcDbEntity
  8
ASHADE
  6
Continuous
 62
     7
100
AcDbLine
 10
0.0
 20
0.3
 30
0.0
 11
0.0
 21
0.5
 31
0.0
  0
LINE
  5
3D
330
2E
100
AcDbEntity
  8
ASHADE
  6
Continuous
 62
     7
100
AcDbLine
 10
0.11
 20
0.2791057147390572
 30
0.0
 11
0.11
 21
0.5
 31
0.0
  0
ATTDEF
  5
3E
330
2E
100
AcDbEntity
  8
ASHADE
  6
Continuous
 62
     7
100
AcDbText
 10
0.0
 20
0.265
 30
0.0
 40
0.01
  1

100
AcDbAttributeDefinition
280
     0
  3
Look-at X
  2
LAX
 70
     1
280
     0
  0
ATTDEF
  5
3F
330
2E
100
AcDbEntity
  8
ASHADE
  6
Continuous
 62
     7
100
AcDbText
 10
0.0
 20
0.28
 30
0.0
 40
0.01
  1

100
AcDbAttributeDefinition
280
     0
  3

  2
GNAME
 70
     1
280
     0
  0
ENDBLK
  5
41
330
2E
100
AcDbEntity
  8
0
100
AcDbBlockEnd
  0
BLOCK
  5
5D
330
42
100
AcDbEntity
  8
0
100
AcDbBlockBegin
  2
overhead
 70
     2
 10
0.0
 20
0.0
 30
0.0
  3
overhead
  1

  0
ATTDEF
  5
43
330
42
100
AcDbEntity
  8
ASHADE
  6
Continuous
 62
     1
100
AcDbText
 10
0.0
 20
-0.1
 30
0.0
 40
0.2
  1

  7
ASHADE
 72
     1
 11
0.0
 21
-0.1
 31
0.0
100
AcDbAttributeDefinition
280
     0
  3
Light Name
  2
SNAME
 70
     0
280
     0
  0
ARC
  5
44
330
42
100
AcDbEntity
  8
ASHADE
  6
Continuous
 62
     7
100
AcDbCircle
 10
0.0
 20
0.0
 30
0.0
 40
0.3
100
AcDbArc
 50
205.6792886194569
 51
334.3207113805431
  0
LINE
  5
45
330
42
100
AcDbEntity
  8
ASHADE
  6
Continuous
 62
     7
100
AcDbLine
 10
-0.2041413561583015
 20
-0.2198324514393848
 30
0.0
 11
-0.2721884748777353
 21
-0.2931099352525131
 31
0.0
  0
LINE
  5
46
330
42
100
AcDbEntity
  8
ASHADE
  6
Continuous
 62
     7
100
AcDbLine
 10
-0.1096591641591904
 20
-0.2792398032442862
 30
0.0
 11
-0.1279356915190555
 21
-0.3257797704516673
 31
0.0
  0
LINE
  5
47
330
42
100
AcDbEntity
  8
ASHADE
  6
Continuous
 62
     7
100
AcDbLine
 10
0.0
 20
-0.2999999999999999
 30
0.0
 11
0.0
 21
-0.4
 31
0.0
  0
LINE
  5
48
330
42
100
AcDbEntity
  8
ASHADE
  6
Continuous
 62
     7
100
AcDbLine
 10
0.1096591641591904
 20
-0.2792398032442862
 30
0.0
 11
0.1279356915190555
 21
-0.3257797704516673
 31
0.0
  0
LINE
  5
49
330
42
100
AcDbEntity
  8
ASHADE
  6
Continuous
 62
     7
100
AcDbLine
 10
0.2041413561583015
 20
-0.2198324514393848
 30
0.0
 11
0.2721884748777353
 21
-0.2931099352525131
 31
0.0
  0
ARC
  5
4A
330
42
100
AcDbEntity
  8
ASHADE
  6
Continuous
 62
     7
100
AcDbCircle
 10
0.0
 20
0.0
 30
0.0
 40
0.3
100
AcDbArc
 50
25.67928861945685
 51
154.3207113805431
  0
LINE
  5
4B
330
42
100
AcDbEntity
  8
ASHADE
  6
Continuous
 62
     7
100
AcDbLine
 10
-0.2703701166919155
 20
0.13
 30
0.0
 11
-0.3154318028072347
 21
0.1516666666666666
 31
0.0
  0
LINE
  5
4C
330
42
100
AcDbEntity
  8
ASHADE
  6
Continuous
 62
     7
100
AcDbLine
 10
-0.2703701166919155
 20
-0.13
 30
0.0
 11
-0.3154318028072347
 21
-0.1516666666666666
 31
0.0
  0
LINE
  5
4D
330
42
100
AcDbEntity
  8
ASHADE
  6
Continuous
 62
     7
100
AcDbLine
 10
-0.2041413561583015
 20
0.2198324514393849
 30
0.0
 11
-0.2721884748777353
 21
0.2931099352525131
 31
0.0
  0
LINE
  5
4E
330
42
100
AcDbEntity
  8
ASHADE
  6
Continuous
 62
     7
100
AcDbLine
 10
-0.1096591641591904
 20
0.2792398032442862
 30
0.0
 11
-0.1279356915190555
 21
0.3257797704516674
 31
0.0
  0
LINE
  5
4F
330
42
100
AcDbEntity
  8
ASHADE
  6
Continuous
 62
     7
100
AcDbLine
 10
0.2703701166919155
 20
-0.13
 30
0.0
 11
0.3154318028072347
 21
-0.1516666666666666
 31
0.0
  0
LINE
  5
50
330
42
100
AcDbEntity
  8
ASHADE
  6
Continuous
 62
     7
100
AcDbLine
 10
0.2703701166919155
 20
0.13
 30
0.0
 11
0.3154318028072347
 21
0.1516666666666666
 31
0.0
  0
LINE
  5
51
330
42
100
AcDbEntity
  8
ASHADE
  6
Continuous
 62
     7
100
AcDbLine
 10
0.0
 20
0.3
 30
0.0
 11
0.0
 21
0.4
 31
0.0
  0
ATTDEF
  5
52
330
42
100
AcDbEntity
  8
ASHADE
  6
Continuous
 62
     7
100
AcDbText
 10
0.0
 20
0.22
 30
0.0
 40
0.01
  1
1
100
AcDbAttributeDefinition
280
     0
  3
Light Intensity
  2
INTENSITY
 70
     1
280
     0
  0
ATTDEF
  5
53
330
42
100
AcDbEntity
  8
ASHADE
  6
Continuous
 62
     7
100
AcDbText
 10
0.0
 20
0.16
 30
0.0
 40
0.01
  1
-1
100
AcDbAttributeDefinition
280
     0
  3
*not used*
  2
BEAMD
 70
     1
280
     0
  0
ATTDEF
  5
54
330
42
100
AcDbEntity
  8
ASHADE
  6
Continuous
 62
     7
100
AcDbText
 10
0.0
 20
0.175
 30
0.0
 40
0.01
  1
-1
100
AcDbAttributeDefinition
280
     0
  3
*not used*
  2
CONED
 70
     1
280
     0
  0
ATTDEF
  5
55
330
42
100
AcDbEntity
  8
ASHADE
  6
Continuous
 62
     7
100
AcDbText
 10
0.0
 20
0.19
 30
0.0
 40
0.01
  1
0
100
AcDbAttributeDefinition
280
     0
  3
Depth Map Size
  2
CONEA
 70
     1
280
     0
  0
ATTDEF
  5
56
330
42
100
AcDbEntity
  8
ASHADE
  6
Continuous
 62
     7
100
AcDbText
 10
0.0
 20
0.2050000000000001
 30
0.0
 40
0.01
  1
1,1,1
100
AcDbAttributeDefinition
280
     0
  3
Light Color (RGB)
  2
COLOR
 70
     1
280
     0
  0
ATTDEF
  5
57
330
42
100
AcDbEntity
  8
ASHADE
  6
Continuous
 62
     7
100
AcDbText
 10
0.0
 20
0.235
 30
0.0
 40
0.01
  1

100
AcDbAttributeDefinition
280
     0
  3
Look-at Z
  2
LAZ
 70
     1
280
     0
  0
ATTDEF
  5
58
330
42
100
AcDbEntity
  8
ASHADE
  6
Continuous
 62
     7
100
AcDbText
 10
0.0
 20
0.25
 30
0.0
 40
0.01
  1

100
AcDbAttributeDefinition
280
     0
  3
Look-at Y
  2
LAY
 70
     1
280
     0
  0
ATTDEF
  5
59
330
42
100
AcDbEntity
  8
ASHADE
  6
Continuous
 62
     7
100
AcDbText
 10
0.0
 20
0.265
 30
0.0
 40
0.01
  1

100
AcDbAttributeDefinition
280
     0
  3
Look-at X
  2
LAX
 70
     1
280
     0
  0
ATTDEF
  5
5A
330
42
100
AcDbEntity
  8
ASHADE
  6
Continuous
 62
     7
100
AcDbText
 10
0.0
 20
0.28
 30
0.0
 40
0.01
  1

100
AcDbAttributeDefinition
280
     0
  3

  2
GNAME
 70
     1
280
     0
  0
LINE
  5
5B
330
42
100
AcDbEntity
  8
ASHADE
  6
Continuous
 62
     7
100
AcDbLine
 10
0.1096591641591904
 20
0.2792398032442862
 30
0.0
 11
0.1279356915190555
 21
0.3257797704516674
 31
0.0
  0
LINE
  5
5C
330
42
100
AcDbEntity
  8
ASHADE
  6
Continuous
 62
     7
100
AcDbLine
 10
0.2041413561583015
 20
0.2198324514393849
 30
0.0
 11
0.2721884748777353
 21
0.2931099352525131
 31
0.0
  0
ENDBLK
  5
5E
330
42
100
AcDbEntity
  8
0
100
AcDbBlockEnd
  0
BLOCK
  5
85
330
5F
100
AcDbEntity
  8
0
100
AcDbBlockBegin
  2
sh_spot
 70
     2
 10
0.0
 20
0.0
 30
0.0
  3
sh_spot
  1

  0
LINE
  5
60
330
5F
100
AcDbEntity
  8
ASHADE
  6
Continuous
 62
     7
100
AcDbLine
 10
0.25
 20
0.26
 30
0.0
 11
-0.25
 21
0.26
 31
0.0
  0
LINE
  5
61
330
5F
100
AcDbEntity
  8
ASHADE
  6
Continuous
 62
     7
100
AcDbLine
 10
-0.25
 20
-0.3399999999999999
 30
0.0
 11
0.25
 21
-0.3399999999999999
 31
0.0
  0
ATTDEF
  5
62
330
5F
100
AcDbEntity
  8
ASHADE
  6
Continuous
 62
     1
100
AcDbText
 10
0.0
 20
-0.1
 30
0.0
 40
0.2
  1

  7
ASHADE
 72
     1
 11
0.0
 21
-0.1
 31
0.0
100
AcDbAttributeDefinition
280
     0
  3
Light Name
  2
SNAME
 70
     0
280
     0
  0
LINE
  5
63
330
5F
100
AcDbEntity
  8
ASHADE
  6
Continuous
 62
     7
100
AcDbLine
 10
-0.25
 20
-0.13
 30
0.0
 11
-0.25
 21
-0.3399999999999999
 31
0.0
  0
LINE
  5
64
330
5F
100
AcDbEntity
  8
ASHADE
  6
Continuous
 62
     7
100
AcDbLine
 10
-0.25
 20
-0.18
 30
0.0
 11
-0.29
 21
-0.18
 31
0.0
  0
LINE
  5
65
330
5F
100
AcDbEntity
  8
ASHADE
  6
Continuous
 62
     7
100
AcDbLine
 10
-0.29
 20
-0.22
 30
0.0
 11
-0.25
 21
-0.22
 31
0.0
  0
LINE
  5
66
330
5F
100
AcDbEntity
  8
ASHADE
  6
Continuous
 62
     7
100
AcDbLine
 10
-0.29
 20
-0.18
 30
0.0
 11
-0.29
 21
-0.22
 31
0.0
  0
LINE
  5
67
330
5F
100
AcDbEntity
  8
ASHADE
  6
Continuous
 62
     7
100
AcDbLine
 10
-0.1045454545454545
 20
0.26
 30
0.0
 11
-0.15
 21
0.46
 31
0.0
  0
LINE
  5
68
330
5F
100
AcDbEntity
  8
ASHADE
  6
Continuous
 62
     7
100
AcDbLine
 10
-0.21
 20
0.26
 30
0.0
 11
-0.301304347826087
 21
0.46
 31
0.0
  0
LINE
  5
69
330
5F
100
AcDbEntity
  8
ASHADE
  6
Continuous
 62
     7
100
AcDbLine
 10
-0.25
 20
0.26
 30
0.0
 11
-0.25
 21
0.13
 31
0.0
  0
LINE
  5
6A
330
5F
100
AcDbEntity
  8
ASHADE
  6
Continuous
 62
     7
100
AcDbLine
 10
-0.25
 20
0.22
 30
0.0
 11
-0.29
 21
0.22
 31
0.0
  0
LINE
  5
6B
330
5F
100
AcDbEntity
  8
ASHADE
  6
Continuous
 62
     7
100
AcDbLine
 10
-0.29
 20
0.1799999999999999
 30
0.0
 11
-0.25
 21
0.1799999999999999
 31
0.0
  0
LINE
  5
6C
330
5F
100
AcDbEntity
  8
ASHADE
  6
Continuous
 62
     7
100
AcDbLine
 10
-0.29
 20
0.22
 30
0.0
 11
-0.29
 21
0.1799999999999999
 31
0.0
  0
ATTDEF
  5
6D
330
5F
100
AcDbEntity
  8
ASHADE
  6
Continuous
 62
     7
100
AcDbText
 10
0.0
 20
-0.24
 30
0.0
 40
0.01
  1
0
100
AcDbAttributeDefinition
280
     0
  3
Depth Map Size
  2
ZSIZE
 70
     1
280
     0
  0
ATTDEF
  5
6E
330
5F
100
AcDbEntity
  8
ASHADE
  6
Continuous
 62
     7
100
AcDbText
 10
0.0
 20
-0.3300000000000001
 30
0.0
 40
0.01
  1
0,0,0
100
AcDbAttributeDefinition
280
     0
  3
Look-from XYZ
  2
LFXYZ
 70
     1
280
     0
  0
ATTDEF
  5
6F
330
5F
100
AcDbEntity
  8
ASHADE
  6
Continuous
 62
     7
100
AcDbText
 10
0.0
 20
-0.315
 30
0.0
 40
0.01
  1
0.0
100
AcDbAttributeDefinition
280
     0
  3
Beam Distribution
  2
BEAMDI
 70
     1
280
     0
  0
ATTDEF
  5
70
330
5F
100
AcDbEntity
  8
ASHADE
  6
Continuous
 62
     7
100
AcDbText
 10
0.0
 20
-0.3
 30
0.0
 40
0.01
  1
0.0
100
AcDbAttributeDefinition
280
     0
  3
Cone Delta
  2
CONEDE
 70
     1
280
     0
  0
ATTDEF
  5
71
330
5F
100
AcDbEntity
  8
ASHADE
  6
Continuous
 62
     7
100
AcDbText
 10
0.0
 20
-0.2850000000000001
 30
0.0
 40
0.01
  1
10.0
100
AcDbAttributeDefinition
280
     0
  3
Cone Angle
  2
CONEAN
 70
     1
280
     0
  0
ATTDEF
  5
72
330
5F
100
AcDbEntity
  8
ASHADE
  6
Continuous
 62
     7
100
AcDbText
 10
0.0
 20
-0.27
 30
0.0
 40
0.01
  1
-1
100
AcDbAttributeDefinition
280
     0
  3
*not used*
  2
BIASMAX
 70
     1
280
     0
  0
ATTDEF
  5
73
330
5F
100
AcDbEntity
  8
ASHADE
  6
Continuous
 62
     7
100
AcDbText
 10
0.0
 20
-0.255
 30
0.0
 40
0.01
  1
-1
100
AcDbAttributeDefinition
280
     0
  3
*not used*
  2
BIASMIN
 70
     1
280
     0
  0
ATTDEF
  5
74
330
5F
100
AcDbEntity
  8
ASHADE
  6
Continuous
 62
     7
100
AcDbText
 10
0.0
 20
-0.225
 30
0.0
 40
0.01
  1
1,1,1
100
AcDbAttributeDefinition
280
     0
  3
Light Color (RGB)
  2
COLOR
 70
     1
280
     0
  0
ATTDEF
  5
75
330
5F
100
AcDbEntity
  8
ASHADE
  6
Continuous
 62
     7
100
AcDbText
 10
0.0
 20
-0.21
 30
0.0
 40
0.01
  1
1
100
AcDbAttributeDefinition
280
     0
  3
Light Intensity
  2
INTENSITY
 70
     1
280
     0
  0
ATTDEF
  5
76
330
5F
100
AcDbEntity
  8
ASHADE
  6
Continuous
 62
     7
100
AcDbText
 10
0.0
 20
-0.15
 30
0.0
 40
0.01
  1

100
AcDbAttributeDefinition
280
     0
  3

  2
GNAME
 70
     1
280
     0
  0
ATTDEF
  5
77
330
5F
100
AcDbEntity
  8
ASHADE
  6
Continuous
 62
     7
100
AcDbText
 10
0.0
 20
-0.195
 30
0.0
 40
0.01
  1

100
AcDbAttributeDefinition
280
     0
  3
Look-at Z
  2
LAZ
 70
     1
280
     0
  0
ATTDEF
  5
78
330
5F
100
AcDbEntity
  8
ASHADE
  6
Continuous
 62
     7
100
AcDbText
 10
0.0
 20
-0.18
 30
0.0
 40
0.01
  1

100
AcDbAttributeDefinition
280
     0
  3
Look-at Y
  2
LAY
 70
     1
280
     0
  0
ATTDEF
  5
79
330
5F
100
AcDbEntity
  8
ASHADE
  6
Continuous
 62
     7
100
AcDbText
 10
0.0
 20
-0.165
 30
0.0
 40
0.01
  1

100
AcDbAttributeDefinition
280
     0
  3
Look-at X
  2
LAX
 70
     1
280
     0
  0
LINE
  5
7A
330
5F
100
AcDbEntity
  8
ASHADE
  6
Continuous
 62
     7
100
AcDbLine
 10
0.25
 20
-0.3399999999999999
 30
0.0
 11
0.25
 21
-0.13
 31
0.0
  0
LINE
  5
7B
330
5F
100
AcDbEntity
  8
ASHADE
  6
Continuous
 62
     7
100
AcDbLine
 10
0.25
 20
-0.18
 30
0.0
 11
0.29
 21
-0.18
 31
0.0
  0
LINE
  5
7C
330
5F
100
AcDbEntity
  8
ASHADE
  6
Continuous
 62
     7
100
AcDbLine
 10
0.29
 20
-0.22
 30
0.0
 11
0.25
 21
-0.22
 31
0.0
  0
LINE
  5
7D
330
5F
100
AcDbEntity
  8
ASHADE
  6
Continuous
 62
     7
100
AcDbLine
 10
0.29
 20
-0.18
 30
0.0
 11
0.29
 21
-0.22
 31
0.0
  0
LINE
  5
7E
330
5F
100
AcDbEntity
  8
ASHADE
  6
Continuous
 62
     7
100
AcDbLine
 10
0.21
 20
0.26
 30
0.0
 11
0.301304347826087
 21
0.46
 31
0.0
  0
LINE
  5
7F
330
5F
100
AcDbEntity
  8
ASHADE
  6
Continuous
 62
     7
100
AcDbLine
 10
0.1045454545454545
 20
0.26
 30
0.0
 11
0.15
 21
0.46
 31
0.0
  0
LINE
  5
80
330
5F
100
AcDbEntity
  8
ASHADE
  6
Continuous
 62
     7
100
AcDbLine
 10
0.0
 20
0.26
 30
0.0
 11
0.0
 21
0.46
 31
0.0
  0
LINE
  5
81
330
5F
100
AcDbEntity
  8
ASHADE
  6
Continuous
 62
     7
100
AcDbLine
 10
0.25
 20
0.13
 30
0.0
 11
0.25
 21
0.26
 31
0.0
  0
LINE
  5
82
330
5F
100
AcDbEntity
  8
ASHADE
  6
Continuous
 62
     7
100
AcDbLine
 10
0.25
 20
0.22
 30
0.0
 11
0.29
 21
0.22
 31
0.0
  0
LINE
  5
83
330
5F
100
AcDbEntity
  8
ASHADE
  6
Continuous
 62
     7
100
AcDbLine
 10
0.29
 20
0.1799999999999999
 30
0.0
 11
0.25
 21
0.1799999999999999
 31
0.0
  0
LINE
  5
84
330
5F
100
AcDbEntity
  8
ASHADE
  6
Continuous
 62
     7
100
AcDbLine
 10
0.29
 20
0.22
 30
0.0
 11
0.29
 21
0.1799999999999999
 31
0.0
  0
ENDBLK
  5
86
330
5F
100
AcDbEntity
  8
0
100
AcDbBlockEnd
  0
BLOCK
  5
92
330
91
100
AcDbEntity
  8
ASHADE
100
AcDbBlockBegin
  2
AVE_RENDER
 70
     0
 10
0.0
 20
0.0
 30
0.0
  3
AVE_RENDER
  1
AVE_RENDER
  0
ENDBLK
  5
93
330
91
100
AcDbEntity
  8
0
100
AcDbBlockEnd
  0
BLOCK
  5
A0
330
9F
100
AcDbEntity
  8
ASHADE
100
AcDbBlockBegin
  2
AVE_GLOBAL
 70
     0
 10
0.0
 20
0.0
 30
0.0
  3
AVE_GLOBAL
  1
AVE_GLOBAL
  0
ENDBLK
  5
A1
330
9F
100
AcDbEntity
  8
0
100
AcDbBlockEnd
  0
ENDSEC
  0
SECTION
  2
ENTITIES
  0
INSERT
  5
94
330
1F
100
AcDbEntity
  8
ASHADE
 62
     1
100
AcDbBlockReference
  2
AVE_RENDER
 10
0.0
 20
0.0
 30
0.0
1001
AVE_RENDER
1002
{
1070
     7
1000
Pref
1070
    30
1070
    20
1070
     1
1070
     0
1000

1070
    10
1070
     1
1070
    10
1040
1.0
1070
     1
1040
0.3
1040
0.7
1040
0.0
1040
10.0
1010
-1.0
1020
-1.0
1030
-1.0
1040
0.3
1070
    49
1070
     0
1070
     0
1010
1.0
1020
1.0
1030
1.0
1040
45.0
1070
     1
1070
     0
1000
WCS
1040
0.0
1070
     0
1040
10.0
1002
}
  0
INSERT
  5
95
330
1F
100
AcDbEntity
  8
ASHADE
 62
     3
100
AcDbBlockReference
  2
AVE_RENDER
 10
0.0
 20
0.0
 30
0.0
1001
AVE_RENDER
1002
{
1070
     0
1000
Full Opt
1070
     0
1070
     1
1070
     1
1070
     1
1070
     0
1070
     0
1070
     0
1070
     1
1070
     1
1040
0.0001
1040
0.0001
1002
}
  0
INSERT
  5
96
330
1F
100
AcDbEntity
  8
ASHADE
 62
     4
100
AcDbBlockReference
  2
AVE_RENDER
 10
0.0
 20
0.0
 30
0.0
1001
AVE_RENDER
1002
{
1070
     0
1000
Quick Opt
1070
     0
1070
     1
1070
     1
1070
     1
1070
     0
1070
     0
1070
     1
1002
}
  0
INSERT
  5
97
330
1F
100
AcDbEntity
  8
ASHADE
 62
     5
100
AcDbBlockReference
  2
AVE_RENDER
 10
0.0
 20
0.0
 30
0.0
1001
AVE_RENDER
1002
{
1070
     1
1000
Scanl Opt
1070
     2
1070
     0
1070
     2
1040
2.0
1040
4.0
1070
     0
1070
     1
1070
     0
1040
0.03
1002
}
  0
INSERT
  5
98
330
1F
100
AcDbEntity
  8
ASHADE
 62
     6
100
AcDbBlockReference
  2
AVE_RENDER
 10
0.0
 20
0.0
 30
0.0
1001
AVE_RENDER
1002
{
1070
     2
1000
Raytr Opt
1070
     2
1070
     0
1070
     2
1040
2.0
1040
4.0
1070
     0
1070
     1
1070
     1
1040
0.03
1070
     3
1040
0.03
1002
}
  0
INSERT
  5
99
330
1F
100
AcDbEntity
  8
ASHADE
 62
     7
100
AcDbBlockReference
  2
AVE_RENDER
 10
0.0
 20
0.0
 30
0.0
1001
AVE_RENDER
1002
{
1070
     0
1000
RFile Opt
1070
     1
1070
   640
1070
   480
1070
 10000
1070
     1
1070
     8
1070
     8
1070
     0
1070
     0
1070
     0
1070
     0
1070
     0
1070
     0
1070
     0
1002
}
  0
INSERT
  5
9A
330
1F
100
AcDbEntity
  8
ASHADE
 62
     8
100
AcDbBlockReference
  2
AVE_RENDER
 10
0.0
 20
0.0
 30
0.0
1001
AVE_RENDER
1002
{
1070
     0
1000
Fog Opt
1070
     0
1070
     0
1040
0.0
1040
1.0
1040
0.0
1040
1.0
1010
0.5
1020
0.5
1030
0.5
1002
}
  0
INSERT
  5
9B
330
1F
100
AcDbEntity
  8
ASHADE
 62
     9
100
AcDbBlockReference
  2
AVE_RENDER
 10
0.0
 20
0.0
 30
0.0
1001
AVE_RENDER
1002
{
1070
     0
1000
BG Opt
1070
     0
1070
     1
1010
0.0
1020
0.0
1030
0.0
1010
1.0
1020
0.0
1030
0.0
1010
0.0
1020
1.0
1030
0.0
1010
0.0
1020
0.0
1030
1.0
1040
0.5
1040
0.33
1040
0.0
1000

1070
     1
1000

1070
     1
1070
     1
1040
1.0
1040
1.0
1040
0.0
1040
0.0
1070
     0
1002
}
  0
INSERT
  5
A2
330
1F
100
AcDbEntity
  8
ASHADE
 62
     1
100
AcDbBlockReference
  2
AVE_GLOBAL
 10
0.0
 20
0.0
 30
0.0
1001
AVE_MATERIAL
1002
{
1000
*GLOBAL*
1000
2
1000
Global finish.
1002
{
1002
}
1002
{
1070
    63
1002
{
1002
{
1010
-1.0
1020
-1.0
1030
-1.0
1002
}
1040
0.1000000014901161
1000

1040
0.0
1002
{
1002
}
1040
0.0
1002
{
1002
}
1040
0.0
1002
}
1002
{
1002
{
1010
-1.0
1020
-1.0
1030
-1.0
1002
}
1040
0.6999999880790711
1000

1040
0.0
1002
{
1002
}
1040
0.0
1002
{
1002
}
1040
0.0
1002
}
1002
{
1002
{
1010
-1.0
1020
-1.0
1030
-1.0
1002
}
1040
0.2000000029802322
1000

1040
0.0
1002
{
1002
}
1040
0.0
1002
{
1002
}
1040
0.0
1002
}
1002
{
1070
     0
1002
{
1070
     1
1002
{
1040
1.0
1040
1.0
1000

1040
0.0
1002
{
1002
}
1040
0.0
1002
{
1002
}
1040
0.0
1002
}
1002
}
1040
1.0
1040
0.0
1040
0.0
1002
}
1002
{
1040
1.0
1040
1.0
1000

1040
0.0
1002
{
1002
}
1040
0.0
1002
{
1002
}
1040
0.0
1002
}
1002
{
1040
0.5
1040
1.0
1000

1040
0.0
1002
{
1002
}
1040
0.0
1002
{
1002
}
1040
0.0
1002
}
1002
{
1070
     0
1040
0.0
1002
{
1002
}
1040
1.0
1002
{
1002
}
1040
0.0
1002
}
1002
{
1040
0.0
1002
{
1002
{
1010
0.0
1020
0.0
1030
0.0
1002
}
1040
1.0
1000

1040
0.0
1002
{
1002
}
1040
0.0
1002
{
1002
}
1040
0.0
1002
}
1002
}
1002
{
1002
{
1070
     1
1002
{
1040
0.0
1040
1.0
1000

1040
0.0
1002
{
1002
}
1040
0.0
1002
{
1002
}
1040
0.0
1002
}
1002
}
1040
0.0
1002
{
1002
}
1010
1.0
1020
0.0
1030
0.0
1010
0.0
1020
1.0
1030
0.0
1010
0.0
1020
0.0
1030
1.0
1070
     0
1002
}
1002
{
1002
{
1040
1.0
1040
1.0
1002
{
1070
     1
1002
{
1040
1.0
1040
1.0
1000

1040
0.0
1002
{
1002
}
1040
0.0
1002
{
1002
}
1040
0.0
1002
}
1002
}
1002
}
1070
     0
1040
0.0
1002
{
1002
}
1002
}
1002
{
1002
}
1002
}
1002
{
1071
        3
1070
     3
1070
     0
1002
{
1070
     2
1070
     0
1070
     0
1040
0.0
1002
}
1070
     0
1070
     2
1002
{
1002
}
1002
}
1002
{
1040
8030.0
1040
190.3000030517578
1040
0.3050000071525574
1040
228.0
1040
545.0
1040
14.0
1040
17.39999961853027
1040
0.4560000002384186
1002
}
1002
}
  0
POLYLINE
  5
FA
330
1F
100
AcDbEntity
  8
Insert Point
100
AcDb2dPolyline
 66
     1
 10
0.0
 20
0.0
 30
0.0
 70
     1
  0
VERTEX
  5
FB
330
FA
100
AcDbEntity
  8
Insert Point
100
AcDbVertex
100
AcDb2dVertex
 10
60.0
 20
0.0
 30
0.0
  0
VERTEX
  5
FC
330
FA
100
AcDbEntity
  8
Insert Point
100
AcDbVertex
100
AcDb2dVertex
 10
59.92184066772461
 20
3.084959983825683
 30
0.0
  0
VERTEX
  5
FD
330
FA
100
AcDbEntity
  8
Insert Point
100
AcDbVertex
100
AcDb2dVertex
 10
59.68989562988281
 20
6.129721641540527
 30
0.0
  0
VERTEX
  5
FE
330
FA
100
AcDbEntity
  8
Insert Point
100
AcDbVertex
100
AcDb2dVertex
 10
59.30794906616211
 20
9.130498886108398
 30
0.0
  0
VERTEX
  5
FF
330
FA
100
AcDbEntity
  8
Insert Point
100
AcDbVertex
100
AcDb2dVertex
 10
58.77978515625
 20
12.08350372314453
 30
0.0
  0
VERTEX
  5
100
330
FA
100
AcDbEntity
  8
Insert Point
100
AcDbVertex
100
AcDb2dVertex
 10
58.10919189453125
 20
14.98495101928711
 30
0.0
  0
VERTEX
  5
101
330
FA
100
AcDbEntity
  8
Insert Point
100
AcDbVertex
100
AcDb2dVertex
 10
57.29995346069336
 20
17.83105659484863
 30
0.0
  0
VERTEX
  5
102
330
FA
100
AcDbEntity
  8
Insert Point
100
AcDbVertex
100
AcDb2dVertex
 10
56.35585784912109
 20
20.61802864074707
 30
0.0
  0
VERTEX
  5
103
330
FA
100
AcDbEntity
  8
Insert Point
100
AcDbVertex
100
AcDb2dVertex
 10
55.28069686889648
 20
23.34208679199219
 30
0.0
  0
VERTEX
  5
104
330
FA
100
AcDbEntity
  8
Insert Point
100
AcDbVertex
100
AcDb2dVertex
 10
54.07824325561524
 20
25.99944305419922
 30
0.0
  0
VERTEX
  5
105
330
FA
100
AcDbEntity
  8
Insert Point
100
AcDbVertex
100
AcDb2dVertex
 10
52.7522964477539
 20
28.58630752563477
 30
0.0
  0
VERTEX
  5
106
330
FA
100
AcDbEntity
  8
Insert Point
100
AcDbVertex
100
AcDb2dVertex
 10
51.30663681030274
 20
31.09889793395996
 30
0.0
  0
VERTEX
  5
107
330
FA
100
AcDbEntity
  8
Insert Point
100
AcDbVertex
100
AcDb2dVertex
 10
49.74505615234375
 20
33.53342437744141
 30
0.0
  0
VERTEX
  5
108
330
FA
100
AcDbEntity
  8
Insert Point
100
AcDbVertex
100
AcDb2dVertex
 10
48.07133102416992
 20
35.88610458374024
 30
0.0
  0
VERTEX
  5
109
330
FA
100
AcDbEntity
  8
Insert Point
100
AcDbVertex
100
AcDb2dVertex
 10
46.28925323486328
 20
38.15314865112305
 30
0.0
  0
VERTEX
  5
10A
330
FA
100
AcDbEntity
  8
Insert Point
100
AcDbVertex
100
AcDb2dVertex
 10
44.40261077880859
 20
40.33077239990234
 30
0.0
  0
VERTEX
  5
10B
330
FA
100
AcDbEntity
  8
Insert Point
100
AcDbVertex
100
AcDb2dVertex
 10
42.41518783569335
 20
42.41518783569335
 30
0.0
  0
VERTEX
  5
10C
330
FA
100
AcDbEntity
  8
Insert Point
100
AcDbVertex
100
AcDb2dVertex
 10
40.33077239990234
 20
44.40261077880859
 30
0.0
  0
VERTEX
  5
10D
330
FA
100
AcDbEntity
  8
Insert Point
100
AcDbVertex
100
AcDb2dVertex
 10
38.15314483642578
 20
46.28925704956055
 30
0.0
  0
VERTEX
  5
10E
330
FA
100
AcDbEntity
  8
Insert Point
100
AcDbVertex
100
AcDb2dVertex
 10
35.88610076904297
 20
48.07133102416992
 30
0.0
  0
VERTEX
  5
10F
330
FA
100
AcDbEntity
  8
Insert Point
100
AcDbVertex
100
AcDb2dVertex
 10
33.53342056274414
 20
49.74505615234375
 30
0.0
  0
VERTEX
  5
110
330
FA
100
AcDbEntity
  8
Insert Point
100
AcDbVertex
100
AcDb2dVertex
 10
31.09889602661133
 20
51.30663681030274
 30
0.0
  0
VERTEX
  5
111
330
FA
100
AcDbEntity
  8
Insert Point
100
AcDbVertex
100
AcDb2dVertex
 10
28.58630752563477
 20
52.75230026245117
 30
0.0
  0
VERTEX
  5
112
330
FA
100
AcDbEntity
  8
Insert Point
100
AcDbVertex
100
AcDb2dVertex
 10
25.99943923950196
 20
54.0782470703125
 30
0.0
  0
VERTEX
  5
113
330
FA
100
AcDbEntity
  8
Insert Point
100
AcDbVertex
100
AcDb2dVertex
 10
23.34208488464355
 20
55.28069686889648
 30
0.0
  0
VERTEX
  5
114
330
FA
100
AcDbEntity
  8
Insert Point
100
AcDbVertex
100
AcDb2dVertex
 10
20.61802673339844
 20
56.35586166381836
 30
0.0
  0
VERTEX
  5
115
330
FA
100
AcDbEntity
  8
Insert Point
100
AcDbVertex
100
AcDb2dVertex
 10
17.83105278015137
 20
57.29995727539062
 30
0.0
  0
VERTEX
  5
116
330
FA
100
AcDbEntity
  8
Insert Point
100
AcDbVertex
100
AcDb2dVertex
 10
14.98494911193847
 20
58.10919189453125
 30
0.0
  0
VERTEX
  5
117
330
FA
100
AcDbEntity
  8
Insert Point
100
AcDbVertex
100
AcDb2dVertex
 10
12.08350086212158
 20
58.77978515625
 30
0.0
  0
VERTEX
  5
118
330
FA
100
AcDbEntity
  8
Insert Point
100
AcDbVertex
100
AcDb2dVertex
 10
9.130496025085449
 20
59.30794906616211
 30
0.0
  0
VERTEX
  5
119
330
FA
100
AcDbEntity
  8
Insert Point
100
AcDbVertex
100
AcDb2dVertex
 10
6.129718780517578
 20
59.68989944458008
 30
0.0
  0
VERTEX
  5
11A
330
FA
100
AcDbEntity
  8
Insert Point
100
AcDbVertex
100
AcDb2dVertex
 10
3.084957361221313
 20
59.92184448242188
 30
0.0
  0
VERTEX
  5
11B
330
FA
100
AcDbEntity
  8
Insert Point
100
AcDbVertex
100
AcDb2dVertex
 10
-0.0000026226832688
 20
60.0
 30
0.0
  0
VERTEX
  5
11C
330
FA
100
AcDbEntity
  8
Insert Point
100
AcDbVertex
100
AcDb2dVertex
 10
-3.084962844848632
 20
59.92184066772461
 30
0.0
  0
VERTEX
  5
11D
330
FA
100
AcDbEntity
  8
Insert Point
100
AcDbVertex
100
AcDb2dVertex
 10
-6.129724025726318
 20
59.68989562988281
 30
0.0
  0
VERTEX
  5
11E
330
FA
100
AcDbEntity
  8
Insert Point
100
AcDbVertex
100
AcDb2dVertex
 10
-9.130500793457031
 20
59.30794906616211
 30
0.0
  0
VERTEX
  5
11F
330
FA
100
AcDbEntity
  8
Insert Point
100
AcDbVertex
100
AcDb2dVertex
 10
-12.08350563049316
 20
58.77978515625
 30
0.0
  0
VERTEX
  5
120
330
FA
100
AcDbEntity
  8
Insert Point
100
AcDbVertex
100
AcDb2dVertex
 10
-14.98495578765869
 20
58.10919189453125
 30
0.0
  0
VERTEX
  5
121
330
FA
100
AcDbEntity
  8
Insert Point
100
AcDbVertex
100
AcDb2dVertex
 10
-17.8310604095459
 20
57.29995346069336
 30
0.0
  0
VERTEX
  5
122
330
FA
100
AcDbEntity
  8
Insert Point
100
AcDbVertex
100
AcDb2dVertex
 10
-20.61803436279297
 20
56.35585784912109
 30
0.0
  0
VERTEX
  5
123
330
FA
100
AcDbEntity
  8
Insert Point
100
AcDbVertex
100
AcDb2dVertex
 10
-23.34209060668945
 20
55.28069686889648
 30
0.0
  0
VERTEX
  5
124
330
FA
100
AcDbEntity
  8
Insert Point
100
AcDbVertex
100
AcDb2dVertex
 10
-25.99944686889648
 20
54.07824325561524
 30
0.0
  0
VERTEX
  5
125
330
FA
100
AcDbEntity
  8
Insert Point
100
AcDbVertex
100
AcDb2dVertex
 10
-28.58631134033203
 20
52.7522964477539
 30
0.0
  0
VERTEX
  5
126
330
FA
100
AcDbEntity
  8
Insert Point
100
AcDbVertex
100
AcDb2dVertex
 10
-31.09889984130859
 20
51.30663681030274
 30
0.0
  0
VERTEX
  5
127
330
FA
100
AcDbEntity
  8
Insert Point
100
AcDbVertex
100
AcDb2dVertex
 10
-33.53342819213867
 20
49.74505615234375
 30
0.0
  0
VERTEX
  5
128
330
FA
100
AcDbEntity
  8
Insert Point
100
AcDbVertex
100
AcDb2dVertex
 10
-35.8861083984375
 20
48.07133102416992
 30
0.0
  0
VERTEX
  5
129
330
FA
100
AcDbEntity
  8
Insert Point
100
AcDbVertex
100
AcDb2dVertex
 10
-38.15315246582031
 20
46.28925323486328
 30
0.0
  0
VERTEX
  5
12A
330
FA
100
AcDbEntity
  8
Insert Point
100
AcDbVertex
100
AcDb2dVertex
 10
-40.33077621459961
 20
44.40261077880859
 30
0.0
  0
VERTEX
  5
12B
330
FA
100
AcDbEntity
  8
Insert Point
100
AcDbVertex
100
AcDb2dVertex
 10
-42.41519165039062
 20
42.41518783569335
 30
0.0
  0
VERTEX
  5
12C
330
FA
100
AcDbEntity
  8
Insert Point
100
AcDbVertex
100
AcDb2dVertex
 10
-44.40261459350586
 20
40.33077239990234
 30
0.0
  0
VERTEX
  5
12D
330
FA
100
AcDbEntity
  8
Insert Point
100
AcDbVertex
100
AcDb2dVertex
 10
-46.28926086425781
 20
38.15314483642578
 30
0.0
  0
VERTEX
  5
12E
330
FA
100
AcDbEntity
  8
Insert Point
100
AcDbVertex
100
AcDb2dVertex
 10
-48.07133483886719
 20
35.88610076904297
 30
0.0
  0
VERTEX
  5
12F
330
FA
100
AcDbEntity
  8
Insert Point
100
AcDbVertex
100
AcDb2dVertex
 10
-49.74505615234375
 20
33.53342056274414
 30
0.0
  0
VERTEX
  5
130
330
FA
100
AcDbEntity
  8
Insert Point
100
AcDbVertex
100
AcDb2dVertex
 10
-51.30664443969727
 20
31.0988941192627
 30
0.0
  0
VERTEX
  5
131
330
FA
100
AcDbEntity
  8
Insert Point
100
AcDbVertex
100
AcDb2dVertex
 10
-52.75230026245117
 20
28.58630561828613
 30
0.0
  0
VERTEX
  5
132
330
FA
100
AcDbEntity
  8
Insert Point
100
AcDbVertex
100
AcDb2dVertex
 10
-54.0782470703125
 20
25.99943923950196
 30
0.0
  0
VERTEX
  5
133
330
FA
100
AcDbEntity
  8
Insert Point
100
AcDbVertex
100
AcDb2dVertex
 10
-55.28070068359375
 20
23.34208488464355
 30
0.0
  0
VERTEX
  5
134
330
FA
100
AcDbEntity
  8
Insert Point
100
AcDbVertex
100
AcDb2dVertex
 10
-56.35586547851563
 20
20.61802673339844
 30
0.0
  0
VERTEX
  5
135
330
FA
100
AcDbEntity
  8
Insert Point
100
AcDbVertex
100
AcDb2dVertex
 10
-57.29995727539062
 20
17.83105278015137
 30
0.0
  0
VERTEX
  5
136
330
FA
100
AcDbEntity
  8
Insert Point
100
AcDbVertex
100
AcDb2dVertex
 10
-58.10919570922852
 20
14.98494815826416
 30
0.0
  0
VERTEX
  5
137
330
FA
100
AcDbEntity
  8
Insert Point
100
AcDbVertex
100
AcDb2dVertex
 10
-58.77978897094727
 20
12.08349895477295
 30
0.0
  0
VERTEX
  5
138
330
FA
100
AcDbEntity
  8
Insert Point
100
AcDbVertex
100
AcDb2dVertex
 10
-59.30795288085938
 20
9.130494117736816
 30
0.0
  0
VERTEX
  5
139
330
FA
100
AcDbEntity
  8
Insert Point
100
AcDbVertex
100
AcDb2dVertex
 10
-59.68989944458008
 20
6.129716873168945
 30
0.0
  0
VERTEX
  5
13A
330
FA
100
AcDbEntity
  8
Insert Point
100
AcDbVertex
100
AcDb2dVertex
 10
-59.92184448242188
 20
3.084954977035522
 30
0.0
  0
VERTEX
  5
13B
330
FA
100
AcDbEntity
  8
Insert Point
100
AcDbVertex
100
AcDb2dVertex
 10
-60.0
 20
-0.0000052453665376
 30
0.0
  0
VERTEX
  5
13C
330
FA
100
AcDbEntity
  8
Insert Point
100
AcDbVertex
100
AcDb2dVertex
 10
-59.92184066772461
 20
-3.084964990615844
 30
0.0
  0
VERTEX
  5
13D
330
FA
100
AcDbEntity
  8
Insert Point
100
AcDbVertex
100
AcDb2dVertex
 10
-59.68989562988281
 20
-6.129726409912109
 30
0.0
  0
VERTEX
  5
13E
330
FA
100
AcDbEntity
  8
Insert Point
100
AcDbVertex
100
AcDb2dVertex
 10
-59.30794906616211
 20
-9.130502700805664
 30
0.0
  0
VERTEX
  5
13F
330
FA
100
AcDbEntity
  8
Insert Point
100
AcDbVertex
100
AcDb2dVertex
 10
-58.77978515625
 20
-12.08350849151611
 30
0.0
  0
VERTEX
  5
140
330
FA
100
AcDbEntity
  8
Insert Point
100
AcDbVertex
100
AcDb2dVertex
 10
-58.10919189453125
 20
-14.98495674133301
 30
0.0
  0
VERTEX
  5
141
330
FA
100
AcDbEntity
  8
Insert Point
100
AcDbVertex
100
AcDb2dVertex
 10
-57.29995727539062
 20
-17.8310604095459
 30
0.0
  0
VERTEX
  5
142
330
FA
100
AcDbEntity
  8
Insert Point
100
AcDbVertex
100
AcDb2dVertex
 10
-56.35585784912109
 20
-20.61803436279297
 30
0.0
  0
VERTEX
  5
143
330
FA
100
AcDbEntity
  8
Insert Point
100
AcDbVertex
100
AcDb2dVertex
 10
-55.28069686889648
 20
-23.34209060668945
 30
0.0
  0
VERTEX
  5
144
330
FA
100
AcDbEntity
  8
Insert Point
100
AcDbVertex
100
AcDb2dVertex
 10
-54.07824325561524
 20
-25.99944305419922
 30
0.0
  0
VERTEX
  5
145
330
FA
100
AcDbEntity
  8
Insert Point
100
AcDbVertex
100
AcDb2dVertex
 10
-52.7522964477539
 20
-28.58631134033203
 30
0.0
  0
VERTEX
  5
146
330
FA
100
AcDbEntity
  8
Insert Point
100
AcDbVertex
100
AcDb2dVertex
 10
-51.306640625
 20
-31.09889984130859
 30
0.0
  0
VERTEX
  5
147
330
FA
100
AcDbEntity
  8
Insert Point
100
AcDbVertex
100
AcDb2dVertex
 10
-49.74504852294922
 20
-33.53342819213867
 30
0.0
  0
VERTEX
  5
148
330
FA
100
AcDbEntity
  8
Insert Point
100
AcDbVertex
100
AcDb2dVertex
 10
-48.07132720947265
 20
-35.8861083984375
 30
0.0
  0
VERTEX
  5
149
330
FA
100
AcDbEntity
  8
Insert Point
100
AcDbVertex
100
AcDb2dVertex
 10
-46.28925323486328
 20
-38.15315246582031
 30
0.0
  0
VERTEX
  5
14A
330
FA
100
AcDbEntity
  8
Insert Point
100
AcDbVertex
100
AcDb2dVertex
 10
-44.40261077880859
 20
-40.33077621459961
 30
0.0
  0
VERTEX
  5
14B
330
FA
100
AcDbEntity
  8
Insert Point
100
AcDbVertex
100
AcDb2dVertex
 10
-42.41518783569335
 20
-42.41519165039062
 30
0.0
  0
VERTEX
  5
14C
330
FA
100
AcDbEntity
  8
Insert Point
100
AcDbVertex
100
AcDb2dVertex
 10
-40.33077239990234
 20
-44.40261077880859
 30
0.0
  0
VERTEX
  5
14D
330
FA
100
AcDbEntity
  8
Insert Point
100
AcDbVertex
100
AcDb2dVertex
 10
-38.15314483642578
 20
-46.28925704956055
 30
0.0
  0
VERTEX
  5
14E
330
FA
100
AcDbEntity
  8
Insert Point
100
AcDbVertex
100
AcDb2dVertex
 10
-35.88610076904297
 20
-48.07133483886719
 30
0.0
  0
VERTEX
  5
14F
330
FA
100
AcDbEntity
  8
Insert Point
100
AcDbVertex
100
AcDb2dVertex
 10
-33.53342437744141
 20
-49.74505615234375
 30
0.0
  0
VERTEX
  5
150
330
FA
100
AcDbEntity
  8
Insert Point
100
AcDbVertex
100
AcDb2dVertex
 10
-31.09889602661133
 20
-51.306640625
 30
0.0
  0
VERTEX
  5
151
330
FA
100
AcDbEntity
  8
Insert Point
100
AcDbVertex
100
AcDb2dVertex
 10
-28.58630752563477
 20
-52.75230026245117
 30
0.0
  0
VERTEX
  5
152
330
FA
100
AcDbEntity
  8
Insert Point
100
AcDbVertex
100
AcDb2dVertex
 10
-25.99944114685059
 20
-54.0782470703125
 30
0.0
  0
VERTEX
  5
153
330
FA
100
AcDbEntity
  8
Insert Point
100
AcDbVertex
100
AcDb2dVertex
 10
-23.34208679199219
 20
-55.28069686889648
 30
0.0
  0
VERTEX
  5
154
330
FA
100
AcDbEntity
  8
Insert Point
100
AcDbVertex
100
AcDb2dVertex
 10
-20.61802864074707
 20
-56.35586166381836
 30
0.0
  0
VERTEX
  5
155
330
FA
100
AcDbEntity
  8
Insert Point
100
AcDbVertex
100
AcDb2dVertex
 10
-17.83105659484863
 20
-57.29995727539062
 30
0.0
  0
VERTEX
  5
156
330
FA
100
AcDbEntity
  8
Insert Point
100
AcDbVertex
100
AcDb2dVertex
 10
-14.98495197296142
 20
-58.10919189453125
 30
0.0
  0
VERTEX
  5
157
330
FA
100
AcDbEntity
  8
Insert Point
100
AcDbVertex
100
AcDb2dVertex
 10
-12.08350276947021
 20
-58.77978515625
 30
0.0
  0
VERTEX
  5
158
330
FA
100
AcDbEntity
  8
Insert Point
100
AcDbVertex
100
AcDb2dVertex
 10
-9.130497932434082
 20
-59.30794906616211
 30
0.0
  0
VERTEX
  5
159
330
FA
100
AcDbEntity
  8
Insert Point
100
AcDbVertex
100
AcDb2dVertex
 10
-6.129721164703369
 20
-59.68989944458008
 30
0.0
  0
VERTEX
  5
15A
330
FA
100
AcDbEntity
  8
Insert Point
100
AcDbVertex
100
AcDb2dVertex
 10
-3.084959268569946
 20
-59.92184448242188
 30
0.0
  0
VERTEX
  5
15B
330
FA
100
AcDbEntity
  8
Insert Point
100
AcDbVertex
100
AcDb2dVertex
 10
0.0000007154928312
 20
-60.0
 30
0.0
  0
VERTEX
  5
15C
330
FA
100
AcDbEntity
  8
Insert Point
100
AcDbVertex
100
AcDb2dVertex
 10
3.08496069908142
 20
-59.92184066772461
 30
0.0
  0
VERTEX
  5
15D
330
FA
100
AcDbEntity
  8
Insert Point
100
AcDbVertex
100
AcDb2dVertex
 10
6.129722118377685
 20
-59.68989562988281
 30
0.0
  0
VERTEX
  5
15E
330
FA
100
AcDbEntity
  8
Insert Point
100
AcDbVertex
100
AcDb2dVertex
 10
9.130499839782714
 20
-59.30794906616211
 30
0.0
  0
VERTEX
  5
15F
330
FA
100
AcDbEntity
  8
Insert Point
100
AcDbVertex
100
AcDb2dVertex
 10
12.08350467681885
 20
-58.77978515625
 30
0.0
  0
VERTEX
  5
160
330
FA
100
AcDbEntity
  8
Insert Point
100
AcDbVertex
100
AcDb2dVertex
 10
14.98495197296142
 20
-58.10919189453125
 30
0.0
  0
VERTEX
  5
161
330
FA
100
AcDbEntity
  8
Insert Point
100
AcDbVertex
100
AcDb2dVertex
 10
17.83105659484863
 20
-57.29995727539062
 30
0.0
  0
VERTEX
  5
162
330
FA
100
AcDbEntity
  8
Insert Point
100
AcDbVertex
100
AcDb2dVertex
 10
20.61802864074707
 20
-56.35585784912109
 30
0.0
  0
VERTEX
  5
163
330
FA
100
AcDbEntity
  8
Insert Point
100
AcDbVertex
100
AcDb2dVertex
 10
23.34208679199219
 20
-55.28069686889648
 30
0.0
  0
VERTEX
  5
164
330
FA
100
AcDbEntity
  8
Insert Point
100
AcDbVertex
100
AcDb2dVertex
 10
25.99944305419922
 20
-54.07824325561524
 30
0.0
  0
VERTEX
  5
165
330
FA
100
AcDbEntity
  8
Insert Point
100
AcDbVertex
100
AcDb2dVertex
 10
28.58630752563477
 20
-52.7522964477539
 30
0.0
  0
VERTEX
  5
166
330
FA
100
AcDbEntity
  8
Insert Point
100
AcDbVertex
100
AcDb2dVertex
 10
31.09889793395996
 20
-51.306640625
 30
0.0
  0
VERTEX
  5
167
330
FA
100
AcDbEntity
  8
Insert Point
100
AcDbVertex
100
AcDb2dVertex
 10
33.53342437744141
 20
-49.74505615234375
 30
0.0
  0
VERTEX
  5
168
330
FA
100
AcDbEntity
  8
Insert Point
100
AcDbVertex
100
AcDb2dVertex
 10
35.88610458374024
 20
-48.07133102416992
 30
0.0
  0
VERTEX
  5
169
330
FA
100
AcDbEntity
  8
Insert Point
100
AcDbVertex
100
AcDb2dVertex
 10
38.15314865112305
 20
-46.28925323486328
 30
0.0
  0
VERTEX
  5
16A
330
FA
100
AcDbEntity
  8
Insert Point
100
AcDbVertex
100
AcDb2dVertex
 10
40.33077239990234
 20
-44.40261459350586
 30
0.0
  0
VERTEX
  5
16B
330
FA
100
AcDbEntity
  8
Insert Point
100
AcDbVertex
100
AcDb2dVertex
 10
42.41518783569335
 20
-42.41518783569335
 30
0.0
  0
VERTEX
  5
16C
330
FA
100
AcDbEntity
  8
Insert Point
100
AcDbVertex
100
AcDb2dVertex
 10
44.40261077880859
 20
-40.33077239990234
 30
0.0
  0
VERTEX
  5
16D
330
FA
100
AcDbEntity
  8
Insert Point
100
AcDbVertex
100
AcDb2dVertex
 10
46.28925704956055
 20
-38.15314865112305
 30
0.0
  0
VERTEX
  5
16E
330
FA
100
AcDbEntity
  8
Insert Point
100
AcDbVertex
100
AcDb2dVertex
 10
48.07133102416992
 20
-35.88610076904297
 30
0.0
  0
VERTEX
  5
16F
330
FA
100
AcDbEntity
  8
Insert Point
100
AcDbVertex
100
AcDb2dVertex
 10
49.74505615234375
 20
-33.53342437744141
 30
0.0
  0
VERTEX
  5
170
330
FA
100
AcDbEntity
  8
Insert Point
100
AcDbVertex
100
AcDb2dVertex
 10
51.30663681030274
 20
-31.09889602661133
 30
0.0
  0
VERTEX
  5
171
330
FA
100
AcDbEntity
  8
Insert Point
100
AcDbVertex
100
AcDb2dVertex
 10
52.75230026245117
 20
-28.58630752563477
 30
0.0
  0
VERTEX
  5
172
330
FA
100
AcDbEntity
  8
Insert Point
100
AcDbVertex
100
AcDb2dVertex
 10
54.0782470703125
 20
-25.99944114685059
 30
0.0
  0
VERTEX
  5
173
330
FA
100
AcDbEntity
  8
Insert Point
100
AcDbVertex
100
AcDb2dVertex
 10
55.28069686889648
 20
-23.34208679199219
 30
0.0
  0
VERTEX
  5
174
330
FA
100
AcDbEntity
  8
Insert Point
100
AcDbVertex
100
AcDb2dVertex
 10
56.35586166381836
 20
-20.6180305480957
 30
0.0
  0
VERTEX
  5
175
330
FA
100
AcDbEntity
  8
Insert Point
100
AcDbVertex
100
AcDb2dVertex
 10
57.29995727539062
 20
-17.83105659484863
 30
0.0
  0
VERTEX
  5
176
330
FA
100
AcDbEntity
  8
Insert Point
100
AcDbVertex
100
AcDb2dVertex
 10
58.10919189453125
 20
-14.98495197296142
 30
0.0
  0
VERTEX
  5
177
330
FA
100
AcDbEntity
  8
Insert Point
100
AcDbVertex
100
AcDb2dVertex
 10
58.77978515625
 20
-12.08350372314453
 30
0.0
  0
VERTEX
  5
178
330
FA
100
AcDbEntity
  8
Insert Point
100
AcDbVertex
100
AcDb2dVertex
 10
59.30794906616211
 20
-9.130498886108398
 30
0.0
  0
VERTEX
  5
179
330
FA
100
AcDbEntity
  8
Insert Point
100
AcDbVertex
100
AcDb2dVertex
 10
59.68989944458008
 20
-6.129721641540527
 30
0.0
  0
VERTEX
  5
17A
330
FA
100
AcDbEntity
  8
Insert Point
100
AcDbVertex
100
AcDb2dVertex
 10
59.92184448242188
 20
-3.084959983825683
 30
0.0
  0
SEQEND
  5
17B
330
FA
100
AcDbEntity
  8
Insert Point
  0
MESH
  5
17C
330
1F
100
AcDbEntity
  8
0
160
             38024
310
88940000200400000C00000013000000020000003C0000000600000002000000000000E085C00CC000000000000000C0000000C0CC6C3D40000000E085C00CC00000000000000000000000C0CC6C3D400C000000130000000A0000003C0000000600000002000000000000C0999910C000000000000000C00000000000803F
310
40000000E085C00CC00000000000000000000000C0CC6C3D400C00000013000000120000003C0000000600000002000000000000C0999910C000000000000000C00000000000803F40000000E085C00CC000000000000000C0000000C0CC6C3D400C000000130000001A0000003C0000000600000002000000000000E085C0
310
0CC00000000000000000000000C0CC6C3D40000000C0999910C000000000000000000000000000803F400C00000013000000220000003C0000000600000002000000000000C0999910C000000000000000C00000000000803F40000000C0999910C000000000000000000000000000803F400C000000130000002A0000003C
310
0000000600000002000000000000E085C00CC000000000000000C0000000C099C94040000000C0999910C000000000000000000000000000803F400C00000013000000320000003C0000000600000002000000000000C0999910C000000000000000C00000000000803F40000000E085C00CC000000000000000C0000000C0
310
99C940400C000000130000003A0000003C0000000600000002000000000000C0999910C000000000000000000000000000803F40000000E085C00CC00000000000000000000000C099C940400C00000013000000420000003C0000000600000002000000000000E085C00CC000000000000000C0000000C099C94040000000
310
E085C00CC00000000000000000000000C099C940400C000000130000004A0000003C0000000600000002000000000000C0999900C000000000000000C000000060088C4140000000E085C00CC00000000000000000000000C099C940400C00000013000000520000003C0000000600000002000000000000C0999900C00000
310
0000000000C000000060088C4140000000E085C00CC000000000000000C0000000C099C940400C000000130000005A0000003C0000000600000002000000000000E085C00CC00000000000000000000000C099C94040000000C0999900C0000000000000000000000060088C41400C00000013000000620000003C00000006
310
00000002000000000000C0999900C000000000000000C000000060088C4140000000C0999900C0000000000000000000000060088C41400C000000130000006A0000003C0000000600000002000000000000000000F03C00000000000000C00000004033D34140000000C0999900C0000000000000000000000060088C4140
310
0C00000013000000720000003C0000000600000002000000000000000000F03C00000000000000C00000004033D34140000000C0999900C000000000000000C000000060088C41400C000000130000007A0000003C0000000600000002000000000000C0999900C0000000000000000000000060088C4140000000000000F0
310
3C00000000000000000000004033D341400C00000013000000820000003C0000000600000002000000000000000000F03C00000000000000C00000004033D34140000000000000F03C00000000000000000000004033D341400C000000130000008A0000003C0000000600000002000000000000C099990040000000000000
310
00C000000060088C4140000000000000F03C00000000000000000000004033D341400C00000013000000920000003C0000000600000002000000000000C09999004000000000000000C000000060088C4140000000000000F03C00000000000000C00000004033D341400C000000130000009A0000003C0000000600000002
310
000000000000000000F03C00000000000000000000004033D34140000000C099990040000000000000000000000060088C41400C00000013000000A20000003C0000000600000002000000000000C09999004000000000000000C000000060088C4140000000C099990040000000000000000000000060088C41400C000000
310
13000000AA0000003C0000000600000002000000000000E085C00C4000000000000000C0000000C099C94040000000C099990040000000000000000000000060088C41400C00000013000000B20000003C0000000600000002000000000000E085C00C4000000000000000C0000000C099C94040000000C099990040000000
310
00000000C000000060088C41400C00000013000000BA0000003C0000000600000002000000000000C099990040000000000000000000000060088C4140000000E085C00C400000000000000000000000C099C940400C00000013000000C20000003C0000000600000002000000000000E085C00C4000000000000000C00000
310
00C099C94040000000E085C00C400000000000000000000000C099C940400C00000013000000CA0000003C0000000600000002000000000000C09999104000000000000000C00000000000803F40000000E085C00C400000000000000000000000C099C940400C00000013000000D20000003C000000060000000200000000
310
0000C09999104000000000000000C00000000000803F40000000E085C00C4000000000000000C0000000C099C940400C00000013000000DA0000003C0000000600000002000000000000C09999104000000000000000000000000000803F40000000E085C00C400000000000000000000000C099C940400C00000013000000
310
E20000003C0000000600000002000000000000C09999104000000000000000C00000000000803F40000000C09999104000000000000000000000000000803F400C00000013000000EA0000003C0000000600000002000000000000E085C00C4000000000000000C0000000C0CC6C3D40000000C09999104000000000000000
310
000000000000803F400C00000013000000F20000003C0000000600000002000000000000E085C00C4000000000000000C0000000C0CC6C3D40000000C09999104000000000000000C00000000000803F400C00000013000000FA0000003C0000000600000002000000000000C0999910400000000000000000000000000080
310
3F40000000E085C00C400000000000000000000000C0CC6C3D400C00000013000000020100003C0000000600000002000000000000E085C00C4000000000000000C0000000C0CC6C3D40000000E085C00C400000000000000000000000C0CC6C3D400C000000130000000A0100003C0000000600000002000000000000C099
310
99004000000000000000C000000060EFE73B40000000E085C00C400000000000000000000000C0CC6C3D400C00000013000000120100003C0000000600000002000000000000C09999004000000000000000C000000060EFE73B40000000E085C00C4000000000000000C0000000C0CC6C3D400C000000130000001A010000
310
3C0000000600000002000000000000E085C00C400000000000000000000000C0CC6C3D40000000C099990040000000000000000000000060EFE73B400C00000013000000220100003C0000000600000002000000000000C09999004000000000000000C000000060EFE73B40000000C0999900400000000000000000000000
310
60EFE73B400C000000130000002A0100003C0000000600000002000000000000000000F03C00000000000000C0000000C099593B40000000C099990040000000000000000000000060EFE73B400C00000013000000320100003C0000000600000002000000000000000000F03C00000000000000C0000000C099593B400000
310
00C09999004000000000000000C000000060EFE73B400C000000130000003A0100003C0000000600000002000000000000C099990040000000000000000000000060EFE73B40000000000000F03C0000000000000000000000C099593B400C00000013000000420100003C0000000600000002000000000000000000F03C00
310
000000000000C0000000C099593B40000000000000F03C0000000000000000000000C099593B400C000000130000004A0100003C0000000600000002000000000000C0999900C000000000000000C000000060EFE73B40000000000000F03C0000000000000000000000C099593B400C00000013000000520100003C000000
310
0600000002000000000000C0999900C000000000000000C000000060EFE73B40000000000000F03C00000000000000C0000000C099593B400C000000130000005A0100003C0000000600000002000000000000000000F03C0000000000000000000000C099593B40000000C0999900C0000000000000000000000060EFE73B
310
400C00000013000000620100003C0000000600000002000000000000C0999900C000000000000000C000000060EFE73B40000000C0999900C0000000000000000000000060EFE73B400C000000130000006A0100003C0000000600000002000000000000E085C00CC000000000000000C0000000C0CC6C3D40000000C09999
310
00C0000000000000000000000060EFE73B400C00000013000000720100003C0000000600000002000000000000E085C00CC000000000000000C0000000C0CC6C3D40000000C0999900C000000000000000C000000060EFE73B400C000000130000007A0100003C0000000600000002000000000000C0999900C00000000000
310
00000000000060EFE73B40000000E085C00CC00000000000000000000000C0CC6C3D400C00000013000000820100003C0000000600000002000000000000E0095B0DC000000000000000C0000000C0E0C7434000000040F52D10C00000000000000000000000C0324944400C000000130000008A0100003C00000006000000
310
02000000000000C0999910C000000000000000C00000000000C0444000000040F52D10C00000000000000000000000C0324944400C00000013000000920100003C0000000600000002000000000000C0999910C000000000000000C00000000000C04440000000E0095B0DC000000000000000C0000000C0E0C743400C0000
310
00130000009A0100003C000000060000000200000000000040F52D10C00000000000000000000000C03249444000000040470A10C00000000000000000000000E0CA4845400C00000013000000A20100003C0000000600000002000000000000C0999910C000000000000000C00000000000C0444000000040470A10C00000
310
000000000000000000E0CA4845400C00000013000000AA0100003C0000000600000002000000000000401FB90FC000000000000000C000000000AC5C454000000040470A10C00000000000000000000000E0CA4845400C00000013000000B20100003C0000000600000002000000000000C0999910C000000000000000C000
310
00000000C04440000000401FB90FC000000000000000C000000000AC5C45400C00000013000000BA0100003C0000000600000002000000000000E0856C0BC000000000000000C0000000C067EB454000000040470A10C00000000000000000000000E0CA4845400C00000013000000C20100003C0000000600000002000000
310
000000E0856C0BC000000000000000C0000000C067EB4540000000401FB90FC000000000000000C000000000AC5C45400C00000013000000CA0100003C000000060000000200000000000040470A10C00000000000000000000000E0CA48454000000000425F08C0000000000000000000000000B52846400C000000130000
310
00D20100003C0000000600000002000000000000E0856C0BC000000000000000C0000000C067EB454000000000425F08C0000000000000000000000000B52846400C00000013000000DA0100003C0000000600000002000000000000C052AF04C000000000000000C000000040805F464000000000425F08C0000000000000
310
000000000000B52846400C00000013000000E20100003C0000000600000002000000000000C052AF04C000000000000000C000000040805F4640000000E0856C0BC000000000000000C0000000C067EB45400C00000013000000EA0100003C000000060000000200000000000000425F08C0000000000000000000000000B5
310
2846400000000086A300C0000000000000000000000080AC8B46400C00000013000000F20100003C0000000600000002000000000000C052AF04C000000000000000C000000040805F46400000000086A300C0000000000000000000000080AC8B46400C00000013000000FA0100003C000000060000000200000000000000
310
0436F8BF00000000000000C000000040A1AE46400000000086A300C0000000000000000000000080AC8B46400C00000013000000020200003C0000000600000002000000000000000436F8BF00000000000000C000000040A1AE4640000000C052AF04C000000000000000C000000040805F46400C000000130000000A0200
310
003C00000006000000020000000000000086A300C0000000000000000000000080AC8B4640000000E04FB3EDBF0000000000000000000000C0BEC546400C00000013000000120200003C0000000600000002000000000000000436F8BF00000000000000C000000040A1AE4640000000E04FB3EDBF00000000000000000000
310
00C0BEC546400C000000130000001A0200003C000000060000000200000000000040D897D3BF00000000000000C0000000C0C0D14640000000E04FB3EDBF0000000000000000000000C0BEC546400C00000013000000220200003C000000060000000200000000000040D897D3BF00000000000000C0000000C0C0D1464000
310
0000000436F8BF00000000000000C000000040A1AE46400C000000130000002A0200003C0000000600000002000000000000E04FB3EDBF0000000000000000000000C0BEC5464000000040D897D33F0000000000000000000000C0C0D146400C00000013000000320200003C000000060000000200000000000040D897D3BF
310
00000000000000C0000000C0C0D1464000000040D897D33F0000000000000000000000C0C0D146400C000000130000003A0200003C0000000600000002000000000000E04FB3ED3F00000000000000C0000000C0BEC5464000000040D897D33F0000000000000000000000C0C0D146400C00000013000000420200003C0000
310
000600000002000000000000E04FB3ED3F00000000000000C0000000C0BEC5464000000040D897D3BF00000000000000C0000000C0C0D146400C000000130000004A0200003C000000060000000200000000000040D897D33F0000000000000000000000C0C0D14640000000000436F83F000000000000000000000040A1AE
310
46400C00000013000000520200003C0000000600000002000000000000E04FB3ED3F00000000000000C0000000C0BEC54640000000000436F83F000000000000000000000040A1AE46400C000000130000005A0200003C00000006000000020000000000000086A3004000000000000000C000000080AC8B46400000000004
310
36F83F000000000000000000000040A1AE46400C00000013000000620200003C00000006000000020000000000000086A3004000000000000000C000000080AC8B4640000000E04FB3ED3F00000000000000C0000000C0BEC546400C000000130000006A0200003C0000000600000002000000000000000436F83F00000000
310
0000000000000040A1AE4640000000C052AF0440000000000000000000000040805F46400C00000013000000720200003C00000006000000020000000000000086A3004000000000000000C000000080AC8B4640000000C052AF0440000000000000000000000040805F46400C000000130000007A0200003C000000060000
310
000200000000000000425F084000000000000000C000000000B5284640000000C052AF0440000000000000000000000040805F46400C00000013000000820200003C000000060000000200000000000000425F084000000000000000C000000000B52846400000000086A3004000000000000000C000000080AC8B46400C00
310
0000130000008A0200003C0000000600000002000000000000C052AF0440000000000000000000000040805F4640000000E0856C0B400000000000000000000000C067EB45400C00000013000000920200003C000000060000000200000000000000425F084000000000000000C000000000B5284640000000E0856C0B4000
310
00000000000000000000C067EB45400C000000130000009A0200003C000000060000000200000000000040470A104000000000000000C0000000E0CA484540000000E0856C0B400000000000000000000000C067EB45400C00000013000000A20200003C000000060000000200000000000040470A104000000000000000C0
310
000000E0CA48454000000000425F084000000000000000C000000000B52846400C00000013000000AA0200003C0000000600000002000000000000E0856C0B400000000000000000000000C067EB4540000000401FB90F40000000000000000000000000AC5C45400C00000013000000B20200003C00000006000000020000
310
0000000040470A104000000000000000C0000000E0CA484540000000401FB90F40000000000000000000000000AC5C45400C00000013000000BA0200003C0000000600000002000000000000C09999104000000000000000000000000000C04440000000401FB90F40000000000000000000000000AC5C45400C0000001300
310
0000C20200003C000000060000000200000000000040470A104000000000000000C0000000E0CA484540000000C09999104000000000000000000000000000C044400C00000013000000CA0200003C0000000600000002000000000000E0095B0DC000000000000000C0000000C0E0C7434000000040CF2409C00000000000
310
000000000000001E6543400C00000013000000D20200003C000000060000000200000000000040CF2409C00000000000000000000000001E65434000000040F52D10C00000000000000000000000C0324944400C00000013000000DA0200003C0000000600000002000000000000E0095B0DC000000000000000C0000000C0
310
E0C74340000000C079B602C000000000000000C0000000C0370943400C00000013000000E20200003C0000000600000002000000000000C079B602C000000000000000C0000000C03709434000000040CF2409C00000000000000000000000001E6543400C00000013000000EA0200003C0000000600000002000000000000
310
C079B602C000000000000000C0000000C037094340000000000436F8BF0000000000000000000000E05ED142400C00000013000000F20200003C0000000600000002000000000000000436F8BF0000000000000000000000E05ED1424000000040CF2409C00000000000000000000000001E6543400C00000013000000FA02
310
00003C0000000600000002000000000000C079B602C000000000000000C0000000C03709434000000040ECE3DDBF00000000000000C0000000C02CB042400C00000013000000020300003C000000060000000200000000000040ECE3DDBF00000000000000C0000000C02CB04240000000000436F8BF000000000000000000
310
0000E05ED142400C000000130000000A0300003C000000060000000200000000000040ECE3DDBF00000000000000C0000000C02CB0424000000040ECE3DD3F0000000000000000000000C02CB042400C00000013000000120300003C000000060000000200000000000040ECE3DD3F0000000000000000000000C02CB04240
310
000000000436F8BF0000000000000000000000E05ED142400C000000130000001A0300003C000000060000000200000000000040ECE3DDBF00000000000000C0000000C02CB04240000000000436F83F00000000000000C0000000E05ED142400C00000013000000220300003C0000000600000002000000000000000436F8
310
3F00000000000000C0000000E05ED1424000000040ECE3DD3F0000000000000000000000C02CB042400C000000130000002A0300003C0000000600000002000000000000000436F83F00000000000000C0000000E05ED14240000000C079B602400000000000000000000000C0370943400C00000013000000320300003C00
310
00000600000002000000000000C079B602400000000000000000000000C03709434000000040ECE3DD3F0000000000000000000000C02CB042400C000000130000003A0300003C0000000600000002000000000000000436F83F00000000000000C0000000E05ED1424000000040CF24094000000000000000C0000000001E
310
6543400C00000013000000420300003C000000060000000200000000000040CF24094000000000000000C0000000001E654340000000C079B602400000000000000000000000C0370943400C000000130000004A0300003C000000060000000200000000000040CF24094000000000000000C0000000001E654340000000E0
310
095B0D400000000000000000000000C0E0C743400C00000013000000520300003C0000000600000002000000000000E0095B0D400000000000000000000000C0E0C74340000000C079B602400000000000000000000000C0370943400C000000130000005A0300003C000000060000000200000000000040CF240940000000
310
00000000C0000000001E65434000000040F52D104000000000000000C0000000C0324944400C00000013000000620300003C000000060000000200000000000040F52D104000000000000000C0000000C032494440000000E0095B0D400000000000000000000000C0E0C743400C000000130000006A0300003C0000000600
310
00000200000000000040F52D104000000000000000C0000000C032494440000000C09999104000000000000000000000000000C044400C00000013000000720300003C0000000600000002000000000000C09999104000000000000000000000000000C04440000000E0095B0D400000000000000000000000C0E0C743400C
310
000000130000007A0300003C000000060000000200000000000040F52D104000000000000000C0000000C03249444000000040470A104000000000000000C0000000E0CA4845400C00000013000000820300003C000000060000000200000000000000373229C000000000008035C0000000000000004000000000373229C0
310
00000000008035C000000000000000000C000000130000008A0300003C00000006000000020000000000000000002AC000000000000034C0000000000000004000000000373229C000000000008035C000000000000000000C00000013000000920300003C00000006000000020000000000000000002AC000000000000034
310
C0000000000000004000000000373229C000000000008035C000000000000000400C000000130000009A0300003C000000060000000200000000000000373229C000000000008035C000000000000000000000000000002AC000000000000034C000000000000000000C00000013000000A20300003C000000060000000200
310
00000000000000002AC000000000000034C000000000000000400000000000002AC000000000000034C000000000000000000C00000013000000AA0300003C000000060000000200000000000000373229C000000000008032C000000000000000400000000000002AC000000000000034C000000000000000000C00000013
310
000000B20300003C00000006000000020000000000000000002AC000000000000034C0000000000000004000000000373229C000000000008032C000000000000000400C00000013000000BA0300003C00000006000000020000000000000000002AC000000000000034C0000000000000000000000000373229C000000000
310
008032C000000000000000000C00000013000000C20300003C000000060000000200000000000000373229C000000000008032C0000000000000004000000000373229C000000000008032C000000000000000000C00000013000000CA0300003C000000060000000200000000000000000027C000000080E46631C0000000
310
000000004000000000373229C000000000008032C000000000000000000C00000013000000D20300003C000000060000000200000000000000000027C000000080E46631C0000000000000004000000000373229C000000000008032C000000000000000400C00000013000000DA0300003C00000006000000020000000000
310
0000373229C000000000008032C0000000000000000000000000000027C000000080E46631C000000000000000000C00000013000000E20300003C000000060000000200000000000000000027C000000080E46631C0000000000000004000000000000027C000000080E46631C000000000000000000C00000013000000EA
310
0300003C000000060000000200000000000000000024C000000000000031C0000000000000004000000000000027C000000080E46631C000000000000000000C00000013000000F20300003C000000060000000200000000000000000024C000000000000031C0000000000000004000000000000027C000000080E46631C0
310
00000000000000400C00000013000000FA0300003C000000060000000200000000000000000027C000000080E46631C0000000000000000000000000000024C000000000000031C000000000000000000C00000013000000020400003C000000060000000200000000000000000024C000000000000031C000000000000000
310
4000000000000024C000000000000031C000000000000000000C000000130000000A0400003C000000060000000200000000000000000021C000000080E46631C0000000000000004000000000000024C000000000000031C000000000000000000C00000013000000120400003C0000000600000002000000000000000000
310
21C000000080E46631C0000000000000004000000000000024C000000000000031C000000000000000400C000000130000001A0400003C000000060000000200000000000000000024C000000000000031C0000000000000000000000000000021C000000080E46631C000000000000000000C00000013000000220400003C
310
000000060000000200000000000000000021C000000080E46631C0000000000000004000000000000021C000000080E46631C000000000000000000C000000130000002A0400003C0000000600000002000000000000E0919B1DC000000000008032C0000000000000004000000000000021C000000080E46631C000000000
310
000000000C00000013000000320400003C0000000600000002000000000000E0919B1DC000000000008032C0000000000000004000000000000021C000000080E46631C000000000000000400C000000130000003A0400003C000000060000000200000000000000000021C000000080E46631C00000000000000000000000
310
E0919B1DC000000000008032C000000000000000000C00000013000000420400003C0000000600000002000000000000E0919B1DC000000000008032C00000000000000040000000E0919B1DC000000000008032C000000000000000000C000000130000004A0400003C00000006000000020000000000000000001CC00000
310
0000000034C00000000000000040000000E0919B1DC000000000008032C000000000000000000C00000013000000520400003C00000006000000020000000000000000001CC000000000000034C00000000000000040000000E0919B1DC000000000008032C000000000000000400C000000130000005A0400003C00000006
310
000000020000000000000000001CC000000000000034C00000000000000000000000E0919B1DC000000000008032C000000000000000000C00000013000000620400003C00000006000000020000000000000000001CC000000000000034C000000000000000400000000000001CC000000000000034C00000000000000000
310
0C000000130000006A0400003C0000000600000002000000000000E0919B1DC000000000008035C000000000000000400000000000001CC000000000000034C000000000000000000C00000013000000720400003C0000000600000002000000000000E0919B1DC000000000008035C000000000000000400000000000001C
310
C000000000000034C000000000000000400C000000130000007A0400003C00000006000000020000000000000000001CC000000000000034C00000000000000000000000E0919B1DC000000000008035C000000000000000000C00000013000000820400003C0000000600000002000000000000E0919B1DC0000000000080
310
35C00000000000000040000000E0919B1DC000000000008035C000000000000000000C000000130000008A0400003C000000060000000200000000000000000021C0000000801B9936C00000000000000040000000E0919B1DC000000000008035C000000000000000000C00000013000000920400003C0000000600000002
310
00000000000000000021C0000000801B9936C00000000000000040000000E0919B1DC000000000008035C000000000000000400C000000130000009A0400003C0000000600000002000000000000E0919B1DC000000000008035C0000000000000000000000000000021C0000000801B9936C000000000000000000C000000
310
13000000A20400003C000000060000000200000000000000000021C0000000801B9936C0000000000000004000000000000021C0000000801B9936C000000000000000000C00000013000000AA0400003C000000060000000200000000000000000024C000000000000037C0000000000000004000000000000021C0000000
310
801B9936C000000000000000000C00000013000000B20400003C000000060000000200000000000000000024C000000000000037C0000000000000004000000000000021C0000000801B9936C000000000000000400C00000013000000BA0400003C000000060000000200000000000000000021C0000000801B9936C00000
310
00000000000000000000000024C000000000000037C000000000000000000C00000013000000C20400003C000000060000000200000000000000000024C000000000000037C0000000000000004000000000000024C000000000000037C000000000000000000C00000013000000CA0400003C000000060000000200000000
310
000000000027C0000000801B9936C0000000000000004000000000000024C000000000000037C000000000000000000C00000013000000D20400003C000000060000000200000000000000000027C0000000801B9936C0000000000000004000000000000024C000000000000037C000000000000000400C00000013000000
310
DA0400003C000000060000000200000000000000000024C000000000000037C0000000000000000000000000000027C0000000801B9936C000000000000000000C00000013000000E20400003C000000060000000200000000000000000027C0000000801B9936C0000000000000004000000000000027C0000000801B9936
310
C000000000000000000C00000013000000EA0400003C000000060000000200000000000000373229C000000000008035C0000000000000004000000000000027C0000000801B9936C000000000000000000C00000013000000F20400003C000000060000000200000000000000373229C000000000008035C0000000000000
310
004000000000000027C0000000801B9936C000000000000000400C00000013000000FA0400003C000000060000000200000000000000000027C0000000801B9936C0000000000000000000000000373229C000000000008035C000000000000000000C00000013000000020500003C00000006000000020000000000004073
310
5B0FC0000000E0065D35C00000000000000040000000402D5B10C0000000606DB534C000000000000000000C000000130000000A0500003C0000000600000002000000000000C0999910C000000000000034C00000000000000040000000402D5B10C0000000606DB534C000000000000000000C0000001300000012050000
310
3C0000000600000002000000000000C0999910C000000000000034C0000000000000004000000040735B0FC0000000E0065D35C000000000000000400C000000130000001A0500003C0000000600000002000000000000402D5B10C0000000606DB534C00000000000000000000000E0D27A10C0000000405F8033C0000000
310
00000000000C00000013000000220500003C0000000600000002000000000000C0999910C000000000000034C00000000000000040000000E0D27A10C0000000405F8033C000000000000000000C000000130000002A0500003C000000060000000200000000000080DCAB0FC00000000056C132C000000000000000400000
310
00E0D27A10C0000000405F8033C000000000000000000C00000013000000320500003C0000000600000002000000000000C0999910C000000000000034C0000000000000004000000080DCAB0FC00000000056C132C000000000000000400C000000130000003A0500003C0000000600000002000000000000E0D27A10C000
310
0000405F8033C00000000000000000000000C0706A0EC0000000801F5632C000000000000000000C00000013000000420500003C000000060000000200000000000080DCAB0FC00000000056C132C00000000000000040000000C0706A0EC0000000801F5632C000000000000000000C000000130000004A0500003C000000
310
0600000002000000000000E0E1390BC00000008004A031C00000000000000040000000C0706A0EC0000000801F5632C000000000000000000C00000013000000520500003C0000000600000002000000000000E0E1390BC00000008004A031C0000000000000004000000080DCAB0FC00000000056C132C000000000000000
310
400C000000130000005A0500003C0000000600000002000000000000C0706A0EC0000000801F5632C00000000000000000000000E0DF4B09C000000040F04F31C000000000000000000C00000013000000620500003C0000000600000002000000000000E0E1390BC00000008004A031C00000000000000040000000E0DF4B
310
09C000000040F04F31C000000000000000000C000000130000006A0500003C0000000600000002000000000000E00E4604C0000000E0AFB630C00000000000000040000000E0DF4B09C000000040F04F31C000000000000000000C00000013000000720500003C0000000600000002000000000000E00E4604C0000000E0AF
310
B630C00000000000000040000000E0E1390BC00000008004A031C000000000000000400C000000130000007A0500003C0000000600000002000000000000E0DF4B09C000000040F04F31C0000000000000000000000000A4AE01C000000040D17C30C000000000000000000C00000013000000820500003C00000006000000
310
02000000000000E00E4604C0000000E0AFB630C0000000000000004000000000A4AE01C000000040D17C30C000000000000000000C000000130000008A0500003C00000006000000020000000000006094E8F6BF000000E0D41A30C0000000000000004000000000A4AE01C000000040D17C30C000000000000000000C0000
310
0013000000920500003C00000006000000020000000000006094E8F6BF000000E0D41A30C00000000000000040000000E00E4604C0000000E0AFB630C000000000000000400C000000130000009A0500003C000000060000000200000000000000A4AE01C000000040D17C30C00000000000000000000000801CE1F0BF0000
310
000000F92FC000000000000000000C00000013000000A20500003C00000006000000020000000000006094E8F6BF000000E0D41A30C00000000000000040000000801CE1F0BF0000000000F92FC000000000000000000C00000013000000AA0500003C000000060000000200000000000080DD47C9BF000000C09BB52FC000
310
00000000000040000000801CE1F0BF0000000000F92FC000000000000000000C00000013000000B20500003C000000060000000200000000000080DD47C9BF000000C09BB52FC000000000000000400000006094E8F6BF000000E0D41A30C000000000000000400C00000013000000BA0500003C0000000600000002000000
310
000000801CE1F0BF0000000000F92FC0000000000000000000000080DD47C93F000000C09BB52FC000000000000000000C00000013000000C20500003C000000060000000200000000000080DD47C9BF000000C09BB52FC0000000000000004000000080DD47C93F000000C09BB52FC000000000000000000C000000130000
310
00CA0500003C0000000600000002000000000000801CE1F03F0000000000F92FC0000000000000004000000080DD47C93F000000C09BB52FC000000000000000000C00000013000000D20500003C0000000600000002000000000000801CE1F03F0000000000F92FC0000000000000004000000080DD47C9BF000000C09BB5
310
2FC000000000000000400C00000013000000DA0500003C000000060000000200000000000080DD47C93F000000C09BB52FC000000000000000000000006094E8F63F000000E0D41A30C000000000000000000C00000013000000E20500003C0000000600000002000000000000801CE1F03F0000000000F92FC00000000000
310
0000400000006094E8F63F000000E0D41A30C000000000000000000C00000013000000EA0500003C000000060000000200000000000000A4AE014000000040D17C30C000000000000000400000006094E8F63F000000E0D41A30C000000000000000000C00000013000000F20500003C000000060000000200000000000000
310
A4AE014000000040D17C30C00000000000000040000000801CE1F03F0000000000F92FC000000000000000400C00000013000000FA0500003C00000006000000020000000000006094E8F63F000000E0D41A30C00000000000000000000000E00E460440000000E0AFB630C000000000000000000C00000013000000020600
310
003C000000060000000200000000000000A4AE014000000040D17C30C00000000000000040000000E00E460440000000E0AFB630C000000000000000000C000000130000000A0600003C0000000600000002000000000000E0DF4B094000000040F04F31C00000000000000040000000E00E460440000000E0AFB630C00000
310
0000000000000C00000013000000120600003C0000000600000002000000000000E0DF4B094000000040F04F31C0000000000000004000000000A4AE014000000040D17C30C000000000000000400C000000130000001A0600003C0000000600000002000000000000E00E460440000000E0AFB630C0000000000000000000
310
0000E0E1390B400000008004A031C000000000000000000C00000013000000220600003C0000000600000002000000000000E0DF4B094000000040F04F31C00000000000000040000000E0E1390B400000008004A031C000000000000000000C000000130000002A0600003C0000000600000002000000000000C0706A0E40
310
000000801F5632C00000000000000040000000E0E1390B400000008004A031C000000000000000000C00000013000000320600003C0000000600000002000000000000C0706A0E40000000801F5632C00000000000000040000000E0DF4B094000000040F04F31C000000000000000400C000000130000003A0600003C0000
310
000600000002000000000000E0E1390B400000008004A031C0000000000000000000000080DCAB0F400000000056C132C000000000000000000C00000013000000420600003C0000000600000002000000000000C0706A0E40000000801F5632C0000000000000004000000080DCAB0F400000000056C132C0000000000000
310
00000C000000130000004A0600003C0000000600000002000000000000E0D27A1040000000405F8033C0000000000000004000000080DCAB0F400000000056C132C000000000000000000C00000013000000520600003C0000000600000002000000000000E0D27A1040000000405F8033C00000000000000040000000C070
310
6A0E40000000801F5632C000000000000000400C000000130000005A0600003C0000000600000002000000000000C09999104000000000000034C0000000000000000000000080DCAB0F400000000056C132C000000000000000000C00000013000000620600003C0000000600000002000000000000E0D27A104000000040
310
5F8033C00000000000000040000000C09999104000000000000034C000000000000000000C000000130000006A0600003C0000000600000002000000000000402D5B1040000000606DB534C00000000000000040000000C09999104000000000000034C000000000000000000C00000013000000720600003C000000060000
310
0002000000000000402D5B1040000000606DB534C00000000000000040000000E0D27A1040000000405F8033C000000000000000400C000000130000007A0600003C0000000600000002000000000000C09999104000000000000034C0000000000000000000000040735B0F40000000E0065D35C000000000000000000C00
310
000013000000820600003C0000000600000002000000000000402D5B1040000000606DB534C0000000000000004000000040735B0F40000000E0065D35C000000000000000000C000000130000008A0600003C000000060000000200000000000060EAB10D40000000C01EDB35C0000000000000004000000040735B0F4000
310
0000E0065D35C000000000000000000C00000013000000920600003C000000060000000200000000000060EAB10D40000000C01EDB35C00000000000000040000000402D5B1040000000606DB534C000000000000000400C000000130000009A0600003C000000060000000200000000000040735B0F40000000E0065D35C0
310
00000000000000000000006091080A40000000C04E9336C000000000000000000C00000013000000A20600003C000000060000000200000000000060EAB10D40000000C01EDB35C000000000000000400000006091080A40000000C04E9336C000000000000000000C00000013000000AA0600003C00000006000000020000
310
00000000E0402B074000000060EDF836C000000000000000400000006091080A40000000C04E9336C000000000000000000C00000013000000B20600003C0000000600000002000000000000E0402B074000000060EDF836C0000000000000004000000060EAB10D40000000C01EDB35C000000000000000400C0000001300
310
0000BA0600003C00000006000000020000000000006091080A40000000C04E9336C0000000000000000000000040D9D1014000000000668037C000000000000000000C00000013000000C20600003C0000000600000002000000000000E0402B074000000060EDF836C0000000000000004000000040D9D101400000000066
310
8037C000000000000000000C00000013000000CA0600003C0000000600000002000000000000E05124FC3F0000006043C237C0000000000000004000000040D9D1014000000000668037C000000000000000000C00000013000000D20600003C0000000600000002000000000000E05124FC3F0000006043C237C000000000
310
00000040000000E0402B074000000060EDF836C000000000000000400C00000013000000DA0600003C000000060000000200000000000040D9D1014000000000668037C0000000000000000000000060DD82EE3F000000C0FA0938C000000000000000000C00000013000000E20600003C0000000600000002000000000000
310
E05124FC3F0000006043C237C0000000000000004000000060DD82EE3F000000C0FA0938C000000000000000000C00000013000000EA0600003C0000000600000002000000000000008249DB3F00000060C72038C0000000000000004000000060DD82EE3F000000C0FA0938C000000000000000000C00000013000000F206
310
00003C0000000600000002000000000000008249DB3F00000060C72038C00000000000000040000000E05124FC3F0000006043C237C000000000000000400C00000013000000FA0600003C000000060000000200000000000060DD82EE3F000000C0FA0938C00000000000000000000000008249DBBF00000060C72038C000
310
000000000000000C00000013000000020700003C0000000600000002000000000000008249DB3F00000060C72038C00000000000000040000000008249DBBF00000060C72038C000000000000000000C000000130000000A0700003C000000060000000200000000000060DD82EEBF000000C0FA0938C00000000000000040
310
000000008249DBBF00000060C72038C000000000000000000C00000013000000120700003C000000060000000200000000000060DD82EEBF000000C0FA0938C00000000000000040000000008249DB3F00000060C72038C000000000000000400C000000130000001A0700003C0000000600000002000000000000008249DB
310
BF00000060C72038C00000000000000000000000E05124FCBF0000006043C237C000000000000000000C00000013000000220700003C000000060000000200000000000060DD82EEBF000000C0FA0938C00000000000000040000000E05124FCBF0000006043C237C000000000000000000C000000130000002A0700003C00
310
0000060000000200000000000040D9D101C000000000668037C00000000000000040000000E05124FCBF0000006043C237C000000000000000000C00000013000000320700003C000000060000000200000000000040D9D101C000000000668037C0000000000000004000000060DD82EEBF000000C0FA0938C00000000000
310
0000400C000000130000003A0700003C0000000600000002000000000000E05124FCBF0000006043C237C00000000000000000000000E0402B07C000000060EDF836C000000000000000000C00000013000000420700003C000000060000000200000000000040D9D101C000000000668037C00000000000000040000000E0
310
402B07C000000060EDF836C000000000000000000C000000130000004A0700003C00000006000000020000000000006091080AC0000000C04E9336C00000000000000040000000E0402B07C000000060EDF836C000000000000000000C00000013000000520700003C00000006000000020000000000006091080AC0000000
310
C04E9336C0000000000000004000000040D9D101C000000000668037C000000000000000400C000000130000005A0700003C0000000600000002000000000000E0402B07C000000060EDF836C0000000000000000000000060EAB10DC0000000C01EDB35C000000000000000000C00000013000000620700003C0000000600
310
0000020000000000006091080AC0000000C04E9336C0000000000000004000000060EAB10DC0000000C01EDB35C000000000000000000C000000130000006A0700003C000000060000000200000000000040735B0FC0000000E0065D35C0000000000000004000000060EAB10DC0000000C01EDB35C000000000000000000C
310
00000013000000720700003C000000060000000200000000000040735B0FC0000000E0065D35C000000000000000400000006091080AC0000000C04E9336C000000000000000400C000000130000007A0700003C000000060000000200000000000060EAB10DC0000000C01EDB35C00000000000000000000000402D5B10C0
310
000000606DB534C000000000000000000C00000013000000820700003C0000000600000002000000000000E0919B1D4000000000008035C00000000000000040000000E0919B1D4000000000008035C000000000000000000C000000130000008A0700003C00000006000000020000000000000000001C4000000000000034
310
C00000000000000040000000E0919B1D4000000000008035C000000000000000000C00000013000000920700003C00000006000000020000000000000000001C4000000000000034C00000000000000040000000E0919B1D4000000000008035C000000000000000400C000000130000009A0700003C000000060000000200
310
0000000000E0919B1D4000000000008035C000000000000000000000000000001C4000000000000034C000000000000000000C00000013000000A20700003C00000006000000020000000000000000001C4000000000000034C000000000000000400000000000001C4000000000000034C000000000000000000C00000013
310
000000AA0700003C0000000600000002000000000000E0919B1D4000000000008032C000000000000000400000000000001C4000000000000034C000000000000000000C00000013000000B20700003C00000006000000020000000000000000001C4000000000000034C00000000000000040000000E0919B1D4000000000
310
008032C000000000000000400C00000013000000BA0700003C00000006000000020000000000000000001C4000000000000034C00000000000000000000000E0919B1D4000000000008032C000000000000000000C00000013000000C20700003C0000000600000002000000000000E0919B1D4000000000008032C0000000
310
0000000040000000E0919B1D4000000000008032C000000000000000000C00000013000000CA0700003C0000000600000002000000000000000000214000000080E46631C00000000000000040000000E0919B1D4000000000008032C000000000000000000C00000013000000D20700003C00000006000000020000000000
310
00000000214000000080E46631C00000000000000040000000E0919B1D4000000000008032C000000000000000400C00000013000000DA0700003C0000000600000002000000000000E0919B1D4000000000008032C00000000000000000000000000000214000000080E46631C000000000000000000C00000013000000E2
310
0700003C0000000600000002000000000000000000214000000080E46631C00000000000000040000000000000214000000080E46631C000000000000000000C00000013000000EA0700003C0000000600000002000000000000000000244000000000000031C00000000000000040000000000000214000000080E46631C0
310
00000000000000000C00000013000000F20700003C0000000600000002000000000000000000244000000000000031C00000000000000040000000000000214000000080E46631C000000000000000400C00000013000000FA0700003C0000000600000002000000000000000000214000000080E46631C000000000000000
310
00000000000000244000000000000031C000000000000000000C00000013000000020800003C0000000600000002000000000000000000244000000000000031C00000000000000040000000000000244000000000000031C000000000000000000C000000130000000A0800003C0000000600000002000000000000000000
310
274000000080E46631C00000000000000040000000000000244000000000000031C000000000000000000C00000013000000120800003C0000000600000002000000000000000000274000000080E46631C00000000000000040000000000000244000000000000031C000000000000000400C000000130000001A0800003C
310
0000000600000002000000000000000000244000000000000031C00000000000000000000000000000274000000080E46631C000000000000000000C00000013000000220800003C0000000600000002000000000000000000274000000080E46631C00000000000000040000000000000274000000080E46631C000000000
310
000000000C000000130000002A0800003C0000000600000002000000000000003732294000000000008032C00000000000000040000000000000274000000080E46631C000000000000000000C00000013000000320800003C0000000600000002000000000000003732294000000000008032C00000000000000040000000
310
000000274000000080E46631C000000000000000400C000000130000003A0800003C0000000600000002000000000000000000274000000080E46631C00000000000000000000000003732294000000000008032C000000000000000000C00000013000000420800003C000000060000000200000000000000373229400000
310
0000008032C00000000000000040000000003732294000000000008032C000000000000000000C000000130000004A0800003C00000006000000020000000000000000002A4000000000000034C00000000000000040000000003732294000000000008032C000000000000000000C00000013000000520800003C00000006
310
000000020000000000000000002A4000000000000034C00000000000000040000000003732294000000000008032C000000000000000400C000000130000005A0800003C00000006000000020000000000000000002A4000000000000034C00000000000000000000000003732294000000000008032C00000000000000000
310
0C00000013000000620800003C00000006000000020000000000000000002A4000000000000034C000000000000000400000000000002A4000000000000034C000000000000000000C000000130000006A0800003C0000000600000002000000000000003732294000000000008035C000000000000000400000000000002A
310
4000000000000034C000000000000000000C00000013000000720800003C0000000600000002000000000000003732294000000000008035C000000000000000400000000000002A4000000000000034C000000000000000400C000000130000007A0800003C00000006000000020000000000000000002A40000000000000
310
34C00000000000000000000000003732294000000000008035C000000000000000000C00000013000000820800003C0000000600000002000000000000003732294000000000008035C00000000000000040000000003732294000000000008035C000000000000000000C000000130000008A0800003C0000000600000002
310
0000000000000000002740000000801B9936C00000000000000040000000003732294000000000008035C000000000000000000C00000013000000920800003C00000006000000020000000000000000002740000000801B9936C00000000000000040000000003732294000000000008035C000000000000000400C000000
310
130000009A0800003C0000000600000002000000000000003732294000000000008035C000000000000000000000000000002740000000801B9936C000000000000000000C00000013000000A20800003C00000006000000020000000000000000002740000000801B9936C000000000000000400000000000002740000000
310
801B9936C000000000000000000C00000013000000AA0800003C0000000600000002000000000000000000244000000000000037C000000000000000400000000000002740000000801B9936C000000000000000000C00000013000000B20800003C0000000600000002000000000000000000244000000000000037C00000
310
0000000000400000000000002740000000801B9936C000000000000000400C00000013000000BA0800003C00000006000000020000000000000000002740000000801B9936C00000000000000000000000000000244000000000000037C000000000000000000C00000013000000C20800003C000000060000000200000000
310
0000000000244000000000000037C00000000000000040000000000000244000000000000037C000000000000000000C00000013000000CA0800003C00000006000000020000000000000000002140000000801B9936C00000000000000040000000000000244000000000000037C000000000000000000C00000013000000
310
D20800003C00000006000000020000000000000000002140000000801B9936C00000000000000040000000000000244000000000000037C000000000000000400C00000013000000DA0800003C0000000600000002000000000000000000244000000000000037C000000000000000000000000000002140000000801B9936
310
C000000000000000000C00000013000000E20800003C00000006000000020000000000000000002140000000801B9936C000000000000000400000000000002140000000801B9936C000000000000000000C00000013000000EA0800003C0000000600000002000000000000E0919B1D4000000000008035C0000000000000
310
00400000000000002140000000801B9936C000000000000000000C00000013000000F20800003C0000000600000002000000000000E0919B1D4000000000008035C000000000000000400000000000002140000000801B9936C000000000000000400C00000013000000FA0800003C00000006000000020000000000000000
310
002140000000801B9936C00000000000000000000000E0919B1D4000000000008035C000000000000000000C00000013000000020900003C000000060000000200000000000000000034400000000000000000000000000000084000000000000034C0000000000000000000000000000008400C000000130000000A090000
310
3C000000060000000200000000000000000034400000000000000000000000000000084000000000000034C00000000020B9D9BF000000000000F83F0C00000013000000120900003C000000060000000200000000000000000034C00000000020B9D9BF000000000000F83F00000000000034C00000000000000000000000
310
00000008400C000000130000001A0900003C000000060000000200000000000000000034400000000000000000000000000000084000000000000034400000000020B9D9BF000000000000F83F0C00000013000000220900003C000000060000000200000000000000000034400000000020B9D9BF000000000000F83F0000
310
0000000034C00000000020B9D9BF000000000000F83F0C000000130000002A0900003C000000060000000200000000000000000034400000000020B9D9BF000000000000F83F00000000000034C0000000000000F8BF0000000020B9D93F0C00000013000000320900003C000000060000000200000000000000000034C000
310
0000000000F8BF0000000020B9D93F00000000000034C00000000020B9D9BF000000000000F83F0C000000130000003A0900003C000000060000000200000000000000000034400000000020B9D9BF000000000000F83F0000000000003440000000000000F8BF0000000020B9D93F0C00000013000000420900003C000000
310
06000000020000000000000000003440000000000000F8BF0000000020B9D93F00000000000034C0000000000000F8BF0000000020B9D93F0C000000130000004A0900003C00000006000000020000000000000000003440000000000000F8BF0000000020B9D93F00000000000034C000000000000008C000000000000000
310
000C00000013000000520900003C000000060000000200000000000000000034C000000000000008C0000000000000000000000000000034C0000000000000F8BF0000000020B9D93F0C000000130000005A0900003C00000006000000020000000000000000003440000000000000F8BF0000000020B9D93F000000000000
310
344000000000000008C000000000000000000C00000013000000620900003C0000000600000002000000000000000000344000000000000008C0000000000000000000000000000034C000000000000008C000000000000000000C000000130000006A0900003C0000000600000002000000000000E085C00C400000000000
310
000000000000C099C94040000000E0095B0D400000000000000000000000C0E0C743400C00000013000000720900003C0000000600000002000000000000C09999104000000000000000000000000000803F40000000E0095B0D400000000000000000000000C0E0C743400C000000130000007A0900003C00000006000000
310
02000000000000C09999104000000000000000000000000000803F40000000C09999104000000000000000000000000000C044400C00000013000000820900003C0000000600000002000000000000C09999104000000000000000000000000000C04440000000000000344000000000000000000000000000004E400C0000
310
00130000008A0900003C0000000600000002000000000000C09999104000000000000000000000000000803F40000000000000344000000000000000000000000000004E400C00000013000000920900003C0000000600000002000000000000401FB90F40000000000000000000000000AC5C454000000000000034400000
310
0000000000000000000000004E400C000000130000009A0900003C0000000600000002000000000000E0856C0B400000000000000000000000C067EB4540000000000000344000000000000000000000000000004E400C00000013000000A20900003C0000000600000002000000000000E085C00C40000000000000000000
310
0000C099C94040000000C079B602400000000000000000000000C0370943400C00000013000000AA0900003C0000000600000002000000000000C099990040000000000000000000000060088C4140000000C079B602400000000000000000000000C0370943400C00000013000000B20900003C0000000600000002000000
310
000000C099990040000000000000000000000060088C414000000040ECE3DD3F0000000000000000000000C02CB042400C00000013000000BA0900003C0000000600000002000000000000000000F03C00000000000000000000004033D3414000000040ECE3DD3F0000000000000000000000C02CB042400C000000130000
310
00C20900003C0000000600000002000000000000000000F03C00000000000000000000004033D34140000000000436F8BF0000000000000000000000E05ED142400C00000013000000CA0900003C0000000600000002000000000000C0999900C0000000000000000000000060088C4140000000000436F8BF000000000000
310
0000000000E05ED142400C00000013000000D20900003C0000000600000002000000000000C0999900C0000000000000000000000060088C414000000040CF2409C00000000000000000000000001E6543400C00000013000000DA0900003C0000000600000002000000000000E085C00CC00000000000000000000000C099
310
C9404000000040CF2409C00000000000000000000000001E6543400C00000013000000E20900003C0000000600000002000000000000E085C00CC00000000000000000000000C099C9404000000040F52D10C00000000000000000000000C0324944400C00000013000000EA0900003C0000000600000002000000000000C0
310
999910C000000000000000000000000000803F4000000040F52D10C00000000000000000000000C0324944400C00000013000000F20900003C0000000600000002000000000000C0999910C000000000000000000000000000803F4000000000000034C000000000000000000000000000004E400C00000013000000FA0900
310
003C000000060000000200000000000040F52D10C00000000000000000000000C03249444000000000000034C000000000000000000000000000004E400C00000013000000020A00003C0000000600000002000000000000C0999910C000000000000000000000000000803F4000000000000034C000000000000000000000
310
0000000008400C000000130000000A0A00003C000000060000000200000000000000000034C00000000000000000000000000000084000000000000034C000000000000000000000000000004E400C00000013000000120A00003C0000000600000002000000000000E085C00CC00000000000000000000000C0CC6C3D4000
310
000000000034C0000000000000000000000000000008400C000000130000001A0A00003C0000000600000002000000000000C0999900C0000000000000000000000060EFE73B4000000000000034C0000000000000000000000000000008400C00000013000000220A00003C0000000600000002000000000000000000F03C
310
0000000000000000000000C099593B4000000000000034C0000000000000000000000000000008400C000000130000002A0A00003C0000000600000002000000000000000000F03C0000000000000000000000C099593B400000000000003440000000000000000000000000000008400C00000013000000320A00003C0000
310
000600000002000000000000C099990040000000000000000000000060EFE73B400000000000003440000000000000000000000000000008400C000000130000003A0A00003C0000000600000002000000000000E085C00C400000000000000000000000C0CC6C3D4000000000000034400000000000000000000000000000
310
08400C00000013000000420A00003C0000000600000002000000000000C09999104000000000000000000000000000803F400000000000003440000000000000000000000000000008400C000000130000004A0A00003C00000006000000020000000000000000003440000000000000000000000000000008400000000000
310
00344000000000000000000000000000004E400C00000013000000520A00003C0000000600000002000000000000C052AF0440000000000000000000000040805F4640000000000000344000000000000000000000000000004E400C000000130000005A0A00003C0000000600000002000000000000000436F83F00000000
310
0000000000000040A1AE4640000000000000344000000000000000000000000000004E400C00000013000000620A00003C000000060000000200000000000040D897D33F0000000000000000000000C0C0D14640000000000000344000000000000000000000000000004E400C000000130000006A0A00003C000000060000
310
000200000000000040D897D33F0000000000000000000000C0C0D1464000000000000034C000000000000000000000000000004E400C00000013000000720A00003C0000000600000002000000000000000000344000000000000000000000000000004E4000000000000034C000000000000000000000000000004E400C00
310
0000130000007A0A00003C0000000600000002000000000000E04FB3EDBF0000000000000000000000C0BEC5464000000000000034C000000000000000000000000000004E400C00000013000000820A00003C00000006000000020000000000000086A300C0000000000000000000000080AC8B464000000000000034C000
310
000000000000000000000000004E400C000000130000008A0A00003C000000060000000200000000000000425F08C0000000000000000000000000B528464000000000000034C000000000000000000000000000004E400C00000013000000920A00003C000000060000000200000000000040470A10C00000000000000000
310
000000E0CA48454000000000000034C000000000000000000000000000004E400C000000130000009A0A00003C0000000600000002000000000000000000344000000000000000000000000000004E40000000000000344000000000000000C00000000000004E400C00000013000000A20A00003C00000006000000020000
310
00000000000000344000000000000000000000000000004E4000000000000034C000000000000000C00000000000004E400C00000013000000AA0A00003C0000000600000002000000000000000000344000000000000000C00000000000004E4000000000000034C000000000000000C00000000000004E400C0000001300
310
0000B20A00003C000000060000000200000000000000000034C000000000000000000000000000004E4000000000000034C000000000000000C00000000000004E400C00000013000000BA0A00003C0000000600000002000000000000E085C00CC000000000000000C0000000C099C94040000000E0095B0DC00000000000
310
0000C0000000C0E0C743400C00000013000000C20A00003C0000000600000002000000000000C0999910C000000000000000C00000000000803F40000000E0095B0DC000000000000000C0000000C0E0C743400C00000013000000CA0A00003C0000000600000002000000000000C0999910C000000000000000C000000000
310
00803F40000000C0999910C000000000000000C00000000000C044400C00000013000000D20A00003C0000000600000002000000000000C0999910C000000000000000C00000000000C0444000000000000034C000000000000000C00000000000004E400C00000013000000DA0A00003C0000000600000002000000000000
310
C0999910C000000000000000C00000000000803F4000000000000034C000000000000000C00000000000004E400C00000013000000E20A00003C0000000600000002000000000000401FB90FC000000000000000C000000000AC5C454000000000000034C000000000000000C00000000000004E400C00000013000000EA0A
310
00003C0000000600000002000000000000E0856C0BC000000000000000C0000000C067EB454000000000000034C000000000000000C00000000000004E400C00000013000000F20A00003C0000000600000002000000000000E085C00CC000000000000000C0000000C099C94040000000C079B602C000000000000000C000
310
0000C0370943400C00000013000000FA0A00003C0000000600000002000000000000C0999900C000000000000000C000000060088C4140000000C079B602C000000000000000C0000000C0370943400C00000013000000020B00003C0000000600000002000000000000C0999900C000000000000000C000000060088C4140
310
00000040ECE3DDBF00000000000000C0000000C02CB042400C000000130000000A0B00003C0000000600000002000000000000000000F03C00000000000000C00000004033D3414000000040ECE3DDBF00000000000000C0000000C02CB042400C00000013000000120B00003C0000000600000002000000000000000000F0
310
3C00000000000000C00000004033D34140000000000436F83F00000000000000C0000000E05ED142400C000000130000001A0B00003C0000000600000002000000000000C09999004000000000000000C000000060088C4140000000000436F83F00000000000000C0000000E05ED142400C00000013000000220B00003C00
310
00000600000002000000000000C09999004000000000000000C000000060088C414000000040CF24094000000000000000C0000000001E6543400C000000130000002A0B00003C0000000600000002000000000000E085C00C4000000000000000C0000000C099C9404000000040CF24094000000000000000C0000000001E
310
6543400C00000013000000320B00003C0000000600000002000000000000E085C00C4000000000000000C0000000C099C9404000000040F52D104000000000000000C0000000C0324944400C000000130000003A0B00003C0000000600000002000000000000C09999104000000000000000C00000000000803F4000000040
310
F52D104000000000000000C0000000C0324944400C00000013000000420B00003C0000000600000002000000000000C09999104000000000000000C00000000000803F40000000000000344000000000000000C00000000000004E400C000000130000004A0B00003C000000060000000200000000000040F52D1040000000
310
00000000C0000000C032494440000000000000344000000000000000C00000000000004E400C00000013000000520B00003C0000000600000002000000000000C09999104000000000000000C00000000000803F40000000000000344000000000000000C000000000000008400C000000130000005A0B00003C0000000600
310
000002000000000000000000344000000000000000C00000000000004E40000000000000344000000000000000C000000000000008400C00000013000000620B00003C0000000600000002000000000000E085C00C4000000000000000C0000000C0CC6C3D40000000000000344000000000000000C000000000000008400C
310
000000130000006A0B00003C0000000600000002000000000000C09999004000000000000000C000000060EFE73B40000000000000344000000000000000C000000000000008400C00000013000000720B00003C0000000600000002000000000000000000F03C00000000000000C0000000C099593B400000000000003440
310
00000000000000C000000000000008400C000000130000007A0B00003C0000000600000002000000000000000000F03C00000000000000C0000000C099593B4000000000000034C000000000000000C000000000000008400C00000013000000820B00003C0000000600000002000000000000000000344000000000000000
310
C0000000000000084000000000000034C000000000000000C000000000000008400C000000130000008A0B00003C0000000600000002000000000000C0999900C000000000000000C000000060EFE73B4000000000000034C000000000000000C000000000000008400C00000013000000920B00003C000000060000000200
310
0000000000E085C00CC000000000000000C0000000C0CC6C3D4000000000000034C000000000000000C000000000000008400C000000130000009A0B00003C0000000600000002000000000000C0999910C000000000000000C00000000000803F4000000000000034C000000000000000C000000000000008400C00000013
310
000000A20B00003C000000060000000200000000000000000034C000000000000000C00000000000004E4000000000000034C000000000000000C000000000000008400C00000013000000AA0B00003C0000000600000002000000000000C052AF04C000000000000000C000000040805F464000000000000034C000000000
310
000000C00000000000004E400C00000013000000B20B00003C0000000600000002000000000000000436F8BF00000000000000C000000040A1AE464000000000000034C000000000000000C00000000000004E400C00000013000000BA0B00003C000000060000000200000000000040D897D3BF00000000000000C0000000
310
C0C0D1464000000000000034C000000000000000C00000000000004E400C00000013000000C20B00003C000000060000000200000000000040D897D3BF00000000000000C0000000C0C0D14640000000000000344000000000000000C00000000000004E400C00000013000000CA0B00003C00000006000000020000000000
310
00E04FB3ED3F00000000000000C0000000C0BEC54640000000000000344000000000000000C00000000000004E400C00000013000000D20B00003C00000006000000020000000000000086A3004000000000000000C000000080AC8B4640000000000000344000000000000000C00000000000004E400C00000013000000DA
310
0B00003C000000060000000200000000000000425F084000000000000000C000000000B5284640000000000000344000000000000000C00000000000004E400C00000013000000E20B00003C000000060000000200000000000040470A104000000000000000C0000000E0CA484540000000000000344000000000000000C0
310
0000000000004E400C00000013000000EA0B00003C0000000600000002000000000000000000344000000000000008C0000000000000004000000000000034C000000000000008C000000000000000400C00000013000000F20B00003C0000000600000002000000000000000000344000000000000008C000000000000000
310
4000000000000034C000000000000004C000000000611201400C00000013000000FA0B00003C000000060000000200000000000000000034C000000000000004C0000000006112014000000000000034C000000000000008C000000000000000400C00000013000000020C00003C0000000600000002000000000000000000
310
344000000000000008C00000000000000040000000000000344000000000000004C000000000611201400C000000130000000A0C00003C0000000600000002000000000000000000344000000000000004C0000000006112014000000000000034C000000000000004C000000000611201400C00000013000000120C00003C
310
0000000600000002000000000000000000344000000000000004C0000000006112014000000000000034C000000000611201C000000000000004400C000000130000001A0C00003C000000060000000200000000000000000034C000000000611201C0000000000000044000000000000034C000000000000004C000000000
310
611201400C00000013000000220C00003C0000000600000002000000000000000000344000000000000004C00000000061120140000000000000344000000000611201C000000000000004400C000000130000002A0C00003C0000000600000002000000000000000000344000000000611201C00000000000000440000000
310
00000034C000000000611201C000000000000004400C00000013000000320C00003C000000060000000200000000000000000034C000000000000000C00000000000000840000000000000344000000000611201C000000000000004400C000000130000003A0C00003C000000060000000200000000000000000034C00000
310
0000000000C0000000000000084000000000000034C000000000611201C000000000000004400C00000013000000420C00003C0000000600000002000000000000000000344000000000000000C00000000000000840000000000000344000000000611201C000000000000004400C000000130000004A0C00003C00000006
310
0000000200000000000000373229C000000000008032C0000000000000004000000000000034C000000000000008C000000000000000400C00000013000000520C00003C00000006000000020000000000000000002AC000000000000034C0000000000000004000000000000034C000000000000008C00000000000000040
310
0C000000130000005A0C00003C000000060000000200000000000000000034C000000000000008C0000000000000004000000000000034C00000000000003EC000000000000000400C00000013000000620C00003C00000006000000020000000000000000002AC000000000000034C0000000000000004000000000000034
310
C00000000000003EC000000000000000400C000000130000006A0C00003C000000060000000200000000000000373229C000000000008035C0000000000000004000000000000034C00000000000003EC000000000000000400C00000013000000720C00003C000000060000000200000000000000000027C0000000801B99
310
36C0000000000000004000000000000034C00000000000003EC000000000000000400C000000130000007A0C00003C000000060000000200000000000000000024C000000000000037C0000000000000004000000000000034C00000000000003EC000000000000000400C00000013000000820C00003C0000000600000002
310
00000000000060DD82EEBF000000C0FA0938C0000000000000004000000000000034C00000000000003EC000000000000000400C000000130000008A0C00003C000000060000000200000000000000000024C000000000000037C0000000000000004000000060DD82EEBF000000C0FA0938C000000000000000400C000000
310
13000000920C00003C000000060000000200000000000000000024C000000000000037C0000000000000004000000040D9D101C000000000668037C000000000000000400C000000130000009A0C00003C000000060000000200000000000000000027C000000080E46631C0000000000000004000000000000034C0000000
310
00000008C000000000000000400C00000013000000A20C00003C000000060000000200000000000000000024C000000000000031C0000000000000004000000000000034C000000000000008C000000000000000400C00000013000000AA0C00003C000000060000000200000000000000000024C000000000000031C00000
310
0000000000400000006094E8F6BF000000E0D41A30C000000000000000400C00000013000000B20C00003C00000006000000020000000000006094E8F6BF000000E0D41A30C0000000000000004000000000000034C000000000000008C000000000000000400C00000013000000BA0C00003C000000060000000200000000
310
000000000024C000000000000031C00000000000000040000000E00E4604C0000000E0AFB630C000000000000000400C00000013000000C20C00003C000000060000000200000000000000000021C000000080E46631C00000000000000040000000E00E4604C0000000E0AFB630C000000000000000400C00000013000000
310
CA0C00003C000000060000000200000000000000000021C000000080E46631C00000000000000040000000E0E1390BC00000008004A031C000000000000000400C00000013000000D20C00003C0000000600000002000000000000E0919B1DC000000000008032C00000000000000040000000E0E1390BC00000008004A031
310
C000000000000000400C00000013000000DA0C00003C0000000600000002000000000000E0919B1DC000000000008032C0000000000000004000000080DCAB0FC00000000056C132C000000000000000400C00000013000000E20C00003C00000006000000020000000000000000001CC000000000000034C0000000000000
310
004000000080DCAB0FC00000000056C132C000000000000000400C00000013000000EA0C00003C00000006000000020000000000000000001CC000000000000034C00000000000000040000000C0999910C000000000000034C000000000000000400C00000013000000F20C00003C00000006000000020000000000000000
310
001CC000000000000034C0000000000000004000000040735B0FC0000000E0065D35C000000000000000400C00000013000000FA0C00003C0000000600000002000000000000E0919B1DC000000000008035C0000000000000004000000040735B0FC0000000E0065D35C000000000000000400C00000013000000020D0000
310
3C0000000600000002000000000000E0919B1DC000000000008035C000000000000000400000006091080AC0000000C04E9336C000000000000000400C000000130000000A0D00003C000000060000000200000000000000000021C0000000801B9936C000000000000000400000006091080AC0000000C04E9336C0000000
310
00000000400C00000013000000120D00003C000000060000000200000000000000000021C0000000801B9936C0000000000000004000000040D9D101C000000000668037C000000000000000400C000000130000001A0D00003C000000060000000200000000000080DD47C9BF000000C09BB52FC000000000000000400000
310
0000000034C000000000000008C000000000000000400C00000013000000220D00003C000000060000000200000000000080DD47C9BF000000C09BB52FC00000000000000040000000000000344000000000000008C000000000000000400C000000130000002A0D00003C0000000600000002000000000000801CE1F03F00
310
00000000F92FC00000000000000040000000000000344000000000000008C000000000000000400C00000013000000320D00003C0000000600000002000000000000801CE1F03F0000000000F92FC00000000000000040000000000000244000000000000031C000000000000000400C000000130000003A0D00003C000000
310
0600000002000000000000000000244000000000000031C00000000000000040000000000000344000000000000008C000000000000000400C00000013000000420D00003C000000060000000200000000000000A4AE014000000040D17C30C00000000000000040000000000000244000000000000031C000000000000000
310
400C000000130000004A0D00003C000000060000000200000000000000A4AE014000000040D17C30C00000000000000040000000000000214000000080E46631C000000000000000400C00000013000000520D00003C0000000600000002000000000000E0DF4B094000000040F04F31C00000000000000040000000000000
310
214000000080E46631C000000000000000400C000000130000005A0D00003C0000000600000002000000000000C0706A0E40000000801F5632C00000000000000040000000000000214000000080E46631C000000000000000400C00000013000000620D00003C0000000600000002000000000000C0706A0E40000000801F
310
5632C00000000000000040000000E0919B1D4000000000008032C000000000000000400C000000130000006A0D00003C0000000600000002000000000000E0D27A1040000000405F8033C00000000000000040000000E0919B1D4000000000008032C000000000000000400C00000013000000720D00003C00000006000000
310
02000000000000E0D27A1040000000405F8033C000000000000000400000000000001C4000000000000034C000000000000000400C000000130000007A0D00003C0000000600000002000000000000402D5B1040000000606DB534C000000000000000400000000000001C4000000000000034C000000000000000400C0000
310
0013000000820D00003C0000000600000002000000000000402D5B1040000000606DB534C00000000000000040000000E0919B1D4000000000008035C000000000000000400C000000130000008A0D00003C000000060000000200000000000060EAB10D40000000C01EDB35C00000000000000040000000E0919B1D400000
310
0000008035C000000000000000400C00000013000000920D00003C000000060000000200000000000060EAB10D40000000C01EDB35C000000000000000400000000000002140000000801B9936C000000000000000400C000000130000009A0D00003C0000000600000002000000000000E0402B074000000060EDF836C000
310
000000000000400000000000002140000000801B9936C000000000000000400C00000013000000A20D00003C0000000600000002000000000000E05124FC3F0000006043C237C000000000000000400000000000002140000000801B9936C000000000000000400C00000013000000AA0D00003C0000000600000002000000
310
000000008249DB3F00000060C72038C0000000000000004000000000000034400000000000003EC000000000000000400C00000013000000B20D00003C0000000600000002000000000000E05124FC3F0000006043C237C0000000000000004000000000000034400000000000003EC000000000000000400C000000130000
310
00BA0D00003C0000000600000002000000000000000000244000000000000037C0000000000000004000000000000034400000000000003EC000000000000000400C00000013000000C20D00003C0000000600000002000000000000E05124FC3F0000006043C237C000000000000000400000000000002440000000000000
310
37C000000000000000400C00000013000000CA0D00003C0000000600000002000000000000008249DB3F00000060C72038C0000000000000004000000000000034C00000000000003EC000000000000000400C00000013000000D20D00003C000000060000000200000000000000000034400000000000003EC00000000000
310
00004000000000000034C00000000000003EC000000000000000400C00000013000000DA0D00003C0000000600000002000000000000000000274000000080E46631C00000000000000040000000000000344000000000000008C000000000000000400C00000013000000E20D00003C000000060000000200000000000000
310
3732294000000000008032C00000000000000040000000000000344000000000000008C000000000000000400C00000013000000EA0D00003C00000006000000020000000000000000002A4000000000000034C00000000000000040000000000000344000000000000008C000000000000000400C00000013000000F20D00
310
003C00000006000000020000000000000000002A4000000000000034C0000000000000004000000000000034400000000000003EC000000000000000400C00000013000000FA0D00003C0000000600000002000000000000000000344000000000000008C0000000000000004000000000000034400000000000003EC00000
310
0000000000400C00000013000000020E00003C0000000600000002000000000000003732294000000000008035C0000000000000004000000000000034400000000000003EC000000000000000400C000000130000000A0E00003C00000006000000020000000000000000002740000000801B9936C0000000000000004000
310
000000000034400000000000003EC000000000000000400C00000013000000120E00003C000000060000000200000000000000000034400000000000003EC0000000000000004000000000000034400000000000003EC000000000000000000C000000130000001A0E00003C00000006000000020000000000000000003440
310
0000000000003EC0000000000000004000000000000034C00000000000003EC000000000000000000C00000013000000220E00003C000000060000000200000000000000000034400000000000003EC0000000000000000000000000000034C00000000000003EC000000000000000000C000000130000002A0E00003C0000
310
00060000000200000000000000000034C00000000000003EC0000000000000004000000000000034C00000000000003EC000000000000000000C00000013000000320E00003C0000000600000002000000000000E0919B1DC000000000008032C00000000000000000000000E0D27A10C0000000405F8033C0000000000000
310
00000C000000130000003A0E00003C00000006000000020000000000000000001CC000000000000034C00000000000000000000000E0D27A10C0000000405F8033C000000000000000000C00000013000000420E00003C00000006000000020000000000000000001CC000000000000034C00000000000000000000000402D
310
5B10C0000000606DB534C000000000000000000C000000130000004A0E00003C0000000600000002000000000000E0919B1DC000000000008035C00000000000000000000000402D5B10C0000000606DB534C000000000000000000C00000013000000520E00003C0000000600000002000000000000E0919B1DC000000000
310
008035C0000000000000000000000060EAB10DC0000000C01EDB35C000000000000000000C000000130000005A0E00003C000000060000000200000000000000000021C0000000801B9936C0000000000000000000000060EAB10DC0000000C01EDB35C000000000000000000C00000013000000620E00003C000000060000
310
000200000000000000000021C0000000801B9936C00000000000000000000000E0402B07C000000060EDF836C000000000000000000C000000130000006A0E00003C000000060000000200000000000000000021C0000000801B9936C00000000000000000000000E05124FCBF0000006043C237C000000000000000000C00
310
000013000000720E00003C0000000600000002000000000000E0919B1DC000000000008032C00000000000000000000000C0706A0EC0000000801F5632C000000000000000000C000000130000007A0E00003C000000060000000200000000000000000021C000000080E46631C00000000000000000000000C0706A0EC000
310
0000801F5632C000000000000000000C00000013000000820E00003C000000060000000200000000000000000021C000000080E46631C00000000000000000000000E0DF4B09C000000040F04F31C000000000000000000C000000130000008A0E00003C000000060000000200000000000000000021C000000080E46631C0
310
000000000000000000000000A4AE01C000000040D17C30C000000000000000000C00000013000000920E00003C000000060000000200000000000000000024C000000000000031C0000000000000000000000000A4AE01C000000040D17C30C000000000000000000C000000130000009A0E00003C00000006000000020000
310
0000000000000024C000000000000031C00000000000000000000000801CE1F0BF0000000000F92FC000000000000000000C00000013000000A20E00003C000000060000000200000000000000000024C000000000000031C0000000000000000000000000000034C000000000000008C000000000000000000C0000001300
310
0000AA0E00003C0000000600000002000000000000801CE1F0BF0000000000F92FC0000000000000000000000000000034C000000000000008C000000000000000000C00000013000000B20E00003C000000060000000200000000000080DD47C93F000000C09BB52FC0000000000000000000000000000034C00000000000
310
0008C000000000000000000C00000013000000BA0E00003C000000060000000200000000000080DD47C93F000000C09BB52FC00000000000000000000000000000344000000000000008C000000000000000000C00000013000000C20E00003C00000006000000020000000000006094E8F63F000000E0D41A30C000000000
310
00000000000000000000344000000000000008C000000000000000000C00000013000000CA0E00003C0000000600000002000000000000000000244000000000000031C00000000000000000000000000000344000000000000008C000000000000000000C00000013000000D20E00003C0000000600000002000000000000
310
6094E8F63F000000E0D41A30C00000000000000000000000000000244000000000000031C000000000000000000C00000013000000DA0E00003C0000000600000002000000000000E00E460440000000E0AFB630C00000000000000000000000000000244000000000000031C000000000000000000C00000013000000E20E
310
00003C0000000600000002000000000000E00E460440000000E0AFB630C00000000000000000000000000000214000000080E46631C000000000000000000C00000013000000EA0E00003C0000000600000002000000000000E0E1390B400000008004A031C00000000000000000000000000000214000000080E46631C000
310
000000000000000C00000013000000F20E00003C0000000600000002000000000000E0E1390B400000008004A031C00000000000000000000000E0919B1D4000000000008032C000000000000000000C00000013000000FA0E00003C000000060000000200000000000080DCAB0F400000000056C132C00000000000000000
310
000000E0919B1D4000000000008032C000000000000000000C00000013000000020F00003C000000060000000200000000000080DCAB0F400000000056C132C000000000000000000000000000001C4000000000000034C000000000000000000C000000130000000A0F00003C0000000600000002000000000000C0999910
310
4000000000000034C000000000000000000000000000001C4000000000000034C000000000000000000C00000013000000120F00003C000000060000000200000000000040735B0F40000000E0065D35C000000000000000000000000000001C4000000000000034C000000000000000000C000000130000001A0F00003C00
310
0000060000000200000000000040735B0F40000000E0065D35C00000000000000000000000E0919B1D4000000000008035C000000000000000000C00000013000000220F00003C00000006000000020000000000006091080A40000000C04E9336C00000000000000000000000E0919B1D4000000000008035C00000000000
310
0000000C000000130000002A0F00003C00000006000000020000000000006091080A40000000C04E9336C000000000000000000000000000002140000000801B9936C000000000000000000C00000013000000320F00003C000000060000000200000000000040D9D1014000000000668037C0000000000000000000000000
310
00002140000000801B9936C000000000000000000C000000130000003A0F00003C000000060000000200000000000040D9D1014000000000668037C00000000000000000000000000000244000000000000037C000000000000000000C00000013000000420F00003C000000060000000200000000000060DD82EE3F000000
310
C0FA0938C00000000000000000000000000000244000000000000037C000000000000000000C000000130000004A0F00003C0000000600000002000000000000000000244000000000000037C0000000000000000000000000000034400000000000003EC000000000000000000C00000013000000520F00003C0000000600
310
00000200000000000060DD82EE3F000000C0FA0938C0000000000000000000000000000034400000000000003EC000000000000000000C000000130000005A0F00003C0000000600000002000000000000008249DBBF00000060C72038C0000000000000000000000000000034400000000000003EC000000000000000000C
310
00000013000000620F00003C0000000600000002000000000000008249DBBF00000060C72038C0000000000000000000000000000034C00000000000003EC000000000000000000C000000130000006A0F00003C0000000600000002000000000000E05124FCBF0000006043C237C0000000000000000000000000000034C0
310
0000000000003EC000000000000000000C00000013000000720F00003C000000060000000200000000000000000024C000000000000037C0000000000000000000000000000034C00000000000003EC000000000000000000C000000130000007A0F00003C000000060000000200000000000000000024C000000000000037
310
C00000000000000000000000E05124FCBF0000006043C237C000000000000000000C00000013000000820F00003C000000060000000200000000000000000027C000000080E46631C0000000000000000000000000000034C000000000000008C000000000000000000C000000130000008A0F00003C000000060000000200
310
000000000000373229C000000000008032C0000000000000000000000000000034C000000000000008C000000000000000000C00000013000000920F00003C00000006000000020000000000000000002AC000000000000034C0000000000000000000000000000034C000000000000008C000000000000000000C00000013
310
0000009A0F00003C00000006000000020000000000000000002AC000000000000034C0000000000000000000000000000034C00000000000003EC000000000000000000C00000013000000A20F00003C000000060000000200000000000000000034C000000000000008C0000000000000000000000000000034C000000000
310
00003EC000000000000000000C00000013000000AA0F00003C000000060000000200000000000000373229C000000000008035C0000000000000000000000000000034C00000000000003EC000000000000000000C00000013000000B20F00003C000000060000000200000000000000000027C0000000801B9936C0000000
310
000000000000000000000034C00000000000003EC000000000000000000C00000013000000BA0F00003C0000000600000002000000000000003732294000000000008032C00000000000000000000000000000344000000000000008C000000000000000000C00000013000000C20F00003C00000006000000020000000000
310
000000002A4000000000000034C00000000000000000000000000000344000000000000008C000000000000000000C00000013000000CA0F00003C0000000600000002000000000000000000344000000000000008C0000000000000000000000000000034400000000000003EC000000000000000000C00000013000000D2
310
0F00003C00000006000000020000000000000000002A4000000000000034C0000000000000000000000000000034400000000000003EC000000000000000000C00000013000000DA0F00003C0000000600000002000000000000003732294000000000008035C0000000000000000000000000000034400000000000003EC0
310
00000000000000000C00000013000000E20F00003C00000006000000020000000000000000002740000000801B9936C0000000000000000000000000000034400000000000003EC000000000000000000C00000013000000EA0F00003C0000000600000002000000000000000000274000000080E46631C000000000000000
310
00000000000000344000000000000008C000000000000000000C00000013000000F20F00003C0000000600000002000000000000000000344000000000000008C0000000000000004000000000000034400000000000003EC000000000000000000C00000013000000FA0F00003C0000000600000002000000000000000000
310
344000000000000008C00000000000000000000000000000344000000000000008C000000000000000400C00000013000000021000003C0000000600000002000000000000000000344000000000000008C00000000000000000000000000000344000000000000004C000000000611201400C000000130000000A1000003C
310
00000006000000020000000000000000003440000000000000F8BF0000000020B9D93F000000000000344000000000000004C000000000611201400C00000013000000121000003C00000006000000020000000000000000003440000000000000F8BF0000000020B9D93F000000000000344000000000611201C000000000
310
000004400C000000130000001A1000003C00000006000000020000000000000000003440000000000000F8BF0000000020B9D93F000000000000344000000000000000C000000000000008400C00000013000000221000003C000000060000000200000000000000000034400000000020B9D9BF000000000000F83F000000
310
000000344000000000000000C000000000000008400C000000130000002A1000003C0000000600000002000000000000000000344000000000000000000000000000000840000000000000344000000000000000C000000000000008400C00000013000000321000003C000000060000000200000000000000000034400000
310
0000000000000000000000000840000000000000344000000000000000C00000000000004E400C000000130000003A1000003C000000060000000200000000000000000034C000000000000008C0000000000000000000000000000034C00000000000003EC000000000000000400C00000013000000421000003C00000006
310
0000000200000000000000000034C000000000000008C0000000000000000000000000000034C000000000000008C000000000000000400C000000130000004A1000003C000000060000000200000000000000000034C000000000000008C0000000000000000000000000000034C000000000000004C00000000061120140
310
0C00000013000000521000003C000000060000000200000000000000000034C0000000000000F8BF0000000020B9D93F00000000000034C000000000000004C000000000611201400C000000130000005A1000003C000000060000000200000000000000000034C0000000000000F8BF0000000020B9D93F00000000000034
310
C000000000611201C000000000000004400C00000013000000621000003C000000060000000200000000000000000034C0000000000000F8BF0000000020B9D93F00000000000034C000000000000000C000000000000008400C000000130000006A1000003C000000060000000200000000000000000034C0000000000000
310
0000000000000000084000000000000034C000000000000000C00000000000004E400C00000013000000721000003C000000060000000200000000000000000034C00000000000000000000000000000084000000000000034C000000000000000C000000000000008400C000000130000007A1000003C0000000600000002
310
00000000000000000034C00000000020B9D9BF000000000000F83F00000000000034C000000000000000C00000000000000840
100
AcDbSubDMesh
 71
     2
 72
     0
 91
        0
 92
      168
 10
-4.150000572204589
 20
-2.0
 30
31.5
 10
-3.594005346298217
 20
-2.0
 30
29.42499923706055
 10
-2.075000286102294
 20
-2.0
 30
27.90599632263184
 10
0.0000000000000036
 20
-2.0
 30
27.35000228881836
 10
2.075000286102294
 20
-2.0
 30
27.90599632263184
 10
3.594005346298217
 20
-2.0
 30
29.42499923706055
 10
4.150000572204589
 20
-2.0
 30
31.5
 10
3.594005346298217
 20
-2.0
 30
33.57500457763672
 10
2.075000286102294
 20
-2.0
 30
35.0940055847168
 10
0.0000000000000036
 20
-2.0
 30
35.65000152587891
 10
-2.075000286102294
 20
-2.0
 30
35.0940055847168
 10
-3.594005346298217
 20
-2.0
 30
33.57500457763672
 10
4.150000572204589
 20
0.0
 30
31.5
 10
3.594005346298217
 20
0.0
 30
29.42499923706055
 10
2.075000286102294
 20
0.0
 30
27.90599632263184
 10
0.0000000000000036
 20
0.0
 30
27.35000228881836
 10
-2.075000286102294
 20
0.0
 30
27.90599632263184
 10
-3.594005346298217
 20
0.0
 30
29.42499923706055
 10
-4.150000572204589
 20
0.0
 30
31.5
 10
-3.594005346298217
 20
0.0
 30
33.57500457763672
 10
-2.075000286102294
 20
0.0
 30
35.0940055847168
 10
0.0000000000000036
 20
0.0
 30
35.65000152587891
 10
2.075000286102294
 20
0.0
 30
35.0940055847168
 10
3.594005346298217
 20
0.0
 30
33.57500457763672
 10
-4.150000572204589
 20
-2.0
 30
41.5
 10
-3.669452428817749
 20
-2.0
 30
39.5615463256836
 10
-2.339099407196044
 20
-2.0
 30
38.07201385498047
 10
-0.4670363068580628
 20
-2.0
 30
37.37636566162109
 10
1.513187408447265
 20
-2.0
 30
37.63570785522461
 10
3.14297342300415
 20
-2.0
 30
38.78997802734375
 10
4.044880867004394
 20
-2.0
 30
40.57186126708984
 10
4.010037422180175
 20
-2.0
 30
42.5686912536621
 10
3.046512603759765
 20
-2.0
 30
44.31802368164063
 10
2.079845428466796
 20
-2.0
 30
45.09120178222656
 10
0.9281386733055114
 20
-2.0
 30
45.54488372802734
 10
-0.3061428666114807
 20
-2.0
 30
45.63869476318359
 10
-1.513187408447265
 20
-2.0
 30
45.36429595947265
 10
-2.585607051849365
 20
-2.0
 30
44.74610137939452
 10
-3.427989721298217
 20
-2.0
 30
43.83910369873047
 10
-3.965391635894775
 20
-2.0
 30
42.7239990234375
 10
4.150000572204589
 20
0.0
 30
41.5
 10
3.669452428817749
 20
0.0
 30
39.5615463256836
 10
2.339099407196044
 20
0.0
 30
38.07201385498047
 10
0.4670363068580628
 20
0.0
 30
37.37636566162109
 10
-1.513187408447265
 20
0.0
 30
37.63570785522461
 10
-3.14297342300415
 20
0.0
 30
38.78997802734375
 10
-4.044880867004394
 20
0.0
 30
40.57186126708984
 10
-4.010037422180175
 20
0.0
 30
42.5686912536621
 10
-3.046512603759765
 20
0.0
 30
44.31802368164063
 10
-2.079845428466796
 20
0.0
 30
45.09120178222656
 10
-0.9281386733055114
 20
0.0
 30
45.54488372802734
 10
0.3061428666114807
 20
0.0
 30
45.63869476318359
 10
1.513187408447265
 20
0.0
 30
45.36429595947265
 10
2.585607051849365
 20
0.0
 30
44.74610137939452
 10
3.427989721298217
 20
0.0
 30
43.83910369873047
 10
3.965391635894775
 20
0.0
 30
42.7239990234375
 10
-13.0
 20
-20.0
 30
2.0
 10
-12.59807586669922
 20
-21.5
 30
2.0
 10
-11.5
 20
-22.59807586669922
 30
2.0
 10
-10.0
 20
-23.0
 30
2.0
 10
-8.5
 20
-22.59807586669922
 30
2.0
 10
-7.401923656463623
 20
-21.5
 30
2.0
 10
-7.0
 20
-20.0
 30
2.0
 10
-7.401923656463623
 20
-18.5
 30
2.0
 10
-8.5
 20
-17.40192413330078
 30
2.0
 10
-10.0
 20
-17.0
 30
2.0
 10
-11.5
 20
-17.40192413330078
 30
2.0
 10
-12.59807586669922
 20
-18.5
 30
2.0
 10
-7.0
 20
-20.0
 30
0.0
 10
-7.401923656463623
 20
-21.5
 30
0.0
 10
-8.5
 20
-22.59807586669922
 30
0.0
 10
-10.0
 20
-23.0
 30
0.0
 10
-11.5
 20
-22.59807586669922
 30
0.0
 10
-12.59807586669922
 20
-21.5
 30
0.0
 10
-13.0
 20
-20.0
 30
0.0
 10
-12.59807586669922
 20
-18.5
 30
0.0
 10
-11.5
 20
-17.40192413330078
 30
0.0
 10
-10.0
 20
-17.0
 30
0.0
 10
-8.5
 20
-17.40192413330078
 30
0.0
 10
-7.401923656463623
 20
-18.5
 30
0.0
 10
-4.150000572204589
 20
-20.0
 30
2.0
 10
-3.919653415679931
 20
-21.3633861541748
 30
2.0
 10
-3.254183530807495
 20
-22.57542037963867
 30
2.0
 10
-2.227465152740478
 20
-23.50155639648438
 30
2.0
 10
-0.9534747004508972
 20
-24.03898239135742
 30
2.0
 10
0.4263615608215332
 20
-24.12804222106934
 30
2.0
 10
1.758867144584655
 20
-23.75884056091309
 30
2.0
 10
2.896119832992553
 20
-22.97237205505371
 30
2.0
 10
3.711872816085815
 20
-21.85593795776367
 30
2.0
 10
4.089039802551269
 20
-20.70870018005371
 30
2.0
 10
4.119945049285888
 20
-19.5014533996582
 30
2.0
 10
3.801972866058349
 20
-18.33641815185547
 30
2.0
 10
3.16204810142517
 20
-17.31225967407226
 30
2.0
 10
2.210273742675781
 20
-16.48756790161133
 30
2.0
 10
1.054958820343017
 20
-15.986328125
 30
2.0
 10
-0.1975056529045105
 20
-15.85470390319824
 30
2.0
 10
-1.431782126426696
 20
-16.10481071472168
 30
2.0
 10
-2.534208059310913
 20
-16.71362113952637
 30
2.0
 10
-3.403262853622436
 20
-17.62506866455078
 30
2.0
 10
-3.958916664123535
 20
-18.75521850585937
 30
2.0
 10
4.150000572204589
 20
-20.0
 30
0.0
 10
3.919653415679931
 20
-21.3633861541748
 30
0.0
 10
3.254183530807495
 20
-22.57542037963867
 30
0.0
 10
2.227465152740478
 20
-23.50155639648438
 30
0.0
 10
0.9534747004508972
 20
-24.03898239135742
 30
0.0
 10
-0.4263615608215332
 20
-24.12804222106934
 30
0.0
 10
-1.758867144584655
 20
-23.75884056091309
 30
0.0
 10
-2.896119832992553
 20
-22.97237205505371
 30
0.0
 10
-3.711872816085815
 20
-21.85593795776367
 30
0.0
 10
-4.089039802551269
 20
-20.70870018005371
 30
0.0
 10
-4.119945049285888
 20
-19.5014533996582
 30
0.0
 10
-3.801972866058349
 20
-18.33641815185547
 30
0.0
 10
-3.16204810142517
 20
-17.31225967407226
 30
0.0
 10
-2.210273742675781
 20
-16.48756790161133
 30
0.0
 10
-1.054958820343017
 20
-15.986328125
 30
0.0
 10
0.1975056529045105
 20
-15.85470390319824
 30
0.0
 10
1.431782126426696
 20
-16.10481071472168
 30
0.0
 10
2.534208059310913
 20
-16.71362113952637
 30
0.0
 10
3.403262853622436
 20
-17.62506866455078
 30
0.0
 10
3.958916664123535
 20
-18.75521850585937
 30
0.0
 10
7.0
 20
-20.0
 30
2.0
 10
7.401923656463623
 20
-21.5
 30
2.0
 10
8.5
 20
-22.59807586669922
 30
2.0
 10
10.0
 20
-23.0
 30
2.0
 10
11.5
 20
-22.59807586669922
 30
2.0
 10
12.59807586669922
 20
-21.5
 30
2.0
 10
13.0
 20
-20.0
 30
2.0
 10
12.59807586669922
 20
-18.5
 30
2.0
 10
11.5
 20
-17.40192413330078
 30
2.0
 10
10.0
 20
-17.0
 30
2.0
 10
8.5
 20
-17.40192413330078
 30
2.0
 10
7.401923656463623
 20
-18.5
 30
2.0
 10
13.0
 20
-20.0
 30
0.0
 10
12.59807586669922
 20
-21.5
 30
0.0
 10
11.5
 20
-22.59807586669922
 30
0.0
 10
10.0
 20
-23.0
 30
0.0
 10
8.5
 20
-22.59807586669922
 30
0.0
 10
7.401923656463623
 20
-21.5
 30
0.0
 10
7.0
 20
-20.0
 30
0.0
 10
7.401923656463623
 20
-18.5
 30
0.0
 10
8.5
 20
-17.40192413330078
 30
0.0
 10
10.0
 20
-17.0
 30
0.0
 10
11.5
 20
-17.40192413330078
 30
0.0
 10
12.59807586669922
 20
-18.5
 30
0.0
 10
20.0
 20
0.0
 30
3.0
 10
20.0
 20
-0.4019241333007813
 30
1.5
 10
20.0
 20
-1.5
 30
0.4019241333007813
 10
20.0
 20
-3.0
 30
0.0
 10
-20.0
 20
-3.0
 30
0.0
 10
-20.0
 20
-1.5
 30
0.4019241333007813
 10
-20.0
 20
-0.4019241333007813
 30
1.5
 10
-20.0
 20
0.0
 30
3.0
 10
20.0
 20
0.0
 30
60.0
 10
-20.0
 20
0.0
 30
60.0
 10
20.0
 20
-2.0
 30
60.0
 10
-20.0
 20
-2.0
 30
60.0
 10
20.0
 20
-2.0
 30
3.0
 10
-20.0
 20
-2.0
 30
3.0
 10
20.0
 20
-3.0
 30
2.0
 10
20.0
 20
-2.5
 30
2.133974075317382
 10
20.0
 20
-2.133974075317382
 30
2.5
 10
-20.0
 20
-2.133974075317382
 30
2.5
 10
-20.0
 20
-2.5
 30
2.133974075317382
 10
-20.0
 20
-3.0
 30
2.0
 10
20.0
 20
-30.0
 30
2.0
 10
-20.0
 20
-30.0
 30
2.0
 10
20.0
 20
-30.0
 30
0.0
 10
-20.0
 20
-30.0
 30
0.0
 93
     1408
 90
        3
 90
        1
 90
       17
 90
        0
 90
        3
 90
        0
 90
       17
 90
       18
 90
        3
 90
        0
 90
       18
 90
       11
 90
        3
 90
       11
 90
       18
 90
       19
 90
        3
 90
       11
 90
       19
 90
       10
 90
        3
 90
       10
 90
       19
 90
       20
 90
        3
 90
       10
 90
       20
 90
        9
 90
        3
 90
        9
 90
       20
 90
       21
 90
        3
 90
        9
 90
       21
 90
        8
 90
        3
 90
        8
 90
       21
 90
       22
 90
        3
 90
        8
 90
       22
 90
        7
 90
        3
 90
        7
 90
       22
 90
       23
 90
        3
 90
        7
 90
       23
 90
        6
 90
        3
 90
        6
 90
       23
 90
       12
 90
        3
 90
        6
 90
       12
 90
        5
 90
        3
 90
        5
 90
       12
 90
       13
 90
        3
 90
        5
 90
       13
 90
        4
 90
        3
 90
        4
 90
       13
 90
       14
 90
        3
 90
        4
 90
       14
 90
        3
 90
        3
 90
        3
 90
       14
 90
       15
 90
        3
 90
        3
 90
       15
 90
        2
 90
        3
 90
        2
 90
       15
 90
       16
 90
        3
 90
        2
 90
       16
 90
        1
 90
        3
 90
        1
 90
       16
 90
       17
 90
        3
 90
       25
 90
       46
 90
       24
 90
        3
 90
       24
 90
       46
 90
       47
 90
        3
 90
       24
 90
       47
 90
       39
 90
        3
 90
       39
 90
       47
 90
       38
 90
        3
 90
       38
 90
       47
 90
       48
 90
        3
 90
       38
 90
       48
 90
       37
 90
        3
 90
       37
 90
       48
 90
       49
 90
        3
 90
       37
 90
       49
 90
       36
 90
        3
 90
       36
 90
       49
 90
       50
 90
        3
 90
       36
 90
       50
 90
       35
 90
        3
 90
       35
 90
       50
 90
       51
 90
        3
 90
       35
 90
       51
 90
       34
 90
        3
 90
       34
 90
       51
 90
       52
 90
        3
 90
       34
 90
       52
 90
       33
 90
        3
 90
       33
 90
       52
 90
       53
 90
        3
 90
       33
 90
       53
 90
       32
 90
        3
 90
       32
 90
       53
 90
       54
 90
        3
 90
       32
 90
       54
 90
       31
 90
        3
 90
       31
 90
       54
 90
       55
 90
        3
 90
       31
 90
       55
 90
       40
 90
        3
 90
       46
 90
       25
 90
       45
 90
        3
 90
       45
 90
       25
 90
       26
 90
        3
 90
       45
 90
       26
 90
       44
 90
        3
 90
       44
 90
       26
 90
       27
 90
        3
 90
       44
 90
       27
 90
       43
 90
        3
 90
       43
 90
       27
 90
       28
 90
        3
 90
       43
 90
       28
 90
       42
 90
        3
 90
       42
 90
       28
 90
       29
 90
        3
 90
       42
 90
       29
 90
       41
 90
        3
 90
       41
 90
       29
 90
       30
 90
        3
 90
       41
 90
       30
 90
       40
 90
        3
 90
       40
 90
       30
 90
       31
 90
        3
 90
       57
 90
       73
 90
       56
 90
        3
 90
       56
 90
       73
 90
       74
 90
        3
 90
       56
 90
       74
 90
       67
 90
        3
 90
       67
 90
       74
 90
       75
 90
        3
 90
       67
 90
       75
 90
       66
 90
        3
 90
       66
 90
       75
 90
       76
 90
        3
 90
       66
 90
       76
 90
       65
 90
        3
 90
       65
 90
       76
 90
       77
 90
        3
 90
       65
 90
       77
 90
       64
 90
        3
 90
       64
 90
       77
 90
       78
 90
        3
 90
       64
 90
       78
 90
       63
 90
        3
 90
       63
 90
       78
 90
       79
 90
        3
 90
       63
 90
       79
 90
       62
 90
        3
 90
       62
 90
       79
 90
       68
 90
        3
 90
       62
 90
       68
 90
       61
 90
        3
 90
       61
 90
       68
 90
       69
 90
        3
 90
       61
 90
       69
 90
       60
 90
        3
 90
       60
 90
       69
 90
       70
 90
        3
 90
       60
 90
       70
 90
       59
 90
        3
 90
       59
 90
       70
 90
       71
 90
        3
 90
       59
 90
       71
 90
       58
 90
        3
 90
       58
 90
       71
 90
       72
 90
        3
 90
       58
 90
       72
 90
       57
 90
        3
 90
       57
 90
       72
 90
       73
 90
        3
 90
       81
 90
      109
 90
       80
 90
        3
 90
       80
 90
      109
 90
      110
 90
        3
 90
       80
 90
      110
 90
       99
 90
        3
 90
       99
 90
      110
 90
      111
 90
        3
 90
       99
 90
      111
 90
       98
 90
        3
 90
       98
 90
      111
 90
      112
 90
        3
 90
       98
 90
      112
 90
       97
 90
        3
 90
       97
 90
      112
 90
      113
 90
        3
 90
       97
 90
      113
 90
       96
 90
        3
 90
       96
 90
      113
 90
      114
 90
        3
 90
       96
 90
      114
 90
       95
 90
        3
 90
       95
 90
      114
 90
      115
 90
        3
 90
       95
 90
      115
 90
       94
 90
        3
 90
       94
 90
      115
 90
      116
 90
        3
 90
       94
 90
      116
 90
       93
 90
        3
 90
       93
 90
      116
 90
      117
 90
        3
 90
       93
 90
      117
 90
       92
 90
        3
 90
       92
 90
      117
 90
      118
 90
        3
 90
       92
 90
      118
 90
       91
 90
        3
 90
       91
 90
      118
 90
      119
 90
        3
 90
       91
 90
      119
 90
       90
 90
        3
 90
       90
 90
      119
 90
      100
 90
        3
 90
       90
 90
      100
 90
       89
 90
        3
 90
       89
 90
      100
 90
      101
 90
        3
 90
       89
 90
      101
 90
       88
 90
        3
 90
       88
 90
      101
 90
      102
 90
        3
 90
       88
 90
      102
 90
       87
 90
        3
 90
       87
 90
      102
 90
      103
 90
        3
 90
       87
 90
      103
 90
       86
 90
        3
 90
       86
 90
      103
 90
      104
 90
        3
 90
       86
 90
      104
 90
       85
 90
        3
 90
       85
 90
      104
 90
      105
 90
        3
 90
       85
 90
      105
 90
       84
 90
        3
 90
       84
 90
      105
 90
      106
 90
        3
 90
       84
 90
      106
 90
       83
 90
        3
 90
       83
 90
      106
 90
      107
 90
        3
 90
       83
 90
      107
 90
       82
 90
        3
 90
       82
 90
      107
 90
      108
 90
        3
 90
       82
 90
      108
 90
       81
 90
        3
 90
       81
 90
      108
 90
      109
 90
        3
 90
      121
 90
      137
 90
      120
 90
        3
 90
      120
 90
      137
 90
      138
 90
        3
 90
      120
 90
      138
 90
      131
 90
        3
 90
      131
 90
      138
 90
      139
 90
        3
 90
      131
 90
      139
 90
      130
 90
        3
 90
      130
 90
      139
 90
      140
 90
        3
 90
      130
 90
      140
 90
      129
 90
        3
 90
      129
 90
      140
 90
      141
 90
        3
 90
      129
 90
      141
 90
      128
 90
        3
 90
      128
 90
      141
 90
      142
 90
        3
 90
      128
 90
      142
 90
      127
 90
        3
 90
      127
 90
      142
 90
      143
 90
        3
 90
      127
 90
      143
 90
      126
 90
        3
 90
      126
 90
      143
 90
      132
 90
        3
 90
      126
 90
      132
 90
      125
 90
        3
 90
      125
 90
      132
 90
      133
 90
        3
 90
      125
 90
      133
 90
      124
 90
        3
 90
      124
 90
      133
 90
      134
 90
        3
 90
      124
 90
      134
 90
      123
 90
        3
 90
      123
 90
      134
 90
      135
 90
        3
 90
      123
 90
      135
 90
      122
 90
        3
 90
      122
 90
      135
 90
      136
 90
        3
 90
      122
 90
      136
 90
      121
 90
        3
 90
      121
 90
      136
 90
      137
 90
        3
 90
      151
 90
      144
 90
      150
 90
        3
 90
      150
 90
      144
 90
      145
 90
        3
 90
      150
 90
      145
 90
      149
 90
        3
 90
      149
 90
      145
 90
      146
 90
        3
 90
      149
 90
      146
 90
      148
 90
        3
 90
      148
 90
      146
 90
      147
 90
        3
 90
       23
 90
       41
 90
       12
 90
        3
 90
       12
 90
       41
 90
       40
 90
        3
 90
       12
 90
       40
 90
      152
 90
        3
 90
      152
 90
       40
 90
       55
 90
        3
 90
      152
 90
       55
 90
       54
 90
        3
 90
       41
 90
       23
 90
       42
 90
        3
 90
       42
 90
       23
 90
       22
 90
        3
 90
       42
 90
       22
 90
       43
 90
        3
 90
       43
 90
       22
 90
       21
 90
        3
 90
       43
 90
       21
 90
       44
 90
        3
 90
       44
 90
       21
 90
       20
 90
        3
 90
       44
 90
       20
 90
       45
 90
        3
 90
       45
 90
       20
 90
       19
 90
        3
 90
       45
 90
       19
 90
       46
 90
        3
 90
       46
 90
       19
 90
       18
 90
        3
 90
       46
 90
       18
 90
      153
 90
        3
 90
      153
 90
       18
 90
      151
 90
        3
 90
      151
 90
       18
 90
       17
 90
        3
 90
      151
 90
       17
 90
       16
 90
        3
 90
       16
 90
       15
 90
      151
 90
        3
 90
      151
 90
       15
 90
      144
 90
        3
 90
      144
 90
       15
 90
       14
 90
        3
 90
      144
 90
       14
 90
       13
 90
        3
 90
       13
 90
       12
 90
      144
 90
        3
 90
      144
 90
       12
 90
      152
 90
        3
 90
       54
 90
       53
 90
      152
 90
        3
 90
      152
 90
       53
 90
       52
 90
        3
 90
      152
 90
       52
 90
       51
 90
        3
 90
      152
 90
       51
 90
      153
 90
        3
 90
      153
 90
       51
 90
       50
 90
        3
 90
      153
 90
       50
 90
       49
 90
        3
 90
       49
 90
       48
 90
      153
 90
        3
 90
      153
 90
       48
 90
       47
 90
        3
 90
      153
 90
       47
 90
       46
 90
        3
 90
      154
 90
      152
 90
      155
 90
        3
 90
      155
 90
      152
 90
      153
 90
        3
 90
       11
 90
       25
 90
        0
 90
        3
 90
        0
 90
       25
 90
       24
 90
        3
 90
        0
 90
       24
 90
      155
 90
        3
 90
      155
 90
       24
 90
       39
 90
        3
 90
      155
 90
       39
 90
       38
 90
        3
 90
       25
 90
       11
 90
       26
 90
        3
 90
       26
 90
       11
 90
       10
 90
        3
 90
       26
 90
       10
 90
       27
 90
        3
 90
       27
 90
       10
 90
        9
 90
        3
 90
       27
 90
        9
 90
       28
 90
        3
 90
       28
 90
        9
 90
        8
 90
        3
 90
       28
 90
        8
 90
       29
 90
        3
 90
       29
 90
        8
 90
        7
 90
        3
 90
       29
 90
        7
 90
       30
 90
        3
 90
       30
 90
        7
 90
        6
 90
        3
 90
       30
 90
        6
 90
      154
 90
        3
 90
      154
 90
        6
 90
      156
 90
        3
 90
      156
 90
        6
 90
        5
 90
        3
 90
      156
 90
        5
 90
        4
 90
        3
 90
        4
 90
        3
 90
      156
 90
        3
 90
      156
 90
        3
 90
      157
 90
        3
 90
      157
 90
        3
 90
        2
 90
        3
 90
      157
 90
        2
 90
        1
 90
        3
 90
        1
 90
        0
 90
      157
 90
        3
 90
      157
 90
        0
 90
      155
 90
        3
 90
       38
 90
       37
 90
      155
 90
        3
 90
      155
 90
       37
 90
       36
 90
        3
 90
      155
 90
       36
 90
       35
 90
        3
 90
      155
 90
       35
 90
      154
 90
        3
 90
      154
 90
       35
 90
       34
 90
        3
 90
      154
 90
       34
 90
       33
 90
        3
 90
       33
 90
       32
 90
      154
 90
        3
 90
      154
 90
       32
 90
       31
 90
        3
 90
      154
 90
       31
 90
       30
 90
        3
 90
      163
 90
      158
 90
      162
 90
        3
 90
      162
 90
      158
 90
      159
 90
        3
 90
      162
 90
      159
 90
      161
 90
        3
 90
      161
 90
      159
 90
      160
 90
        3
 90
      161
 90
      160
 90
      157
 90
        3
 90
      157
 90
      160
 90
      156
 90
        3
 90
       67
 90
      163
 90
       56
 90
        3
 90
       56
 90
      163
 90
      165
 90
        3
 90
       56
 90
      165
 90
       57
 90
        3
 90
       57
 90
      165
 90
       58
 90
        3
 90
       58
 90
      165
 90
       59
 90
        3
 90
       59
 90
      165
 90
       84
 90
        3
 90
       59
 90
       84
 90
       83
 90
        3
 90
       67
 90
       66
 90
      163
 90
        3
 90
      163
 90
       66
 90
       65
 90
        3
 90
      163
 90
       65
 90
       96
 90
        3
 90
       96
 90
       65
 90
       97
 90
        3
 90
       97
 90
       65
 90
       64
 90
        3
 90
       97
 90
       64
 90
       98
 90
        3
 90
       98
 90
       64
 90
       63
 90
        3
 90
       98
 90
       63
 90
       99
 90
        3
 90
       99
 90
       63
 90
       62
 90
        3
 90
       99
 90
       62
 90
       80
 90
        3
 90
       80
 90
       62
 90
       81
 90
        3
 90
       81
 90
       62
 90
       61
 90
        3
 90
       81
 90
       61
 90
       82
 90
        3
 90
       82
 90
       61
 90
       60
 90
        3
 90
       82
 90
       60
 90
       83
 90
        3
 90
       83
 90
       60
 90
       59
 90
        3
 90
       96
 90
       95
 90
      163
 90
        3
 90
      163
 90
       95
 90
      158
 90
        3
 90
      158
 90
       95
 90
       94
 90
        3
 90
      158
 90
       94
 90
      129
 90
        3
 90
      129
 90
       94
 90
       93
 90
        3
 90
      129
 90
       93
 90
      130
 90
        3
 90
      130
 90
       93
 90
       92
 90
        3
 90
      130
 90
       92
 90
       91
 90
        3
 90
      130
 90
       91
 90
      131
 90
        3
 90
      131
 90
       91
 90
       90
 90
        3
 90
      131
 90
       90
 90
      120
 90
        3
 90
      120
 90
       90
 90
       89
 90
        3
 90
      120
 90
       89
 90
      121
 90
        3
 90
      121
 90
       89
 90
       88
 90
        3
 90
      121
 90
       88
 90
      122
 90
        3
 90
      122
 90
       88
 90
       87
 90
        3
 90
      122
 90
       87
 90
       86
 90
        3
 90
       85
 90
      164
 90
       86
 90
        3
 90
       86
 90
      164
 90
      123
 90
        3
 90
       86
 90
      123
 90
      122
 90
        3
 90
      164
 90
       85
 90
      165
 90
        3
 90
      165
 90
       85
 90
       84
 90
        3
 90
      129
 90
      128
 90
      158
 90
        3
 90
      158
 90
      128
 90
      127
 90
        3
 90
      158
 90
      127
 90
      126
 90
        3
 90
      158
 90
      126
 90
      164
 90
        3
 90
      164
 90
      126
 90
      125
 90
        3
 90
      164
 90
      125
 90
      124
 90
        3
 90
      124
 90
      123
 90
      164
 90
        3
 90
      166
 90
      164
 90
      167
 90
        3
 90
      167
 90
      164
 90
      165
 90
        3
 90
       79
 90
      110
 90
       68
 90
        3
 90
       68
 90
      110
 90
      109
 90
        3
 90
       68
 90
      109
 90
       69
 90
        3
 90
       69
 90
      109
 90
      108
 90
        3
 90
       69
 90
      108
 90
       70
 90
        3
 90
       70
 90
      108
 90
      107
 90
        3
 90
       70
 90
      107
 90
      106
 90
        3
 90
      110
 90
       79
 90
      111
 90
        3
 90
      111
 90
       79
 90
       78
 90
        3
 90
      111
 90
       78
 90
      112
 90
        3
 90
      112
 90
       78
 90
      113
 90
        3
 90
      113
 90
       78
 90
       77
 90
        3
 90
      113
 90
       77
 90
      114
 90
        3
 90
      114
 90
       77
 90
      148
 90
        3
 90
      114
 90
      148
 90
      115
 90
        3
 90
      115
 90
      148
 90
      147
 90
        3
 90
      115
 90
      147
 90
      116
 90
        3
 90
      116
 90
      147
 90
      141
 90
        3
 90
      116
 90
      141
 90
      117
 90
        3
 90
      117
 90
      141
 90
      140
 90
        3
 90
      117
 90
      140
 90
      118
 90
        3
 90
      118
 90
      140
 90
      139
 90
        3
 90
      118
 90
      139
 90
      119
 90
        3
 90
      119
 90
      139
 90
      138
 90
        3
 90
      119
 90
      138
 90
      100
 90
        3
 90
      100
 90
      138
 90
      101
 90
        3
 90
      101
 90
      138
 90
      137
 90
        3
 90
      101
 90
      137
 90
      102
 90
        3
 90
      102
 90
      137
 90
      136
 90
        3
 90
      102
 90
      136
 90
      103
 90
        3
 90
      103
 90
      136
 90
      135
 90
        3
 90
      103
 90
      135
 90
      104
 90
        3
 90
      104
 90
      135
 90
      166
 90
        3
 90
      104
 90
      166
 90
      105
 90
        3
 90
      105
 90
      166
 90
      167
 90
        3
 90
      105
 90
      167
 90
      106
 90
        3
 90
      106
 90
      167
 90
       71
 90
        3
 90
      106
 90
       71
 90
       70
 90
        3
 90
       77
 90
       76
 90
      148
 90
        3
 90
      148
 90
       76
 90
       75
 90
        3
 90
      148
 90
       75
 90
       74
 90
        3
 90
      148
 90
       74
 90
      167
 90
        3
 90
      167
 90
       74
 90
       73
 90
        3
 90
      167
 90
       73
 90
       72
 90
        3
 90
       72
 90
       71
 90
      167
 90
        3
 90
      143
 90
      147
 90
      132
 90
        3
 90
      132
 90
      147
 90
      166
 90
        3
 90
      132
 90
      166
 90
      133
 90
        3
 90
      133
 90
      166
 90
      134
 90
        3
 90
      134
 90
      166
 90
      135
 90
        3
 90
      143
 90
      142
 90
      147
 90
        3
 90
      147
 90
      142
 90
      141
 90
        3
 90
      164
 90
      166
 90
      158
 90
        3
 90
      158
 90
      166
 90
      147
 90
        3
 90
      158
 90
      147
 90
      159
 90
        3
 90
      159
 90
      147
 90
      146
 90
        3
 90
      159
 90
      146
 90
      160
 90
        3
 90
      160
 90
      146
 90
      156
 90
        3
 90
      156
 90
      146
 90
      145
 90
        3
 90
      156
 90
      145
 90
      144
 90
        3
 90
      152
 90
      154
 90
      144
 90
        3
 90
      144
 90
      154
 90
      156
 90
        3
 90
      167
 90
      165
 90
      148
 90
        3
 90
      148
 90
      165
 90
      163
 90
        3
 90
      148
 90
      163
 90
      162
 90
        3
 90
      148
 90
      162
 90
      149
 90
        3
 90
      149
 90
      162
 90
      161
 90
        3
 90
      149
 90
      161
 90
      157
 90
        3
 90
      155
 90
      151
 90
      157
 90
        3
 90
      157
 90
      151
 90
      150
 90
        3
 90
      157
 90
      150
 90
      149
 90
        3
 90
      155
 90
      153
 90
      151
 94
      528
 90
        1
 90
       17
 90
        0
 90
       17
 90
        0
 90
        1
 90
       17
 90
       18
 90
        0
 90
       18
 90
       11
 90
       18
 90
        0
 90
       11
 90
       18
 90
       19
 90
       11
 90
       19
 90
       10
 90
       19
 90
       10
 90
       11
 90
       19
 90
       20
 90
       10
 90
       20
 90
        9
 90
       20
 90
        9
 90
       10
 90
       20
 90
       21
 90
        9
 90
       21
 90
        8
 90
       21
 90
        8
 90
        9
 90
       21
 90
       22
 90
        8
 90
       22
 90
        7
 90
       22
 90
        7
 90
        8
 90
       22
 90
       23
 90
        7
 90
       23
 90
        6
 90
       23
 90
        6
 90
        7
 90
       12
 90
       23
 90
        6
 90
       12
 90
        5
 90
       12
 90
        5
 90
        6
 90
       12
 90
       13
 90
        5
 90
       13
 90
        4
 90
       13
 90
        4
 90
        5
 90
       13
 90
       14
 90
        4
 90
       14
 90
        3
 90
       14
 90
        3
 90
        4
 90
       14
 90
       15
 90
        3
 90
       15
 90
        2
 90
       15
 90
        2
 90
        3
 90
       15
 90
       16
 90
        2
 90
       16
 90
        1
 90
       16
 90
        1
 90
        2
 90
       16
 90
       17
 90
       25
 90
       46
 90
       24
 90
       46
 90
       24
 90
       25
 90
       46
 90
       47
 90
       24
 90
       47
 90
       39
 90
       47
 90
       24
 90
       39
 90
       38
 90
       47
 90
       38
 90
       39
 90
       47
 90
       48
 90
       38
 90
       48
 90
       37
 90
       48
 90
       37
 90
       38
 90
       48
 90
       49
 90
       37
 90
       49
 90
       36
 90
       49
 90
       36
 90
       37
 90
       49
 90
       50
 90
       36
 90
       50
 90
       35
 90
       50
 90
       35
 90
       36
 90
       50
 90
       51
 90
       35
 90
       51
 90
       34
 90
       51
 90
       34
 90
       35
 90
       51
 90
       52
 90
       34
 90
       52
 90
       33
 90
       52
 90
       33
 90
       34
 90
       52
 90
       53
 90
       33
 90
       53
 90
       32
 90
       53
 90
       32
 90
       33
 90
       53
 90
       54
 90
       32
 90
       54
 90
       31
 90
       54
 90
       31
 90
       32
 90
       54
 90
       55
 90
       31
 90
       55
 90
       40
 90
       55
 90
       31
 90
       40
 90
       25
 90
       45
 90
       45
 90
       46
 90
       25
 90
       26
 90
       26
 90
       45
 90
       26
 90
       44
 90
       44
 90
       45
 90
       26
 90
       27
 90
       27
 90
       44
 90
       27
 90
       43
 90
       43
 90
       44
 90
       27
 90
       28
 90
       28
 90
       43
 90
       28
 90
       42
 90
       42
 90
       43
 90
       28
 90
       29
 90
       29
 90
       42
 90
       29
 90
       41
 90
       41
 90
       42
 90
       29
 90
       30
 90
       30
 90
       41
 90
       30
 90
       40
 90
       40
 90
       41
 90
       30
 90
       31
 90
       57
 90
       73
 90
       56
 90
       73
 90
       56
 90
       57
 90
       73
 90
       74
 90
       56
 90
       74
 90
       67
 90
       74
 90
       56
 90
       67
 90
       74
 90
       75
 90
       67
 90
       75
 90
       66
 90
       75
 90
       66
 90
       67
 90
       75
 90
       76
 90
       66
 90
       76
 90
       65
 90
       76
 90
       65
 90
       66
 90
       76
 90
       77
 90
       65
 90
       77
 90
       64
 90
       77
 90
       64
 90
       65
 90
       77
 90
       78
 90
       64
 90
       78
 90
       63
 90
       78
 90
       63
 90
       64
 90
       78
 90
       79
 90
       63
 90
       79
 90
       62
 90
       79
 90
       62
 90
       63
 90
       68
 90
       79
 90
       62
 90
       68
 90
       61
 90
       68
 90
       61
 90
       62
 90
       68
 90
       69
 90
       61
 90
       69
 90
       60
 90
       69
 90
       60
 90
       61
 90
       69
 90
       70
 90
       60
 90
       70
 90
       59
 90
       70
 90
       59
 90
       60
 90
       70
 90
       71
 90
       59
 90
       71
 90
       58
 90
       71
 90
       58
 90
       59
 90
       71
 90
       72
 90
       58
 90
       72
 90
       57
 90
       72
 90
       57
 90
       58
 90
       72
 90
       73
 90
       81
 90
      109
 90
       80
 90
      109
 90
       80
 90
       81
 90
      109
 90
      110
 90
       80
 90
      110
 90
       99
 90
      110
 90
       80
 90
       99
 90
      110
 90
      111
 90
       99
 90
      111
 90
       98
 90
      111
 90
       98
 90
       99
 90
      111
 90
      112
 90
       98
 90
      112
 90
       97
 90
      112
 90
       97
 90
       98
 90
      112
 90
      113
 90
       97
 90
      113
 90
       96
 90
      113
 90
       96
 90
       97
 90
      113
 90
      114
 90
       96
 90
      114
 90
       95
 90
      114
 90
       95
 90
       96
 90
      114
 90
      115
 90
       95
 90
      115
 90
       94
 90
      115
 90
       94
 90
       95
 90
      115
 90
      116
 90
       94
 90
      116
 90
       93
 90
      116
 90
       93
 90
       94
 90
      116
 90
      117
 90
       93
 90
      117
 90
       92
 90
      117
 90
       92
 90
       93
 90
      117
 90
      118
 90
       92
 90
      118
 90
       91
 90
      118
 90
       91
 90
       92
 90
      118
 90
      119
 90
       91
 90
      119
 90
       90
 90
      119
 90
       90
 90
       91
 90
      100
 90
      119
 90
       90
 90
      100
 90
       89
 90
      100
 90
       89
 90
       90
 90
      100
 90
      101
 90
       89
 90
      101
 90
       88
 90
      101
 90
       88
 90
       89
 90
      101
 90
      102
 90
       88
 90
      102
 90
       87
 90
      102
 90
       87
 90
       88
 90
      102
 90
      103
 90
       87
 90
      103
 90
       86
 90
      103
 90
       86
 90
       87
 90
      103
 90
      104
 90
       86
 90
      104
 90
       85
 90
      104
 90
       85
 90
       86
 90
      104
 90
      105
 90
       85
 90
      105
 90
       84
 90
      105
 90
       84
 90
       85
 90
      105
 90
      106
 90
       84
 90
      106
 90
       83
 90
      106
 90
       83
 90
       84
 90
      106
 90
      107
 90
       83
 90
      107
 90
       82
 90
      107
 90
       82
 90
       83
 90
      107
 90
      108
 90
       82
 90
      108
 90
       81
 90
      108
 90
       81
 90
       82
 90
      108
 90
      109
 90
      121
 90
      137
 90
      120
 90
      137
 90
      120
 90
      121
 90
      137
 90
      138
 90
      120
 90
      138
 90
      131
 90
      138
 90
      120
 90
      131
 90
      138
 90
      139
 90
      131
 90
      139
 90
      130
 90
      139
 90
      130
 90
      131
 90
      139
 90
      140
 90
      130
 90
      140
 90
      129
 90
      140
 90
      129
 90
      130
 90
      140
 90
      141
 90
      129
 90
      141
 90
      128
 90
      141
 90
      128
 90
      129
 90
      141
 90
      142
 90
      128
 90
      142
 90
      127
 90
      142
 90
      127
 90
      128
 90
      142
 90
      143
 90
      127
 90
      143
 90
      126
 90
      143
 90
      126
 90
      127
 90
      132
 90
      143
 90
      126
 90
      132
 90
      125
 90
      132
 90
      125
 90
      126
 90
      132
 90
      133
 90
      125
 90
      133
 90
      124
 90
      133
 90
      124
 90
      125
 90
      133
 90
      134
 90
      124
 90
      134
 90
      123
 90
      134
 90
      123
 90
      124
 90
      134
 90
      135
 90
      123
 90
      135
 90
      122
 90
      135
 90
      122
 90
      123
 90
      135
 90
      136
 90
      122
 90
      136
 90
      121
 90
      136
 90
      121
 90
      122
 90
      136
 90
      137
 90
      144
 90
      151
 90
      144
 90
      150
 90
      150
 90
      151
 90
      144
 90
      145
 90
      145
 90
      150
 90
      145
 90
      149
 90
      149
 90
      150
 90
      145
 90
      146
 90
      146
 90
      149
 90
      146
 90
      148
 90
      148
 90
      149
 90
      146
 90
      147
 90
      147
 90
      148
 90
       23
 90
       41
 90
       12
 90
       41
 90
       12
 90
       40
 90
       40
 90
      152
 90
       12
 90
      152
 90
       55
 90
      152
 90
       54
 90
      152
 90
       23
 90
       42
 90
       22
 90
       42
 90
       22
 90
       43
 90
       21
 90
       43
 90
       21
 90
       44
 90
       20
 90
       44
 90
       20
 90
       45
 90
       19
 90
       45
 90
       19
 90
       46
 90
       18
 90
       46
 90
       18
 90
      153
 90
       46
 90
      153
 90
       18
 90
      151
 90
      151
 90
      153
 90
       17
 90
      151
 90
       16
 90
      151
 90
       15
 90
      151
 90
       15
 90
      144
 90
       14
 90
      144
 90
       13
 90
      144
 90
       12
 90
      144
 90
      144
 90
      152
 90
       53
 90
      152
 90
       52
 90
      152
 90
       51
 90
      152
 90
       51
 90
      153
 90
      152
 90
      153
 90
       50
 90
      153
 90
       49
 90
      153
 90
       48
 90
      153
 90
       47
 90
      153
 90
      152
 90
      154
 90
      152
 90
      155
 90
      154
 90
      155
 90
      153
 90
      155
 90
       11
 90
       25
 90
        0
 90
       25
 90
        0
 90
       24
 90
       24
 90
      155
 90
        0
 90
      155
 90
       39
 90
      155
 90
       38
 90
      155
 90
       11
 90
       26
 90
       10
 90
       26
 90
       10
 90
       27
 90
        9
 90
       27
 90
        9
 90
       28
 90
        8
 90
       28
 90
        8
 90
       29
 90
        7
 90
       29
 90
        7
 90
       30
 90
        6
 90
       30
 90
        6
 90
      154
 90
       30
 90
      154
 90
        6
 90
      156
 90
      154
 90
      156
 90
        5
 90
      156
 90
        4
 90
      156
 90
        3
 90
      156
 90
        3
 90
      157
 90
      156
 90
      157
 90
        2
 90
      157
 90
        1
 90
      157
 90
        0
 90
      157
 90
      155
 90
      157
 90
       37
 90
      155
 90
       36
 90
      155
 90
       35
 90
      155
 90
       35
 90
      154
 90
       34
 90
      154
 90
       33
 90
      154
 90
       32
 90
      154
 90
       31
 90
      154
 90
      158
 90
      163
 90
      158
 90
      162
 90
      162
 90
      163
 90
      158
 90
      159
 90
      159
 90
      162
 90
      159
 90
      161
 90
      161
 90
      162
 90
      159
 90
      160
 90
      160
 90
      161
 90
      157
 90
      160
 90
      157
 90
      161
 90
      156
 90
      160
 90
       67
 90
      163
 90
       56
 90
      163
 90
      163
 90
      165
 90
       56
 90
      165
 90
       57
 90
      165
 90
       58
 90
      165
 90
       59
 90
      165
 90
       84
 90
      165
 90
       59
 90
       84
 90
       59
 90
       83
 90
       66
 90
      163
 90
       65
 90
      163
 90
       65
 90
       96
 90
       96
 90
      163
 90
       65
 90
       97
 90
       64
 90
       97
 90
       64
 90
       98
 90
       63
 90
       98
 90
       63
 90
       99
 90
       62
 90
       99
 90
       62
 90
       80
 90
       62
 90
       81
 90
       61
 90
       81
 90
       61
 90
       82
 90
       60
 90
       82
 90
       60
 90
       83
 90
       95
 90
      163
 90
       95
 90
      158
 90
       94
 90
      158
 90
       94
 90
      129
 90
      129
 90
      158
 90
       93
 90
      129
 90
       93
 90
      130
 90
       92
 90
      130
 90
       91
 90
      130
 90
       91
 90
      131
 90
       90
 90
      131
 90
       90
 90
      120
 90
       89
 90
      120
 90
       89
 90
      121
 90
       88
 90
      121
 90
       88
 90
      122
 90
       87
 90
      122
 90
       86
 90
      122
 90
       85
 90
      164
 90
       86
 90
      164
 90
      123
 90
      164
 90
       86
 90
      123
 90
       85
 90
      165
 90
      164
 90
      165
 90
      128
 90
      158
 90
      127
 90
      158
 90
      126
 90
      158
 90
      126
 90
      164
 90
      158
 90
      164
 90
      125
 90
      164
 90
      124
 90
      164
 90
      164
 90
      166
 90
      164
 90
      167
 90
      166
 90
      167
 90
      165
 90
      167
 90
       79
 90
      110
 90
       68
 90
      110
 90
       68
 90
      109
 90
       69
 90
      109
 90
       69
 90
      108
 90
       70
 90
      108
 90
       70
 90
      107
 90
       70
 90
      106
 90
       79
 90
      111
 90
       78
 90
      111
 90
       78
 90
      112
 90
       78
 90
      113
 90
       77
 90
      113
 90
       77
 90
      114
 90
       77
 90
      148
 90
      114
 90
      148
 90
      115
 90
      148
 90
      115
 90
      147
 90
      116
 90
      147
 90
      141
 90
      147
 90
      116
 90
      141
 90
      117
 90
      141
 90
      117
 90
      140
 90
      118
 90
      140
 90
      118
 90
      139
 90
      119
 90
      139
 90
      119
 90
      138
 90
      100
 90
      138
 90
      101
 90
      138
 90
      101
 90
      137
 90
      102
 90
      137
 90
      102
 90
      136
 90
      103
 90
      136
 90
      103
 90
      135
 90
      104
 90
      135
 90
      135
 90
      166
 90
      104
 90
      166
 90
      105
 90
      166
 90
      105
 90
      167
 90
      106
 90
      167
 90
       71
 90
      167
 90
       71
 90
      106
 90
       76
 90
      148
 90
       75
 90
      148
 90
       74
 90
      148
 90
       74
 90
      167
 90
      148
 90
      167
 90
       73
 90
      167
 90
       72
 90
      167
 90
      143
 90
      147
 90
      132
 90
      147
 90
      147
 90
      166
 90
      132
 90
      166
 90
      133
 90
      166
 90
      134
 90
      166
 90
      142
 90
      147
 90
      158
 90
      166
 90
      147
 90
      158
 90
      147
 90
      159
 90
      146
 90
      159
 90
      146
 90
      160
 90
      146
 90
      156
 90
      145
 90
      156
 90
      144
 90
      156
 90
      144
 90
      154
 90
      148
 90
      165
 90
      148
 90
      163
 90
      148
 90
      162
 90
      149
 90
      162
 90
      149
 90
      161
 90
      149
 90
      157
 90
      151
 90
      155
 90
      151
 90
      157
 90
      150
 90
      157
 95
      528
140
0.0
140
0.0
140
0.0
140
0.0
140
0.0
140
0.0
140
0.0
140
0.0
140
0.0
140
0.0
140
0.0
140
0.0
140
0.0
140
0.0
140
0.0
140
0.0
140
0.0
140
0.0
140
0.0
140
0.0
140
0.0
140
0.0
140
0.0
140
0.0
140
0.0
140
0.0
140
0.0
140
0.0
140
0.0
140
0.0
140
0.0
140
0.0
140
0.0
140
0.0
140
0.0
140
0.0
140
0.0
140
0.0
140
0.0
140
0.0
140
0.0
140
0.0
140
0.0
140
0.0
140
0.0
140
0.0
140
0.0
140
0.0
140
0.0
140
0.0
140
0.0
140
0.0
140
0.0
140
0.0
140
0.0
140
0.0
140
0.0
140
0.0
140
0.0
140
0.0
140
0.0
140
0.0
140
0.0
140
0.0
140
0.0
140
0.0
140
0.0
140
0.0
140
0.0
140
0.0
140
0.0
140
0.0
140
0.0
140
0.0
140
0.0
140
0.0
140
0.0
140
0.0
140
0.0
140
0.0
140
0.0
140
0.0
140
0.0
140
0.0
140
0.0
140
0.0
140
0.0
140
0.0
140
0.0
140
0.0
140
0.0
140
0.0
140
0.0
140
0.0
140
0.0
140
0.0
140
0.0
140
0.0
140
0.0
140
0.0
140
0.0
140
0.0
140
0.0
140
0.0
140
0.0
140
0.0
140
0.0
140
0.0
140
0.0
140
0.0
140
0.0
140
0.0
140
0.0
140
0.0
140
0.0
140
0.0
140
0.0
140
0.0
140
0.0
140
0.0
140
0.0
140
0.0
140
0.0
140
0.0
140
0.0
140
0.0
140
0.0
140
0.0
140
0.0
140
0.0
140
0.0
140
0.0
140
0.0
140
0.0
140
0.0
140
0.0
140
0.0
140
0.0
140
0.0
140
0.0
140
0.0
140
0.0
140
0.0
140
0.0
140
0.0
140
0.0
140
0.0
140
0.0
140
0.0
140
0.0
140
0.0
140
0.0
140
0.0
140
0.0
140
0.0
140
0.0
140
0.0
140
0.0
140
0.0
140
0.0
140
0.0
140
0.0
140
0.0
140
0.0
140
0.0
140
0.0
140
0.0
140
0.0
140
0.0
140
0.0
140
0.0
140
0.0
140
0.0
140
0.0
140
0.0
140
0.0
140
0.0
140
0.0
140
0.0
140
0.0
140
0.0
140
0.0
140
0.0
140
0.0
140
0.0
140
0.0
140
0.0
140
0.0
140
0.0
140
0.0
140
0.0
140
0.0
140
0.0
140
0.0
140
0.0
140
0.0
140
0.0
140
0.0
140
0.0
140
0.0
140
0.0
140
0.0
140
0.0
140
0.0
140
0.0
140
0.0
140
0.0
140
0.0
140
0.0
140
0.0
140
0.0
140
0.0
140
0.0
140
0.0
140
0.0
140
0.0
140
0.0
140
0.0
140
0.0
140
0.0
140
0.0
140
0.0
140
0.0
140
0.0
140
0.0
140
0.0
140
0.0
140
0.0
140
0.0
140
0.0
140
0.0
140
0.0
140
0.0
140
0.0
140
0.0
140
0.0
140
0.0
140
0.0
140
0.0
140
0.0
140
0.0
140
0.0
140
0.0
140
0.0
140
0.0
140
0.0
140
0.0
140
0.0
140
0.0
140
0.0
140
0.0
140
0.0
140
0.0
140
0.0
140
0.0
140
0.0
140
0.0
140
0.0
140
0.0
140
0.0
140
0.0
140
0.0
140
0.0
140
0.0
140
0.0
140
0.0
140
0.0
140
0.0
140
0.0
140
0.0
140
0.0
140
0.0
140
0.0
140
0.0
140
0.0
140
0.0
140
0.0
140
0.0
140
0.0
140
0.0
140
0.0
140
0.0
140
0.0
140
0.0
140
0.0
140
0.0
140
0.0
140
0.0
140
0.0
140
0.0
140
0.0
140
0.0
140
0.0
140
0.0
140
0.0
140
0.0
140
0.0
140
0.0
140
0.0
140
0.0
140
0.0
140
0.0
140
0.0
140
0.0
140
0.0
140
0.0
140
0.0
140
0.0
140
0.0
140
0.0
140
0.0
140
0.0
140
0.0
140
0.0
140
0.0
140
0.0
140
0.0
140
0.0
140
0.0
140
0.0
140
0.0
140
0.0
140
0.0
140
0.0
140
0.0
140
0.0
140
0.0
140
0.0
140
0.0
140
0.0
140
0.0
140
0.0
140
0.0
140
0.0
140
0.0
140
0.0
140
0.0
140
0.0
140
0.0
140
0.0
140
0.0
140
0.0
140
0.0
140
0.0
140
0.0
140
0.0
140
0.0
140
0.0
140
0.0
140
0.0
140
0.0
140
0.0
140
0.0
140
0.0
140
0.0
140
0.0
140
0.0
140
0.0
140
0.0
140
0.0
140
0.0
140
0.0
140
0.0
140
0.0
140
0.0
140
0.0
140
0.0
140
0.0
140
0.0
140
0.0
140
0.0
140
0.0
140
0.0
140
0.0
140
0.0
140
0.0
140
0.0
140
0.0
140
0.0
140
0.0
140
0.0
140
0.0
140
0.0
140
0.0
140
0.0
140
0.0
140
0.0
140
0.0
140
0.0
140
0.0
140
0.0
140
0.0
140
0.0
140
0.0
140
0.0
140
0.0
140
0.0
140
0.0
140
0.0
140
0.0
140
0.0
140
0.0
140
0.0
140
0.0
140
0.0
140
0.0
140
0.0
140
0.0
140
0.0
140
0.0
140
0.0
140
0.0
140
0.0
140
0.0
140
0.0
140
0.0
140
0.0
140
0.0
140
0.0
140
0.0
140
0.0
140
0.0
140
0.0
140
0.0
140
0.0
140
0.0
140
0.0
140
0.0
140
0.0
140
0.0
140
0.0
140
0.0
140
0.0
140
0.0
140
0.0
140
0.0
140
0.0
140
0.0
140
0.0
140
0.0
140
0.0
140
0.0
140
0.0
140
0.0
140
0.0
140
0.0
140
0.0
140
0.0
140
0.0
140
0.0
140
0.0
140
0.0
140
0.0
140
0.0
140
0.0
140
0.0
140
0.0
140
0.0
140
0.0
140
0.0
140
0.0
140
0.0
140
0.0
140
0.0
140
0.0
140
0.0
140
0.0
140
0.0
140
0.0
140
0.0
140
0.0
140
0.0
140
0.0
140
0.0
140
0.0
140
0.0
140
0.0
140
0.0
140
0.0
140
0.0
140
0.0
140
0.0
140
0.0
140
0.0
140
0.0
140
0.0
140
0.0
140
0.0
140
0.0
140
0.0
140
0.0
140
0.0
140
0.0
140
0.0
140
0.0
140
0.0
140
0.0
140
0.0
140
0.0
140
0.0
140
0.0
140
0.0
140
0.0
140
0.0
140
0.0
140
0.0
140
0.0
140
0.0
140
0.0
140
0.0
140
0.0
140
0.0
140
0.0
140
0.0
140
0.0
140
0.0
140
0.0
140
0.0
140
0.0
140
0.0
140
0.0
140
0.0
140
0.0
140
0.0
140
0.0
140
0.0
140
0.0
140
0.0
 90
        0
  0
ENDSEC
  0
SECTION
  2
OBJECTS
  0
DICTIONARY
  5
C
330
0
100
AcDbDictionary
281
     1
  3
ACAD_COLOR
350
DC
  3
ACAD_DETAILVIEWSTYLE
350
F5
  3
ACAD_GROUP
350
D
  3
ACAD_LAYOUT
350
1A
  3
ACAD_MATERIAL
350
AA
  3
ACAD_MLEADERSTYLE
350
F1
  3
ACAD_MLINESTYLE
350
17
  3
ACAD_PLOTSETTINGS
350
19
  3
ACAD_PLOTSTYLENAME
350
E
  3
ACAD_SCALELIST
350
DF
  3
ACAD_SECTIONVIEWSTYLE
350
F3
  3
ACAD_TABLESTYLE
350
DD
  3
ACAD_VISUALSTYLE
350
C3
  3
ACDB_RECOMPOSE_DATA
350
189
  3
AcDbVariableDictionary
350
17D
  0
DICTIONARY
  5
DC
102
{ACAD_REACTORS
330
C
102
}
330
C
100
AcDbDictionary
281
     1
  0
DICTIONARY
  5
F5
102
{ACAD_REACTORS
330
C
102
}
330
C
100
AcDbDictionary
281
     1
  3
Imperial24
350
F6
  0
DICTIONARY
  5
D
102
{ACAD_REACTORS
330
C
102
}
330
C
100
AcDbDictionary
281
     1
  0
DICTIONARY
  5
1A
102
{ACAD_REACTORS
330
C
102
}
330
C
100
AcDbDictionary
281
     1
  3
Layout1
350
1E
  3
Layout2
350
26
  3
Model
350
22
  0
DICTIONARY
  5
AA
102
{ACAD_REACTORS
330
C
102
}
330
C
100
AcDbDictionary
281
     1
  3
ByBlock
350
B3
  3
ByLayer
350
AB
  3
Global
350
BB
  0
DICTIONARY
  5
F1
102
{ACAD_REACTORS
330
C
102
}
330
C
100
AcDbDictionary
281
     1
  3
Standard
350
F2
  0
DICTIONARY
  5
17
102
{ACAD_REACTORS
330
C
102
}
330
C
100
AcDbDictionary
281
     1
  3
Standard
350
18
  0
DICTIONARY
  5
19
102
{ACAD_REACTORS
330
C
102
}
330
C
100
AcDbDictionary
281
     1
  0
ACDBDICTIONARYWDFLT
  5
E
102
{ACAD_REACTORS
330
C
102
}
330
C
100
AcDbDictionary
281
     1
  3
ByLayer
350
2D
  3
Normal
350
F
100
AcDbDictionaryWithDefault
340
F
  0
DICTIONARY
  5
DF
102
{ACAD_REACTORS
330
C
102
}
330
C
100
AcDbDictionary
281
     1
  3
A0
350
E0
  3
A1
350
E1
  3
A2
350
E2
  3
A3
350
E3
  3
A4
350
E4
  3
A5
350
E5
  3
A6
350
E6
  3
A7
350
E7
  3
A8
350
E8
  3
A9
350
E9
  3
B0
350
EA
  3
B1
350
EB
  3
B2
350
EC
  3
B3
350
ED
  3
B4
350
EE
  3
B5
350
EF
  3
B6
350
F0
  0
DICTIONARY
  5
F3
102
{ACAD_REACTORS
330
C
102
}
330
C
100
AcDbDictionary
281
     1
  3
Imperial24
350
F4
  0
DICTIONARY
  5
DD
102
{ACAD_REACTORS
330
C
102
}
330
C
100
AcDbDictionary
281
     1
  3
Standard
350
DE
  0
DICTIONARY
  5
C3
102
{ACAD_REACTORS
330
C
102
}
330
C
100
AcDbDictionary
281
     1
  3
2dWireframe
350
C9
  3
Basic
350
C8
  3
Brighten
350
CF
  3
ColorChange
350
D3
  3
Conceptual
350
CC
  3
Dim
350
CE
  3
EdgeColorOff
350
DB
  3
Facepattern
350
D2
  3
Flat
350
C4
  3
FlatWithEdges
350
C5
  3
Gouraud
350
C6
  3
GouraudWithEdges
350
C7
  3
Hidden
350
CB
  3
JitterOff
350
D9
  3
Linepattern
350
D1
  3
OverhangOff
350
DA
  3
Realistic
350
CD
  3
Shaded
350
D8
  3
Shaded with edges
350
D7
  3
Shades of Gray
350
D4
  3
Sketchy
350
D5
  3
Thicken
350
D0
  3
Wireframe
350
CA
  3
X-Ray
350
D6
  0
XRECORD
  5
189
102
{ACAD_REACTORS
330
C
102
}
330
C
100
AcDbXrecord
280
     1
 90
        1
330
DE
  0
DICTIONARY
  5
17D
102
{ACAD_REACTORS
330
C
102
}
330
C
100
AcDbDictionary
281
     1
  3
CANNOSCALE
350
183
  3
CMLEADERSTYLE
350
17F
  3
CTABLESTYLE
350
17E
  3
CVIEWDETAILSTYLE
350
180
  3
CVIEWSECTIONSTYLE
350
181
  3
LAYEREVAL
350
185
  3
LAYERNOTIFY
350
186
  3
LIGHTINGUNITS
350
184
  3
MSLTSCALE
350
182
  0
ACDBDETAILVIEWSTYLE
  5
F6
102
{ACAD_XDICTIONARY
360
1BE
102
}
102
{ACAD_REACTORS
330
F5
102
}
330
F5
100
AcDbModelDocViewStyle
 70
     0
  3
Imperial24
290
     0
100
AcDbDetailViewStyle
 70
     0
 71
     0
 90
        3
 71
     1
340
11
 62
   256
 40
0.24
340
0
 62
   256
 40
0.24
300

 40
0.36
280
     3
 71
     2
340
16
 90
       25
 62
   256
 71
     3
340
11
 62
   256
 40
0.24
 90
        1
 40
0.75
 90
        1
300
%<\AcVar ViewType \f "%tc1">% %<\AcVar ViewDetailId>%\PSCALE %<\AcVar ViewScale \f "%sn">%
 71
     4
340
16
 90
       25
 62
   256
340
16
 90
       25
 62
   256
280
     0
  0
LAYOUT
  5
1E
102
{ACAD_REACTORS
330
1A
102
}
330
1A
100
AcDbPlotSettings
  1

  2
\\KTXNTBDC\CASF2PN1
  4

  6

 40
0.0
 41
0.0
 42
0.0
 43
0.0
 44
0.0
 45
0.0
 46
0.0
 47
0.0
 48
0.0
 49
0.0
140
0.0
141
0.0
142
1.0
143
1.0
 70
   688
 72
     0
 73
     0
 74
     5
  7

 75
    16
147
1.0
 76
     0
 77
     2
 78
   300
148
0.0
149
0.0
100
AcDbLayout
  1
Layout1
 70
     1
 71
     1
 10
0.0
 20
0.0
 11
12.0
 21
9.0
 12
0.0
 22
0.0
 32
0.0
 14
1.000000000000000E+20
 24
1.000000000000000E+20
 34
1.000000000000000E+20
 15
-1.000000000000000E+20
 25
-1.000000000000000E+20
 35
-1.000000000000000E+20
146
0.0
 13
0.0
 23
0.0
 33
0.0
 16
1.0
 26
0.0
 36
0.0
 17
0.0
 27
1.0
 37
0.0
 76
     0
330
1B
  0
LAYOUT
  5
26
102
{ACAD_REACTORS
330
1A
102
}
330
1A
100
AcDbPlotSettings
  1

  2
\\KTXNTBDC\CASF2PN1
  4

  6

 40
0.0
 41
0.0
 42
0.0
 43
0.0
 44
0.0
 45
0.0
 46
0.0
 47
0.0
 48
0.0
 49
0.0
140
0.0
141
0.0
142
1.0
143
1.0
 70
   688
 72
     0
 73
     0
 74
     5
  7

 75
    16
147
1.0
 76
     0
 77
     2
 78
   300
148
0.0
149
0.0
100
AcDbLayout
  1
Layout2
 70
     1
 71
     2
 10
0.0
 20
0.0
 11
12.0
 21
9.0
 12
0.0
 22
0.0
 32
0.0
 14
0.0
 24
0.0
 34
0.0
 15
0.0
 25
0.0
 35
0.0
146
0.0
 13
0.0
 23
0.0
 33
0.0
 16
1.0
 26
0.0
 36
0.0
 17
0.0
 27
1.0
 37
0.0
 76
     0
330
23
  0
LAYOUT
  5
22
102
{ACAD_REACTORS
330
1A
102
}
330
1A
100
AcDbPlotSettings
  1

  2
\\KTXNTBDC\CASF2PN1
  4

  6

 40
0.0
 41
0.0
 42
0.0
 43
0.0
 44
0.0
 45
0.0
 46
0.0
 47
0.0
 48
0.0
 49
0.0
140
0.0
141
0.0
142
1.0
143
1.0
 70
  1712
 72
     0
 73
     0
 74
     0
  7

 75
     0
147
1.0
 76
     0
 77
     2
 78
   300
148
0.0
149
0.0
100
AcDbLayout
  1
Model
 70
     1
 71
     0
 10
0.0
 20
0.0
 11
12.0
 21
9.0
 12
0.0
 22
0.0
 32
0.0
 14
0.0
 24
0.0
 34
0.0
 15
0.0
 25
0.0
 35
0.0
146
0.0
 13
0.0
 23
0.0
 33
0.0
 16
1.0
 26
0.0
 36
0.0
 17
0.0
 27
1.0
 37
0.0
 76
     0
330
1F
  0
MATERIAL
  5
B3
102
{ACAD_XDICTIONARY
360
B4
102
}
102
{ACAD_REACTORS
330
AA
102
}
330
AA
100
AcDbMaterial
  1
ByBlock
 72
     0
 43
0.0208333333333333
 43
0.0
 43
0.0
 43
0.0
 43
0.0
 43
0.0208333333333333
 43
0.0
 43
0.0
 43
0.0
 43
0.0
 43
1.0
 43
0.0
 43
0.0
 43
0.0
 43
0.0
 43
1.0
 77
     0
 47
0.0208333333333333
 47
0.0
 47
0.0
 47
0.0
 47
0.0
 47
0.0208333333333333
 47
0.0
 47
0.0
 47
0.0
 47
0.0
 47
1.0
 47
0.0
 47
0.0
 47
0.0
 47
0.0
 47
1.0
171
     0
 49
0.0208333333333333
 49
0.0
 49
0.0
 49
0.0
 49
0.0
 49
0.0208333333333333
 49
0.0
 49
0.0
 49
0.0
 49
0.0
 49
1.0
 49
0.0
 49
0.0
 49
0.0
 49
0.0
 49
1.0
175
     0
142
0.0208333333333333
142
0.0
142
0.0
142
0.0
142
0.0
142
0.0208333333333333
142
0.0
142
0.0
142
0.0
142
0.0
142
1.0
142
0.0
142
0.0
142
0.0
142
0.0
142
1.0
179
     0
144
0.0208333333333333
144
0.0
144
0.0
144
0.0
144
0.0
144
0.0208333333333333
144
0.0
144
0.0
144
0.0
144
0.0
144
1.0
144
0.0
144
0.0
144
0.0
144
0.0
144
1.0
147
0.0208333333333333
147
0.0
147
0.0
147
0.0
147
0.0
147
0.0208333333333333
147
0.0
147
0.0
147
0.0
147
0.0
147
1.0
147
0.0
147
0.0
147
0.0
147
0.0
147
1.0
  0
MATERIAL
  5
AB
102
{ACAD_XDICTIONARY
360
AC
102
}
102
{ACAD_REACTORS
330
AA
102
}
330
AA
100
AcDbMaterial
  1
ByLayer
 72
     0
 43
0.0208333333333333
 43
0.0
 43
0.0
 43
0.0
 43
0.0
 43
0.0208333333333333
 43
0.0
 43
0.0
 43
0.0
 43
0.0
 43
1.0
 43
0.0
 43
0.0
 43
0.0
 43
0.0
 43
1.0
 77
     0
 47
0.0208333333333333
 47
0.0
 47
0.0
 47
0.0
 47
0.0
 47
0.0208333333333333
 47
0.0
 47
0.0
 47
0.0
 47
0.0
 47
1.0
 47
0.0
 47
0.0
 47
0.0
 47
0.0
 47
1.0
171
     0
 49
0.0208333333333333
 49
0.0
 49
0.0
 49
0.0
 49
0.0
 49
0.0208333333333333
 49
0.0
 49
0.0
 49
0.0
 49
0.0
 49
1.0
 49
0.0
 49
0.0
 49
0.0
 49
0.0
 49
1.0
175
     0
142
0.0208333333333333
142
0.0
142
0.0
142
0.0
142
0.0
142
0.0208333333333333
142
0.0
142
0.0
142
0.0
142
0.0
142
1.0
142
0.0
142
0.0
142
0.0
142
0.0
142
1.0
179
     0
144
0.0208333333333333
144
0.0
144
0.0
144
0.0
144
0.0
144
0.0208333333333333
144
0.0
144
0.0
144
0.0
144
0.0
144
1.0
144
0.0
144
0.0
144
0.0
144
0.0
144
1.0
147
0.0208333333333333
147
0.0
147
0.0
147
0.0
147
0.0
147
0.0208333333333333
147
0.0
147
0.0
147
0.0
147
0.0
147
1.0
147
0.0
147
0.0
147
0.0
147
0.0
147
1.0
  0
MATERIAL
  5
BB
102
{ACAD_XDICTIONARY
360
BC
102
}
102
{ACAD_REACTORS
330
AA
102
}
330
AA
100
AcDbMaterial
  1
Global
 72
     0
 43
0.0208333333333333
 43
0.0
 43
0.0
 43
0.0
 43
0.0
 43
0.0208333333333333
 43
0.0
 43
0.0
 43
0.0
 43
0.0
 43
1.0
 43
0.0
 43
0.0
 43
0.0
 43
0.0
 43
1.0
 77
     0
 47
0.0208333333333333
 47
0.0
 47
0.0
 47
0.0
 47
0.0
 47
0.0208333333333333
 47
0.0
 47
0.0
 47
0.0
 47
0.0
 47
1.0
 47
0.0
 47
0.0
 47
0.0
 47
0.0
 47
1.0
171
     0
 49
0.0208333333333333
 49
0.0
 49
0.0
 49
0.0
 49
0.0
 49
0.0208333333333333
 49
0.0
 49
0.0
 49
0.0
 49
0.0
 49
1.0
 49
0.0
 49
0.0
 49
0.0
 49
0.0
 49
1.0
175
     0
142
0.0208333333333333
142
0.0
142
0.0
142
0.0
142
0.0
142
0.0208333333333333
142
0.0
142
0.0
142
0.0
142
0.0
142
1.0
142
0.0
142
0.0
142
0.0
142
0.0
142
1.0
179
     0
144
0.0208333333333333
144
0.0
144
0.0
144
0.0
144
0.0
144
0.0208333333333333
144
0.0
144
0.0
144
0.0
144
0.0
144
1.0
144
0.0
144
0.0
144
0.0
144
0.0
144
1.0
147
0.0208333333333333
147
0.0
147
0.0
147
0.0
147
0.0
147
0.0208333333333333
147
0.0
147
0.0
147
0.0
147
0.0
147
1.0
147
0.0
147
0.0
147
0.0
147
0.0
147
1.0
  0
MLEADERSTYLE
  5
F2
102
{ACAD_XDICTIONARY
360
1BA
102
}
102
{ACAD_REACTORS
330
F1
102
}
330
F1
100
AcDbMLeaderStyle
179
     2
170
     2
171
     1
172
     0
 90
        2
 40
0.0
 41
0.0
173
     1
 91
-1056964608
340
14
 92
       -2
290
     1
 42
0.09
291
     1
 43
0.36
  3
Standard
 44
0.18
300

342
11
174
     1
178
     6
175
     1
176
     0
 93
-1056964608
 45
0.18
292
     0
297
     0
 46
0.18
 94
-1056964608
 47
1.0
 49
1.0
140
1.0
293
     1
141
0.0
294
     1
177
     0
142
1.0
295
     0
296
     0
143
0.125
271
     0
272
     9
273
     9
  0
MLINESTYLE
  5
18
102
{ACAD_REACTORS
330
17
102
}
330
17
100
AcDbMlineStyle
  2
STANDARD
 70
     0
  3

 62
   256
 51
90.0
 52
90.0
 71
     2
 49
0.5
 62
   256
  6
BYLAYER
 49
-0.5
 62
   256
  6
BYLAYER
  0
ACDBPLACEHOLDER
  5
2D
102
{ACAD_REACTORS
330
E
102
}
330
E
  0
ACDBPLACEHOLDER
  5
F
102
{ACAD_REACTORS
330
E
102
}
330
E
  0
SCALE
  5
E0
102
{ACAD_REACTORS
330
DF
102
}
330
DF
100
AcDbScale
 70
     0
300
1:1
140
1.0
141
1.0
290
     1
  0
SCALE
  5
E1
102
{ACAD_REACTORS
330
DF
102
}
330
DF
100
AcDbScale
 70
     0
300
1/128" = 1'-0"
140
0.0078125
141
12.0
290
     0
  0
SCALE
  5
E2
102
{ACAD_REACTORS
330
DF
102
}
330
DF
100
AcDbScale
 70
     0
300
1/64" = 1'-0"
140
0.015625
141
12.0
290
     0
  0
SCALE
  5
E3
102
{ACAD_REACTORS
330
DF
102
}
330
DF
100
AcDbScale
 70
     0
300
1/32" = 1'-0"
140
0.03125
141
12.0
290
     0
  0
SCALE
  5
E4
102
{ACAD_REACTORS
330
DF
102
}
330
DF
100
AcDbScale
 70
     0
300
1/16" = 1'-0"
140
0.0625
141
12.0
290
     0
  0
SCALE
  5
E5
102
{ACAD_REACTORS
330
DF
102
}
330
DF
100
AcDbScale
 70
     0
300
3/32" = 1'-0"
140
0.09375
141
12.0
290
     0
  0
SCALE
  5
E6
102
{ACAD_REACTORS
330
DF
102
}
330
DF
100
AcDbScale
 70
     0
300
1/8" = 1'-0"
140
0.125
141
12.0
290
     0
  0
SCALE
  5
E7
102
{ACAD_REACTORS
330
DF
102
}
330
DF
100
AcDbScale
 70
     0
300
3/16" = 1'-0"
140
0.1875
141
12.0
290
     0
  0
SCALE
  5
E8
102
{ACAD_REACTORS
330
DF
102
}
330
DF
100
AcDbScale
 70
     0
300
1/4" = 1'-0"
140
0.25
141
12.0
290
     0
  0
SCALE
  5
E9
102
{ACAD_REACTORS
330
DF
102
}
330
DF
100
AcDbScale
 70
     0
300
3/8" = 1'-0"
140
0.375
141
12.0
290
     0
  0
SCALE
  5
EA
102
{ACAD_REACTORS
330
DF
102
}
330
DF
100
AcDbScale
 70
     0
300
1/2" = 1'-0"
140
0.5
141
12.0
290
     0
  0
SCALE
  5
EB
102
{ACAD_REACTORS
330
DF
102
}
330
DF
100
AcDbScale
 70
     0
300
3/4" = 1'-0"
140
0.75
141
12.0
290
     0
  0
SCALE
  5
EC
102
{ACAD_REACTORS
330
DF
102
}
330
DF
100
AcDbScale
 70
     0
300
1" = 1'-0"
140
1.0
141
12.0
290
     0
  0
SCALE
  5
ED
102
{ACAD_REACTORS
330
DF
102
}
330
DF
100
AcDbScale
 70
     0
300
1-1/2" = 1'-0"
140
1.5
141
12.0
290
     0
  0
SCALE
  5
EE
102
{ACAD_REACTORS
330
DF
102
}
330
DF
100
AcDbScale
 70
     0
300
3" = 1'-0"
140
3.0
141
12.0
290
     0
  0
SCALE
  5
EF
102
{ACAD_REACTORS
330
DF
102
}
330
DF
100
AcDbScale
 70
     0
300
6" = 1'-0"
140
6.0
141
12.0
290
     0
  0
SCALE
  5
F0
102
{ACAD_REACTORS
330
DF
102
}
330
DF
100
AcDbScale
 70
     0
300
1'-0" = 1'-0"
140
12.0
141
12.0
290
     0
  0
ACDBSECTIONVIEWSTYLE
  5
F4
102
{ACAD_XDICTIONARY
360
1BC
102
}
102
{ACAD_REACTORS
330
F3
102
}
330
F3
100
AcDbModelDocViewStyle
 70
     0
  3
Imperial24
290
     0
100
AcDbSectionViewStyle
 70
     0
 71
     0
 90
       78
 71
     1
340
11
 62
   256
 40
0.24
340
0
340
0
 62
   256
 40
0.24
300
I, O, Q, S, X, Z
 40
0.48
 90
        3
 40
0.18
 90
        1
 71
     2
340
16
 90
       25
 62
   256
340
16
 90
       50
 62
   256
 40
0.24
 40
0.0
 40
0.24
 71
     3
340
11
 62
   256
 40
0.24
 90
        1
 40
0.75
 90
        1
300
%<\AcVar ViewType \f "%tc1">% %<\AcVar ViewSectionStartId>%-%<\AcVar ViewSectionEndId>%\PSCALE %<\AcVar ViewScale \f "%sn">%
 71
     4
 62
   256
 62
   257
300
ANSI31
 40
1.0
 90
        0
290
     0
290
     0
 90
        6
 40
0.0
 40
1.570796326794896
 40
0.2617993877991494
 40
1.308996938995747
 40
-0.2617993877991494
 40
1.832595714594046
  0
TABLESTYLE
  5
DE
102
{ACAD_XDICTIONARY
360
187
102
}
102
{ACAD_REACTORS
330
DD
102
}
330
DD
100
AcDbTableStyle
280
     0
  3
Standard
 70
     0
 71
     0
 40
0.06
 41
0.06
280
     0
281
     0
  7
Standard
140
0.18
170
     2
 62
     0
 63
     7
283
     0
 90
      512
 91
        0
  1

274
    -2
284
     1
 64
     0
275
    -2
285
     1
 65
     0
276
    -2
286
     1
 66
     0
277
    -2
287
     1
 67
     0
278
    -2
288
     1
 68
     0
279
    -2
289
     1
 69
     0
  7
Standard
140
0.25
170
     5
 62
     0
 63
     7
283
     0
 90
      512
 91
        0
  1

274
    -2
284
     1
 64
     0
275
    -2
285
     1
 65
     0
276
    -2
286
     1
 66
     0
277
    -2
287
     1
 67
     0
278
    -2
288
     1
 68
     0
279
    -2
289
     1
 69
     0
  7
Standard
140
0.18
170
     5
 62
     0
 63
     7
283
     0
 90
      512
 91
        0
  1

274
    -2
284
     1
 64
     0
275
    -2
285
     1
 65
     0
276
    -2
286
     1
 66
     0
277
    -2
287
     1
 67
     0
278
    -2
288
     1
 68
     0
279
    -2
289
     1
 69
     0
  0
VISUALSTYLE
  5
C9
102
{ACAD_XDICTIONARY
360
194
102
}
102
{ACAD_REACTORS
330
C3
102
}
330
C3
100
AcDbVisualStyle
  2
2dWireframe
 70
     4
177
     2
291
     0
 71
     0
176
     1
 72
     2
176
     1
 73
     0
176
     1
 90
        0
176
     1
 40
0.6
176
     1
 41
30.0
176
     1
 63
     7
421
 16777215
176
     1
 74
     1
176
     1
 91
        4
176
     1
 64
     7
176
     1
 65
   257
176
     1
 75
     1
176
     1
175
     1
176
     1
 42
1.0
176
     1
 92
        0
176
     1
 66
   257
176
     1
 43
1.0
176
     1
 76
     1
176
     1
 77
     6
176
     1
 78
     2
176
     1
 67
     7
176
     1
 79
     5
176
     1
170
     0
176
     1
171
     0
176
     1
290
     0
176
     1
 93
        1
176
     1
 44
0.0
176
     1
173
     0
176
     1
1001
ACAD
1000
AcDbSavedByObjectVersion
1070
     0
  0
VISUALSTYLE
  5
C8
102
{ACAD_XDICTIONARY
360
192
102
}
102
{ACAD_REACTORS
330
C3
102
}
330
C3
100
AcDbVisualStyle
  2
Basic
 70
     7
177
     2
291
     1
 71
     1
176
     1
 72
     0
176
     1
 73
     1
176
     1
 90
        0
176
     1
 40
0.6
176
     1
 41
30.0
176
     1
 63
     7
421
 16777215
176
     1
 74
     0
176
     1
 91
        4
176
     1
 64
     7
176
     1
 65
   257
176
     1
 75
     1
176
     1
175
     1
176
     1
 42
1.0
176
     1
 92
        8
176
     1
 66
     7
176
     1
 43
1.0
176
     1
 76
     1
176
     1
 77
     6
176
     1
 78
     2
176
     1
 67
     7
176
     1
 79
     5
176
     1
170
     0
176
     1
171
     0
176
     1
290
     0
176
     1
 93
        1
176
     1
 44
0.0
176
     1
173
     0
176
     1
1001
ACAD
1000
AcDbSavedByObjectVersion
1070
     0
  0
VISUALSTYLE
  5
CF
102
{ACAD_XDICTIONARY
360
1A0
102
}
102
{ACAD_REACTORS
330
C3
102
}
330
C3
100
AcDbVisualStyle
  2
Brighten
 70
    12
177
     2
291
     1
 71
     2
176
     1
 72
     2
176
     1
 73
     0
176
     1
 90
        0
176
     1
 40
0.6
176
     1
 41
30.0
176
     1
 63
     7
421
 16777215
176
     1
 74
     1
176
     1
 91
        4
176
     1
 64
     7
176
     1
 65
   257
176
     1
 75
     1
176
     1
175
     1
176
     1
 42
1.0
176
     1
 92
        8
176
     1
 66
     7
176
     1
 43
1.0
176
     1
 76
     1
176
     1
 77
     6
176
     1
 78
     2
176
     1
 67
     7
176
     1
 79
     5
176
     1
170
     0
176
     1
171
     0
176
     1
290
     0
176
     1
 93
        1
176
     1
 44
50.0
176
     1
173
     0
176
     1
1001
ACAD
1000
AcDbSavedByObjectVersion
1070
     0
  0
VISUALSTYLE
  5
D3
102
{ACAD_XDICTIONARY
360
1A8
102
}
102
{ACAD_REACTORS
330
C3
102
}
330
C3
100
AcDbVisualStyle
  2
ColorChange
 70
    16
177
     2
291
     1
 71
     2
176
     1
 72
     2
176
     1
 73
     3
176
     1
 90
        0
176
     1
 40
0.6
176
     1
 41
30.0
176
     1
 63
     8
421
  8421504
176
     1
 74
     1
176
     1
 91
        4
176
     1
 64
     7
176
     1
 65
   257
176
     1
 75
     1
176
     1
175
     1
176
     1
 42
1.0
176
     1
 92
        8
176
     1
 66
     8
424
  8421504
176
     1
 43
1.0
176
     1
 76
     1
176
     1
 77
     6
176
     1
 78
     2
176
     1
 67
     7
176
     1
 79
     5
176
     1
170
     0
176
     1
171
     0
176
     1
290
     0
176
     1
 93
        1
176
     1
 44
0.0
176
     1
173
     0
176
     1
1001
ACAD
1000
AcDbSavedByObjectVersion
1070
     0
  0
VISUALSTYLE
  5
CC
102
{ACAD_XDICTIONARY
360
19A
102
}
102
{ACAD_REACTORS
330
C3
102
}
330
C3
100
AcDbVisualStyle
  2
Conceptual
 70
     9
177
     2
291
     0
 71
     3
176
     1
 72
     2
176
     1
 73
     0
176
     1
 90
        0
176
     1
 40
0.6
176
     1
 41
30.0
176
     1
 63
     7
421
 16777215
176
     1
 74
     2
176
     1
 91
        2
176
     1
 64
     7
176
     1
 65
   257
176
     1
 75
     1
176
     1
175
     1
176
     1
 42
179.0
176
     1
 92
        8
176
     1
 66
     7
176
     1
 43
1.0
176
     1
 76
     1
176
     1
 77
     6
176
     1
 78
     2
176
     1
 67
     7
176
     1
 79
     3
176
     1
170
     0
176
     1
171
     0
176
     1
290
     0
176
     1
 93
        1
176
     1
 44
0.0
176
     1
173
     0
176
     1
1001
ACAD
1000
AcDbSavedByObjectVersion
1070
     0
  0
VISUALSTYLE
  5
CE
102
{ACAD_XDICTIONARY
360
19E
102
}
102
{ACAD_REACTORS
330
C3
102
}
330
C3
100
AcDbVisualStyle
  2
Dim
 70
    11
177
     2
291
     1
 71
     2
176
     1
 72
     2
176
     1
 73
     0
176
     1
 90
        0
176
     1
 40
0.6
176
     1
 41
30.0
176
     1
 63
     7
421
 16777215
176
     1
 74
     1
176
     1
 91
        4
176
     1
 64
     7
176
     1
 65
   257
176
     1
 75
     1
176
     1
175
     1
176
     1
 42
1.0
176
     1
 92
        8
176
     1
 66
     7
176
     1
 43
1.0
176
     1
 76
     1
176
     1
 77
     6
176
     1
 78
     2
176
     1
 67
     7
176
     1
 79
     5
176
     1
170
     0
176
     1
171
     0
176
     1
290
     0
176
     1
 93
        1
176
     1
 44
-50.0
176
     1
173
     0
176
     1
1001
ACAD
1000
AcDbSavedByObjectVersion
1070
     0
  0
VISUALSTYLE
  5
DB
102
{ACAD_XDICTIONARY
360
1B8
102
}
102
{ACAD_REACTORS
330
C3
102
}
330
C3
100
AcDbVisualStyle
  2
EdgeColorOff
 70
    22
177
     2
291
     1
 71
     2
176
     0
 72
     2
176
     0
 73
     0
176
     0
 90
        0
176
     0
 40
0.6
176
     0
 41
30.0
176
     0
 63
     7
421
 16777215
176
     0
 74
     1
176
     0
 91
        4
176
     0
 64
     7
176
     0
 65
   257
176
     0
 75
     1
176
     0
175
     1
176
     0
 42
1.0
176
     0
 92
        8
176
     2
 66
     7
176
     0
 43
1.0
176
     0
 76
     1
176
     0
 77
     6
176
     0
 78
     2
176
     0
 67
     7
176
     0
 79
     5
176
     0
170
     0
176
     0
171
     0
176
     0
290
     0
176
     0
 93
        1
176
     0
 44
0.0
176
     0
173
     0
176
     0
1001
ACAD
1000
AcDbSavedByObjectVersion
1070
     0
  0
VISUALSTYLE
  5
D2
102
{ACAD_XDICTIONARY
360
1A6
102
}
102
{ACAD_REACTORS
330
C3
102
}
330
C3
100
AcDbVisualStyle
  2
Facepattern
 70
    15
177
     2
291
     1
 71
     2
176
     1
 72
     2
176
     1
 73
     0
176
     1
 90
        0
176
     1
 40
0.6
176
     1
 41
30.0
176
     1
 63
     7
421
 16777215
176
     1
 74
     1
176
     1
 91
        4
176
     1
 64
     7
176
     1
 65
   257
176
     1
 75
     1
176
     1
175
     1
176
     1
 42
1.0
176
     1
 92
        8
176
     1
 66
     7
176
     1
 43
1.0
176
     1
 76
     1
176
     1
 77
     6
176
     1
 78
     2
176
     1
 67
     7
176
     1
 79
     5
176
     1
170
     0
176
     1
171
     0
176
     1
290
     0
176
     1
 93
        1
176
     1
 44
0.0
176
     1
173
     0
176
     1
1001
ACAD
1000
AcDbSavedByObjectVersion
1070
     0
  0
VISUALSTYLE
  5
C4
102
{ACAD_XDICTIONARY
360
18A
102
}
102
{ACAD_REACTORS
330
C3
102
}
330
C3
100
AcDbVisualStyle
  2
Flat
 70
     0
177
     2
291
     1
 71
     2
176
     1
 72
     1
176
     1
 73
     1
176
     1
 90
        2
176
     1
 40
0.6
176
     1
 41
30.0
176
     1
 63
     7
421
 16777215
176
     1
 74
     0
176
     1
 91
        0
176
     1
 64
     7
176
     1
 65
   257
176
     1
 75
     1
176
     1
175
     1
176
     1
 42
1.0
176
     1
 92
        8
176
     1
 66
     7
176
     1
 43
1.0
176
     1
 76
     1
176
     1
 77
     6
176
     1
 78
     2
176
     1
 67
     7
176
     1
 79
     5
176
     1
170
     0
176
     1
171
     0
176
     1
290
     0
176
     1
 93
       13
176
     1
 44
0.0
176
     1
173
     0
176
     1
1001
ACAD
1000
AcDbSavedByObjectVersion
1070
     0
  0
VISUALSTYLE
  5
C5
102
{ACAD_XDICTIONARY
360
18C
102
}
102
{ACAD_REACTORS
330
C3
102
}
330
C3
100
AcDbVisualStyle
  2
FlatWithEdges
 70
     1
177
     2
291
     1
 71
     2
176
     1
 72
     1
176
     1
 73
     1
176
     1
 90
        2
176
     1
 40
0.6
176
     1
 41
30.0
176
     1
 63
     7
421
 16777215
176
     1
 74
     1
176
     1
 91
        0
176
     1
 64
     7
176
     1
 65
   257
176
     1
 75
     1
176
     1
175
     1
176
     1
 42
1.0
176
     1
 92
        0
176
     1
 66
   257
176
     1
 43
1.0
176
     1
 76
     1
176
     1
 77
     6
176
     1
 78
     2
176
     1
 67
     7
176
     1
 79
     5
176
     1
170
     0
176
     1
171
     0
176
     1
290
     0
176
     1
 93
       13
176
     1
 44
0.0
176
     1
173
     0
176
     1
1001
ACAD
1000
AcDbSavedByObjectVersion
1070
     0
  0
VISUALSTYLE
  5
C6
102
{ACAD_XDICTIONARY
360
18E
102
}
102
{ACAD_REACTORS
330
C3
102
}
330
C3
100
AcDbVisualStyle
  2
Gouraud
 70
     2
177
     2
291
     1
 71
     2
176
     1
 72
     2
176
     1
 73
     1
176
     1
 90
        2
176
     1
 40
0.6
176
     1
 41
30.0
176
     1
 63
     7
421
 16777215
176
     1
 74
     0
176
     1
 91
        0
176
     1
 64
     7
176
     1
 65
   257
176
     1
 75
     1
176
     1
175
     1
176
     1
 42
1.0
176
     1
 92
        0
176
     1
 66
     7
176
     1
 43
1.0
176
     1
 76
     1
176
     1
 77
     6
176
     1
 78
     2
176
     1
 67
     7
176
     1
 79
     5
176
     1
170
     0
176
     1
171
     0
176
     1
290
     0
176
     1
 93
       13
176
     1
 44
0.0
176
     1
173
     0
176
     1
1001
ACAD
1000
AcDbSavedByObjectVersion
1070
     0
  0
VISUALSTYLE
  5
C7
102
{ACAD_XDICTIONARY
360
190
102
}
102
{ACAD_REACTORS
330
C3
102
}
330
C3
100
AcDbVisualStyle
  2
GouraudWithEdges
 70
     3
177
     2
291
     1
 71
     2
176
     1
 72
     2
176
     1
 73
     1
176
     1
 90
        2
176
     1
 40
0.6
176
     1
 41
30.0
176
     1
 63
     7
421
 16777215
176
     1
 74
     1
176
     1
 91
        0
176
     1
 64
     7
176
     1
 65
   257
176
     1
 75
     1
176
     1
175
     1
176
     1
 42
1.0
176
     1
 92
        0
176
     1
 66
   257
176
     1
 43
1.0
176
     1
 76
     1
176
     1
 77
     6
176
     1
 78
     2
176
     1
 67
     7
176
     1
 79
     5
176
     1
170
     0
176
     1
171
     0
176
     1
290
     0
176
     1
 93
       13
176
     1
 44
0.0
176
     1
173
     0
176
     1
1001
ACAD
1000
AcDbSavedByObjectVersion
1070
     0
  0
VISUALSTYLE
  5
CB
102
{ACAD_XDICTIONARY
360
198
102
}
102
{ACAD_REACTORS
330
C3
102
}
330
C3
100
AcDbVisualStyle
  2
Hidden
 70
     6
177
     2
291
     0
 71
     1
176
     1
 72
     2
176
     1
 73
     2
176
     1
 90
        0
176
     1
 40
0.6
176
     1
 41
30.0
176
     1
 63
     7
421
 16777215
176
     1
 74
     2
176
     1
 91
        2
176
     1
 64
     7
176
     1
 65
   257
176
     1
 75
     2
176
     1
175
     1
176
     1
 42
40.0
176
     1
 92
        0
176
     1
 66
   257
176
     1
 43
1.0
176
     1
 76
     1
176
     1
 77
     6
176
     1
 78
     2
176
     1
 67
     7
176
     1
 79
     3
176
     1
170
     0
176
     1
171
     0
176
     1
290
     0
176
     1
 93
        1
176
     1
 44
0.0
176
     1
173
     0
176
     1
1001
ACAD
1000
AcDbSavedByObjectVersion
1070
     0
  0
VISUALSTYLE
  5
D9
102
{ACAD_XDICTIONARY
360
1B4
102
}
102
{ACAD_REACTORS
330
C3
102
}
330
C3
100
AcDbVisualStyle
  2
JitterOff
 70
    20
177
     2
291
     1
 71
     2
176
     0
 72
     2
176
     0
 73
     0
176
     0
 90
        0
176
     0
 40
0.6
176
     0
 41
30.0
176
     0
 63
     7
421
 16777215
176
     0
 74
     1
176
     0
 91
        4
176
     0
 64
     7
176
     0
 65
   257
176
     0
 75
     1
176
     0
175
     1
176
     0
 42
1.0
176
     0
 92
       10
176
     2
 66
     7
176
     0
 43
1.0
176
     0
 76
     1
176
     0
 77
     6
176
     0
 78
     2
176
     0
 67
     7
176
     0
 79
     5
176
     0
170
     0
176
     0
171
     0
176
     0
290
     0
176
     0
 93
        1
176
     0
 44
0.0
176
     0
173
     0
176
     0
1001
ACAD
1000
AcDbSavedByObjectVersion
1070
     0
  0
VISUALSTYLE
  5
D1
102
{ACAD_XDICTIONARY
360
1A4
102
}
102
{ACAD_REACTORS
330
C3
102
}
330
C3
100
AcDbVisualStyle
  2
Linepattern
 70
    14
177
     2
291
     1
 71
     2
176
     1
 72
     2
176
     1
 73
     0
176
     1
 90
        0
176
     1
 40
0.6
176
     1
 41
30.0
176
     1
 63
     7
421
 16777215
176
     1
 74
     1
176
     1
 91
        4
176
     1
 64
     7
176
     1
 65
   257
176
     1
 75
     7
176
     1
175
     7
176
     1
 42
1.0
176
     1
 92
        8
176
     1
 66
     7
176
     1
 43
1.0
176
     1
 76
     1
176
     1
 77
     6
176
     1
 78
     2
176
     1
 67
     7
176
     1
 79
     5
176
     1
170
     0
176
     1
171
     0
176
     1
290
     0
176
     1
 93
        1
176
     1
 44
0.0
176
     1
173
     0
176
     1
1001
ACAD
1000
AcDbSavedByObjectVersion
1070
     0
  0
VISUALSTYLE
  5
DA
102
{ACAD_XDICTIONARY
360
1B6
102
}
102
{ACAD_REACTORS
330
C3
102
}
330
C3
100
AcDbVisualStyle
  2
OverhangOff
 70
    21
177
     2
291
     1
 71
     2
176
     0
 72
     2
176
     0
 73
     0
176
     0
 90
        0
176
     0
 40
0.6
176
     0
 41
30.0
176
     0
 63
     7
421
 16777215
176
     0
 74
     1
176
     0
 91
        4
176
     0
 64
     7
176
     0
 65
   257
176
     0
 75
     1
176
     0
175
     1
176
     0
 42
1.0
176
     0
 92
        9
176
     2
 66
     7
176
     0
 43
1.0
176
     0
 76
     1
176
     0
 77
     6
176
     0
 78
     2
176
     0
 67
     7
176
     0
 79
     5
176
     0
170
     0
176
     0
171
     0
176
     0
290
     0
176
     0
 93
        1
176
     0
 44
0.0
176
     0
173
     0
176
     0
1001
ACAD
1000
AcDbSavedByObjectVersion
1070
     0
  0
VISUALSTYLE
  5
CD
102
{ACAD_XDICTIONARY
360
19C
102
}
102
{ACAD_REACTORS
330
C3
102
}
330
C3
100
AcDbVisualStyle
  2
Realistic
 70
     8
177
     2
291
     0
 71
     2
176
     1
 72
     3
176
     1
 73
     0
176
     1
 90
        2
176
     1
 40
0.6
176
     1
 41
30.0
176
     1
 63
     7
421
 16777215
176
     1
 74
     0
176
     1
 91
        0
176
     1
 64
     7
176
     1
 65
   257
176
     1
 75
     1
176
     1
175
     1
176
     1
 42
1.0
176
     1
 92
        8
176
     1
 66
   257
176
     1
 43
1.0
176
     1
 76
     1
176
     1
 77
     6
176
     1
 78
     2
176
     1
 67
     7
176
     1
 79
     3
176
     1
170
     0
176
     1
171
     0
176
     1
290
     0
176
     1
 93
       13
176
     1
 44
0.0
176
     1
173
     0
176
     1
1001
ACAD
1000
AcDbSavedByObjectVersion
1070
     0
  0
VISUALSTYLE
  5
D8
102
{ACAD_XDICTIONARY
360
1B2
102
}
102
{ACAD_REACTORS
330
C3
102
}
330
C3
100
AcDbVisualStyle
  2
Shaded
 70
    27
177
     2
291
     0
 71
     2
176
     1
 72
     2
176
     1
 73
     1
176
     1
 90
        2
176
     1
 40
0.6
176
     1
 41
30.0
176
     1
 63
     7
421
 16777215
176
     1
 74
     0
176
     1
 91
        4
176
     1
 64
     7
176
     1
 65
   257
176
     1
 75
     1
176
     1
175
     1
176
     1
 42
1.0
176
     1
 92
        8
176
     1
 66
   257
176
     1
 43
1.0
176
     1
 76
     1
176
     1
 77
     6
176
     1
 78
     2
176
     1
 67
     8
425
  7895160
176
     1
 79
     3
176
     1
170
     0
176
     1
171
     0
176
     1
290
     0
176
     1
 93
        5
176
     1
 44
0.0
176
     1
173
     0
176
     1
1001
ACAD
1000
AcDbSavedByObjectVersion
1070
     0
  0
VISUALSTYLE
  5
D7
102
{ACAD_XDICTIONARY
360
1B0
102
}
102
{ACAD_REACTORS
330
C3
102
}
330
C3
100
AcDbVisualStyle
  2
Shaded with edges
 70
    26
177
     2
291
     0
 71
     2
176
     1
 72
     2
176
     1
 73
     1
176
     1
 90
        2
176
     1
 40
0.6
176
     1
 41
30.0
176
     1
 63
     7
421
 16777215
176
     1
 74
     1
176
     1
 91
        2
176
     1
 64
     7
176
     1
 65
   257
176
     1
 75
     2
176
     1
175
     1
176
     1
 42
1.0
176
     1
 92
        8
176
     1
 66
   257
176
     1
 43
1.0
176
     1
 76
     1
176
     1
 77
     6
176
     1
 78
     2
176
     1
 67
     7
176
     1
 79
     3
176
     1
170
     0
176
     1
171
     0
176
     1
290
     0
176
     1
 93
        5
176
     1
 44
0.0
176
     1
173
     0
176
     1
1001
ACAD
1000
AcDbSavedByObjectVersion
1070
     0
  0
VISUALSTYLE
  5
D4
102
{ACAD_XDICTIONARY
360
1AA
102
}
102
{ACAD_REACTORS
330
C3
102
}
330
C3
100
AcDbVisualStyle
  2
Shades of Gray
 70
    23
177
     2
291
     0
 71
     2
176
     1
 72
     2
176
     1
 73
     3
176
     1
 90
        0
176
     1
 40
0.6
176
     1
 41
30.0
176
     1
 63
     7
421
 16777215
176
     1
 74
     2
176
     1
 91
        2
176
     1
 64
     7
176
     1
 65
     7
176
     1
 75
     1
176
     1
175
     1
176
     1
 42
40.0
176
     1
 92
        8
176
     1
 66
     7
176
     1
 43
1.0
176
     1
 76
     1
176
     1
 77
     6
176
     1
 78
     2
176
     1
 67
     7
176
     1
 79
     3
176
     1
170
     0
176
     1
171
     0
176
     1
290
     0
176
     1
 93
        1
176
     1
 44
0.0
176
     1
173
     0
176
     1
1001
ACAD
1000
AcDbSavedByObjectVersion
1070
     0
  0
VISUALSTYLE
  5
D5
102
{ACAD_XDICTIONARY
360
1AC
102
}
102
{ACAD_REACTORS
330
C3
102
}
330
C3
100
AcDbVisualStyle
  2
Sketchy
 70
    24
177
     2
291
     0
 71
     1
176
     1
 72
     2
176
     1
 73
     2
176
     1
 90
        0
176
     1
 40
0.6
176
     1
 41
30.0
176
     1
 63
     7
421
 16777215
176
     1
 74
     2
176
     1
 91
        2
176
     1
 64
     7
176
     1
 65
     7
176
     1
 75
     1
176
     1
175
     1
176
     1
 42
40.0
176
     1
 92
       11
176
     1
 66
     7
176
     1
 43
1.0
176
     1
 76
     1
176
     1
 77
     6
176
     1
 78
     2
176
     1
 67
     7
176
     1
 79
     6
176
     1
170
     0
176
     1
171
     0
176
     1
290
     0
176
     1
 93
        1
176
     1
 44
0.0
176
     1
173
     0
176
     1
1001
ACAD
1000
AcDbSavedByObjectVersion
1070
     0
  0
VISUALSTYLE
  5
D0
102
{ACAD_XDICTIONARY
360
1A2
102
}
102
{ACAD_REACTORS
330
C3
102
}
330
C3
100
AcDbVisualStyle
  2
Thicken
 70
    13
177
     2
291
     1
 71
     2
176
     1
 72
     2
176
     1
 73
     0
176
     1
 90
        0
176
     1
 40
0.6
176
     1
 41
30.0
176
     1
 63
     7
421
 16777215
176
     1
 74
     1
176
     1
 91
        4
176
     1
 64
     7
176
     1
 65
   257
176
     1
 75
     1
176
     1
175
     1
176
     1
 42
1.0
176
     1
 92
       12
176
     1
 66
     7
176
     1
 43
1.0
176
     1
 76
     1
176
     1
 77
     6
176
     1
 78
     2
176
     1
 67
     7
176
     1
 79
     5
176
     1
170
     0
176
     1
171
     0
176
     1
290
     0
176
     1
 93
        1
176
     1
 44
0.0
176
     1
173
     0
176
     1
1001
ACAD
1000
AcDbSavedByObjectVersion
1070
     0
  0
VISUALSTYLE
  5
CA
102
{ACAD_XDICTIONARY
360
196
102
}
102
{ACAD_REACTORS
330
C3
102
}
330
C3
100
AcDbVisualStyle
  2
Wireframe
 70
     5
177
     2
291
     0
 71
     0
176
     1
 72
     2
176
     1
 73
     0
176
     1
 90
        0
176
     1
 40
0.6
176
     1
 41
30.0
176
     1
 63
     7
421
 16777215
176
     1
 74
     1
176
     1
 91
        4
176
     1
 64
     7
176
     1
 65
   257
176
     1
 75
     1
176
     1
175
     1
176
     1
 42
1.0
176
     1
 92
        0
176
     1
 66
   257
176
     1
 43
1.0
176
     1
 76
     1
176
     1
 77
     6
176
     1
 78
     2
176
     1
 67
     7
176
     1
 79
     3
176
     1
170
     0
176
     1
171
     0
176
     1
290
     0
176
     1
 93
        1
176
     1
 44
0.0
176
     1
173
     0
176
     1
1001
ACAD
1000
AcDbSavedByObjectVersion
1070
     0
  0
VISUALSTYLE
  5
D6
102
{ACAD_XDICTIONARY
360
1AE
102
}
102
{ACAD_REACTORS
330
C3
102
}
330
C3
100
AcDbVisualStyle
  2
X-Ray
 70
    25
177
     2
291
     0
 71
     2
176
     1
 72
     2
176
     1
 73
     1
176
     1
 90
        1
176
     1
 40
0.5
176
     1
 41
30.0
176
     1
 63
     7
421
 16777215
176
     1
 74
     1
176
     1
 91
        0
176
     1
 64
     7
176
     1
 65
   257
176
     1
 75
     1
176
     1
175
     1
176
     1
 42
1.0
176
     1
 92
        8
176
     1
 66
     7
176
     1
 43
1.0
176
     1
 76
     1
176
     1
 77
     6
176
     1
 78
     2
176
     1
 67
     7
176
     1
 79
     3
176
     1
170
     0
176
     1
171
     0
176
     1
290
     0
176
     1
 93
       13
176
     1
 44
0.0
176
     1
173
     0
176
     1
1001
ACAD
1000
AcDbSavedByObjectVersion
1070
     0
  0
DICTIONARYVAR
  5
183
102
{ACAD_REACTORS
330
17D
102
}
330
17D
100
DictionaryVariables
280
     0
  1
1:1
  0
DICTIONARYVAR
  5
17F
102
{ACAD_REACTORS
330
17D
102
}
330
17D
100
DictionaryVariables
280
     0
  1
STANDARD
  0
DICTIONARYVAR
  5
17E
102
{ACAD_REACTORS
330
17D
102
}
330
17D
100
DictionaryVariables
280
     0
  1
STANDARD
  0
DICTIONARYVAR
  5
180
102
{ACAD_REACTORS
330
17D
102
}
330
17D
100
DictionaryVariables
280
     0
  1
Imperial24
  0
DICTIONARYVAR
  5
181
102
{ACAD_REACTORS
330
17D
102
}
330
17D
100
DictionaryVariables
280
     0
  1
Imperial24
  0
DICTIONARYVAR
  5
185
102
{ACAD_REACTORS
330
17D
102
}
330
17D
100
DictionaryVariables
280
     0
  1
1
  0
DICTIONARYVAR
  5
186
102
{ACAD_REACTORS
330
17D
102
}
330
17D
100
DictionaryVariables
280
     0
  1
15
  0
DICTIONARYVAR
  5
184
102
{ACAD_REACTORS
330
17D
102
}
330
17D
100
DictionaryVariables
280
     0
  1
0
  0
DICTIONARYVAR
  5
182
102
{ACAD_REACTORS
330
17D
102
}
330
17D
100
DictionaryVariables
280
     0
  1
0
  0
DICTIONARY
  5
1BE
330
F6
100
AcDbDictionary
280
     1
281
     1
  3
ACAD_XREC_ROUNDTRIP
360
1BF
  0
DICTIONARY
  5
B4
330
B3
100
AcDbDictionary
280
     1
281
     1
  3
BUMPTILE
360
B6
  3
DIFFUSETILE
360
B5
  3
OPACITYTILE
360
B9
  3
REFLECTIONTILE
360
B8
  3
REFRACTIONTILE
360
BA
  3
SPECULARTILE
360
B7
  0
DICTIONARY
  5
AC
330
AB
100
AcDbDictionary
280
     1
281
     1
  3
BUMPTILE
360
AE
  3
DIFFUSETILE
360
AD
  3
OPACITYTILE
360
B1
  3
REFLECTIONTILE
360
B0
  3
REFRACTIONTILE
360
B2
  3
SPECULARTILE
360
AF
  0
DICTIONARY
  5
BC
330
BB
100
AcDbDictionary
280
     1
281
     1
  3
BUMPTILE
360
BE
  3
DIFFUSETILE
360
BD
  3
OPACITYTILE
360
C1
  3
REFLECTIONTILE
360
C0
  3
REFRACTIONTILE
360
C2
  3
SPECULARTILE
360
BF
  0
DICTIONARY
  5
1BA
330
F2
100
AcDbDictionary
280
     1
281
     1
  3
ACAD_XREC_ROUNDTRIP
360
1BB
  0
DICTIONARY
  5
1BC
330
F4
100
AcDbDictionary
280
     1
281
     1
  3
ACAD_XREC_ROUNDTRIP
360
1BD
  0
DICTIONARY
  5
187
330
DE
100
AcDbDictionary
280
     1
281
     1
  3
ACAD_ROUNDTRIP_2008_TABLESTYLE_CELLSTYLEMAP
360
188
  0
DICTIONARY
  5
194
330
C9
100
AcDbDictionary
280
     1
281
     1
  3
ACAD_XREC_ROUNDTRIP
360
195
  0
DICTIONARY
  5
192
330
C8
100
AcDbDictionary
280
     1
281
     1
  3
ACAD_XREC_ROUNDTRIP
360
193
  0
DICTIONARY
  5
1A0
330
CF
100
AcDbDictionary
280
     1
281
     1
  3
ACAD_XREC_ROUNDTRIP
360
1A1
  0
DICTIONARY
  5
1A8
330
D3
100
AcDbDictionary
280
     1
281
     1
  3
ACAD_XREC_ROUNDTRIP
360
1A9
  0
DICTIONARY
  5
19A
330
CC
100
AcDbDictionary
280
     1
281
     1
  3
ACAD_XREC_ROUNDTRIP
360
19B
  0
DICTIONARY
  5
19E
330
CE
100
AcDbDictionary
280
     1
281
     1
  3
ACAD_XREC_ROUNDTRIP
360
19F
  0
DICTIONARY
  5
1B8
330
DB
100
AcDbDictionary
280
     1
281
     1
  3
ACAD_XREC_ROUNDTRIP
360
1B9
  0
DICTIONARY
  5
1A6
330
D2
100
AcDbDictionary
280
     1
281
     1
  3
ACAD_XREC_ROUNDTRIP
360
1A7
  0
DICTIONARY
  5
18A
330
C4
100
AcDbDictionary
280
     1
281
     1
  3
ACAD_XREC_ROUNDTRIP
360
18B
  0
DICTIONARY
  5
18C
330
C5
100
AcDbDictionary
280
     1
281
     1
  3
ACAD_XREC_ROUNDTRIP
360
18D
  0
DICTIONARY
  5
18E
330
C6
100
AcDbDictionary
280
     1
281
     1
  3
ACAD_XREC_ROUNDTRIP
360
18F
  0
DICTIONARY
  5
190
330
C7
100
AcDbDictionary
280
     1
281
     1
  3
ACAD_XREC_ROUNDTRIP
360
191
  0
DICTIONARY
  5
198
330
CB
100
AcDbDictionary
280
     1
281
     1
  3
ACAD_XREC_ROUNDTRIP
360
199
  0
DICTIONARY
  5
1B4
330
D9
100
AcDbDictionary
280
     1
281
     1
  3
ACAD_XREC_ROUNDTRIP
360
1B5
  0
DICTIONARY
  5
1A4
330
D1
100
AcDbDictionary
280
     1
281
     1
  3
ACAD_XREC_ROUNDTRIP
360
1A5
  0
DICTIONARY
  5
1B6
330
DA
100
AcDbDictionary
280
     1
281
     1
  3
ACAD_XREC_ROUNDTRIP
360
1B7
  0
DICTIONARY
  5
19C
330
CD
100
AcDbDictionary
280
     1
281
     1
  3
ACAD_XREC_ROUNDTRIP
360
19D
  0
DICTIONARY
  5
1B2
330
D8
100
AcDbDictionary
280
     1
281
     1
  3
ACAD_XREC_ROUNDTRIP
360
1B3
  0
DICTIONARY
  5
1B0
330
D7
100
AcDbDictionary
280
     1
281
     1
  3
ACAD_XREC_ROUNDTRIP
360
1B1
  0
DICTIONARY
  5
1AA
330
D4
100
AcDbDictionary
280
     1
281
     1
  3
ACAD_XREC_ROUNDTRIP
360
1AB
  0
DICTIONARY
  5
1AC
330
D5
100
AcDbDictionary
280
     1
281
     1
  3
ACAD_XREC_ROUNDTRIP
360
1AD
  0
DICTIONARY
  5
1A2
330
D0
100
AcDbDictionary
280
     1
281
     1
  3
ACAD_XREC_ROUNDTRIP
360
1A3
  0
DICTIONARY
  5
196
330
CA
100
AcDbDictionary
280
     1
281
     1
  3
ACAD_XREC_ROUNDTRIP
360
197
  0
DICTIONARY
  5
1AE
330
D6
100
AcDbDictionary
280
     1
281
     1
  3
ACAD_XREC_ROUNDTRIP
360
1AF
  0
XRECORD
  5
1BF
102
{ACAD_REACTORS
330
1BE
102
}
330
1BE
100
AcDbXrecord
280
     1
102
DISPLAYNAME
  1
Imperial24
102
FLAGS
 90
        0
  0
XRECORD
  5
B6
102
{ACAD_REACTORS
330
B4
102
}
330
B4
100
AcDbXrecord
280
     1
270
     1
271
     1
  0
XRECORD
  5
B5
102
{ACAD_REACTORS
330
B4
102
}
330
B4
100
AcDbXrecord
280
     1
270
     1
271
     1
  0
XRECORD
  5
B9
102
{ACAD_REACTORS
330
B4
102
}
330
B4
100
AcDbXrecord
280
     1
270
     1
271
     1
  0
XRECORD
  5
B8
102
{ACAD_REACTORS
330
B4
102
}
330
B4
100
AcDbXrecord
280
     1
270
     1
271
     1
  0
XRECORD
  5
BA
102
{ACAD_REACTORS
330
B4
102
}
330
B4
100
AcDbXrecord
280
     1
270
     1
271
     1
  0
XRECORD
  5
B7
102
{ACAD_REACTORS
330
B4
102
}
330
B4
100
AcDbXrecord
280
     1
270
     1
271
     1
  0
XRECORD
  5
AE
102
{ACAD_REACTORS
330
AC
102
}
330
AC
100
AcDbXrecord
280
     1
270
     1
271
     1
  0
XRECORD
  5
AD
102
{ACAD_REACTORS
330
AC
102
}
330
AC
100
AcDbXrecord
280
     1
270
     1
271
     1
  0
XRECORD
  5
B1
102
{ACAD_REACTORS
330
AC
102
}
330
AC
100
AcDbXrecord
280
     1
270
     1
271
     1
  0
XRECORD
  5
B0
102
{ACAD_REACTORS
330
AC
102
}
330
AC
100
AcDbXrecord
280
     1
270
     1
271
     1
  0
XRECORD
  5
B2
102
{ACAD_REACTORS
330
AC
102
}
330
AC
100
AcDbXrecord
280
     1
270
     1
271
     1
  0
XRECORD
  5
AF
102
{ACAD_REACTORS
330
AC
102
}
330
AC
100
AcDbXrecord
280
     1
270
     1
271
     1
  0
XRECORD
  5
BE
102
{ACAD_REACTORS
330
BC
102
}
330
BC
100
AcDbXrecord
280
     1
270
     1
271
     1
  0
XRECORD
  5
BD
102
{ACAD_REACTORS
330
BC
102
}
330
BC
100
AcDbXrecord
280
     1
270
     1
271
     1
  0
XRECORD
  5
C1
102
{ACAD_REACTORS
330
BC
102
}
330
BC
100
AcDbXrecord
280
     1
270
     1
271
     1
  0
XRECORD
  5
C0
102
{ACAD_REACTORS
330
BC
102
}
330
BC
100
AcDbXrecord
280
     1
270
     1
271
     1
  0
XRECORD
  5
C2
102
{ACAD_REACTORS
330
BC
102
}
330
BC
100
AcDbXrecord
280
     1
270
     1
271
     1
  0
XRECORD
  5
BF
102
{ACAD_REACTORS
330
BC
102
}
330
BC
100
AcDbXrecord
280
     1
270
     1
271
     1
  0
XRECORD
  5
1BB
102
{ACAD_REACTORS
330
1BA
102
}
330
1BA
100
AcDbXrecord
280
     1
102
ACAD_ROUNDTRIP_2012_MLEADER_STYLE
298
     1
  0
XRECORD
  5
1BD
102
{ACAD_REACTORS
330
1BC
102
}
330
1BC
100
AcDbXrecord
280
     1
102
DISPLAYNAME
  1
Imperial24
102
FLAGS
 90
        0
  0
CELLSTYLEMAP
  5
188
102
{ACAD_REACTORS
330
187
102
}
330
187
100
AcDbCellStyleMap
 90
        3
300
CELLSTYLE
  1
TABLEFORMAT_BEGIN
 90
        5
170
     1
 91
        0
 92
    32768
 62
   257
 93
        1
300
CONTENTFORMAT
  1
CONTENTFORMAT_BEGIN
 90
        0
 91
        0
 92
      512
 93
        0
300

 40
0.0
140
1.0
 94
        5
 62
     0
340
11
144
0.25
309
CONTENTFORMAT_END
171
     0
 94
        0
309
TABLEFORMAT_END
  1
CELLSTYLE_BEGIN
 90
        1
 91
        1
300
_TITLE
309
CELLSTYLE_END
300
CELLSTYLE
  1
TABLEFORMAT_BEGIN
 90
        5
170
     1
 91
        0
 92
        0
 62
   257
 93
        1
300
CONTENTFORMAT
  1
CONTENTFORMAT_BEGIN
 90
        0
 91
        0
 92
      512
 93
        0
300

 40
0.0
140
1.0
 94
        5
 62
     0
340
11
144
0.18
309
CONTENTFORMAT_END
171
     0
 94
        0
309
TABLEFORMAT_END
  1
CELLSTYLE_BEGIN
 90
        2
 91
        1
300
_HEADER
309
CELLSTYLE_END
300
CELLSTYLE
  1
TABLEFORMAT_BEGIN
 90
        5
170
     1
 91
        0
 92
        0
 62
   257
 93
        1
300
CONTENTFORMAT
  1
CONTENTFORMAT_BEGIN
 90
        0
 91
        0
 92
      512
 93
        0
300

 40
0.0
140
1.0
 94
        2
 62
     0
340
11
144
0.18
309
CONTENTFORMAT_END
171
     0
 94
        0
309
TABLEFORMAT_END
  1
CELLSTYLE_BEGIN
 90
        3
 91
        2
300
_DATA
309
CELLSTYLE_END
  0
XRECORD
  5
195
102
{ACAD_REACTORS
330
194
102
}
330
194
100
AcDbXrecord
280
     1
102
RTVSPost2010Prop28
280
     1
102
RTVSPost2010PropOp28
 70
     1
102
RTVSPost2010Prop29
280
     1
102
RTVSPost2010PropOp29
 70
     1
102
RTVSPost2010Prop30
280
     0
102
RTVSPost2010PropOp30
 70
     1
102
RTVSPost2010Prop31
280
     0
102
RTVSPost2010PropOp31
 70
     1
102
RTVSPost2010Prop32
280
     0
102
RTVSPost2010PropOp32
 70
     1
102
RTVSPost2010Prop33
280
     0
102
RTVSPost2010PropOp33
 70
     1
102
RTVSPost2010Prop34
280
     0
102
RTVSPost2010PropOp34
 70
     1
102
RTVSPost2010Prop35
280
     0
102
RTVSPost2010PropOp35
 70
     1
102
RTVSPost2010Prop36
280
     0
102
RTVSPost2010PropOp36
 70
     1
102
RTVSPost2010Prop37
 90
       50
102
RTVSPost2010PropOp37
 70
     1
102
RTVSPost2010Prop38
140
0.0
102
RTVSPost2010PropOp38
 70
     1
102
RTVSPost2010Prop39
140
1.0
102
RTVSPost2010PropOp39
 70
     1
102
RTVSPost2010Prop40
 90
        0
102
RTVSPost2010PropOp40
 70
     1
102
RTVSPost2010Prop41ColorIndex
 90
       18
102
RTVSPost2010Prop41ColorRGB
 90
        0
102
RTVSPost2010PropOp41
 70
     1
102
RTVSPost2010Prop42
 90
       50
102
RTVSPost2010PropOp42
 70
     1
102
RTVSPost2010Prop43
 90
        3
102
RTVSPost2010PropOp43
 70
     1
102
RTVSPost2010Prop44ColorIndex
 90
        5
102
RTVSPost2010Prop44ColorRGB
 90
      255
102
RTVSPost2010PropOp44
 70
     1
102
RTVSPost2010Prop45
280
     0
102
RTVSPost2010PropOp45
 70
     1
102
RTVSPost2010Prop46
 90
       50
102
RTVSPost2010PropOp46
 70
     1
102
RTVSPost2010Prop47
 90
       50
102
RTVSPost2010PropOp47
 70
     1
102
RTVSPost2010Prop48
 90
       50
102
RTVSPost2010PropOp48
 70
     1
102
RTVSPost2010Prop49
280
     0
102
RTVSPost2010PropOp49
 70
     1
102
RTVSPost2010Prop50
 90
       50
102
RTVSPost2010PropOp50
 70
     1
102
RTVSPost2010Prop51ColorIndex
 90
      256
102
RTVSPost2010Prop51ColorRGB
 90
-16777216
102
RTVSPost2010PropOp51
 70
     0
102
RTVSPost2010Prop52
140
1.0
102
RTVSPost2010PropOp52
 70
     0
102
RTVSPost2010Prop53
 90
        2
102
RTVSPost2010PropOp53
 70
     1
102
RTVSPost2010Prop54
  1
strokes_ogs.tif
102
RTVSPost2010PropOp54
 70
     1
102
RTVSPost2010Prop55
280
     0
102
RTVSPost2010PropOp55
 70
     1
102
RTVSPost2010Prop56
140
1.0
102
RTVSPost2010PropOp56
 70
     1
102
RTVSPost2010Prop57
140
1.0
102
RTVSPost2010PropOp57
 70
     1
  0
XRECORD
  5
193
102
{ACAD_REACTORS
330
192
102
}
330
192
100
AcDbXrecord
280
     1
102
RTVSPost2010Prop28
280
     0
102
RTVSPost2010PropOp28
 70
     1
102
RTVSPost2010Prop29
280
     1
102
RTVSPost2010PropOp29
 70
     1
102
RTVSPost2010Prop30
280
     1
102
RTVSPost2010PropOp30
 70
     1
102
RTVSPost2010Prop31
280
     0
102
RTVSPost2010PropOp31
 70
     1
102
RTVSPost2010Prop32
280
     0
102
RTVSPost2010PropOp32
 70
     1
102
RTVSPost2010Prop33
280
     0
102
RTVSPost2010PropOp33
 70
     1
102
RTVSPost2010Prop34
280
     0
102
RTVSPost2010PropOp34
 70
     1
102
RTVSPost2010Prop35
280
     0
102
RTVSPost2010PropOp35
 70
     1
102
RTVSPost2010Prop36
280
     0
102
RTVSPost2010PropOp36
 70
     1
102
RTVSPost2010Prop37
 90
       50
102
RTVSPost2010PropOp37
 70
     1
102
RTVSPost2010Prop38
140
0.0
102
RTVSPost2010PropOp38
 70
     1
102
RTVSPost2010Prop39
140
1.0
102
RTVSPost2010PropOp39
 70
     1
102
RTVSPost2010Prop40
 90
        0
102
RTVSPost2010PropOp40
 70
     1
102
RTVSPost2010Prop41ColorIndex
 90
       18
102
RTVSPost2010Prop41ColorRGB
 90
        0
102
RTVSPost2010PropOp41
 70
     1
102
RTVSPost2010Prop42
 90
       50
102
RTVSPost2010PropOp42
 70
     1
102
RTVSPost2010Prop43
 90
        3
102
RTVSPost2010PropOp43
 70
     1
102
RTVSPost2010Prop44ColorIndex
 90
        5
102
RTVSPost2010Prop44ColorRGB
 90
      255
102
RTVSPost2010PropOp44
 70
     1
102
RTVSPost2010Prop45
280
     0
102
RTVSPost2010PropOp45
 70
     1
102
RTVSPost2010Prop46
 90
       50
102
RTVSPost2010PropOp46
 70
     1
102
RTVSPost2010Prop47
 90
       50
102
RTVSPost2010PropOp47
 70
     1
102
RTVSPost2010Prop48
 90
       50
102
RTVSPost2010PropOp48
 70
     1
102
RTVSPost2010Prop49
280
     0
102
RTVSPost2010PropOp49
 70
     1
102
RTVSPost2010Prop50
 90
       50
102
RTVSPost2010PropOp50
 70
     1
102
RTVSPost2010Prop51ColorIndex
 90
      256
102
RTVSPost2010Prop51ColorRGB
 90
-16777216
102
RTVSPost2010PropOp51
 70
     0
102
RTVSPost2010Prop52
140
1.0
102
RTVSPost2010PropOp52
 70
     0
102
RTVSPost2010Prop53
 90
        2
102
RTVSPost2010PropOp53
 70
     1
102
RTVSPost2010Prop54
  1
strokes_ogs.tif
102
RTVSPost2010PropOp54
 70
     1
102
RTVSPost2010Prop55
280
     0
102
RTVSPost2010PropOp55
 70
     1
102
RTVSPost2010Prop56
140
1.0
102
RTVSPost2010PropOp56
 70
     1
102
RTVSPost2010Prop57
140
1.0
102
RTVSPost2010PropOp57
 70
     1
  0
XRECORD
  5
1A1
102
{ACAD_REACTORS
330
1A0
102
}
330
1A0
100
AcDbXrecord
280
     1
102
RTVSPost2010Prop28
280
     0
102
RTVSPost2010PropOp28
 70
     1
102
RTVSPost2010Prop29
280
     1
102
RTVSPost2010PropOp29
 70
     1
102
RTVSPost2010Prop30
280
     1
102
RTVSPost2010PropOp30
 70
     1
102
RTVSPost2010Prop31
280
     0
102
RTVSPost2010PropOp31
 70
     1
102
RTVSPost2010Prop32
280
     0
102
RTVSPost2010PropOp32
 70
     1
102
RTVSPost2010Prop33
280
     0
102
RTVSPost2010PropOp33
 70
     1
102
RTVSPost2010Prop34
280
     0
102
RTVSPost2010PropOp34
 70
     1
102
RTVSPost2010Prop35
280
     0
102
RTVSPost2010PropOp35
 70
     1
102
RTVSPost2010Prop36
280
     0
102
RTVSPost2010PropOp36
 70
     1
102
RTVSPost2010Prop37
 90
       50
102
RTVSPost2010PropOp37
 70
     1
102
RTVSPost2010Prop38
140
0.0
102
RTVSPost2010PropOp38
 70
     1
102
RTVSPost2010Prop39
140
1.0
102
RTVSPost2010PropOp39
 70
     1
102
RTVSPost2010Prop40
 90
        0
102
RTVSPost2010PropOp40
 70
     1
102
RTVSPost2010Prop41ColorIndex
 90
       18
102
RTVSPost2010Prop41ColorRGB
 90
        0
102
RTVSPost2010PropOp41
 70
     1
102
RTVSPost2010Prop42
 90
       50
102
RTVSPost2010PropOp42
 70
     1
102
RTVSPost2010Prop43
 90
        3
102
RTVSPost2010PropOp43
 70
     1
102
RTVSPost2010Prop44ColorIndex
 90
        5
102
RTVSPost2010Prop44ColorRGB
 90
      255
102
RTVSPost2010PropOp44
 70
     1
102
RTVSPost2010Prop45
280
     0
102
RTVSPost2010PropOp45
 70
     1
102
RTVSPost2010Prop46
 90
       50
102
RTVSPost2010PropOp46
 70
     1
102
RTVSPost2010Prop47
 90
       50
102
RTVSPost2010PropOp47
 70
     1
102
RTVSPost2010Prop48
 90
       50
102
RTVSPost2010PropOp48
 70
     1
102
RTVSPost2010Prop49
280
     0
102
RTVSPost2010PropOp49
 70
     1
102
RTVSPost2010Prop50
 90
       50
102
RTVSPost2010PropOp50
 70
     1
102
RTVSPost2010Prop51ColorIndex
 90
      256
102
RTVSPost2010Prop51ColorRGB
 90
-16777216
102
RTVSPost2010PropOp51
 70
     0
102
RTVSPost2010Prop52
140
1.0
102
RTVSPost2010PropOp52
 70
     0
102
RTVSPost2010Prop53
 90
        2
102
RTVSPost2010PropOp53
 70
     1
102
RTVSPost2010Prop54
  1
strokes_ogs.tif
102
RTVSPost2010PropOp54
 70
     1
102
RTVSPost2010Prop55
280
     0
102
RTVSPost2010PropOp55
 70
     1
102
RTVSPost2010Prop56
140
1.0
102
RTVSPost2010PropOp56
 70
     1
102
RTVSPost2010Prop57
140
1.0
102
RTVSPost2010PropOp57
 70
     1
  0
XRECORD
  5
1A9
102
{ACAD_REACTORS
330
1A8
102
}
330
1A8
100
AcDbXrecord
280
     1
102
RTVSPost2010Prop28
280
     0
102
RTVSPost2010PropOp28
 70
     1
102
RTVSPost2010Prop29
280
     1
102
RTVSPost2010PropOp29
 70
     1
102
RTVSPost2010Prop30
280
     1
102
RTVSPost2010PropOp30
 70
     1
102
RTVSPost2010Prop31
280
     0
102
RTVSPost2010PropOp31
 70
     1
102
RTVSPost2010Prop32
280
     0
102
RTVSPost2010PropOp32
 70
     1
102
RTVSPost2010Prop33
280
     0
102
RTVSPost2010PropOp33
 70
     1
102
RTVSPost2010Prop34
280
     0
102
RTVSPost2010PropOp34
 70
     1
102
RTVSPost2010Prop35
280
     0
102
RTVSPost2010PropOp35
 70
     1
102
RTVSPost2010Prop36
280
     0
102
RTVSPost2010PropOp36
 70
     1
102
RTVSPost2010Prop37
 90
       50
102
RTVSPost2010PropOp37
 70
     1
102
RTVSPost2010Prop38
140
0.0
102
RTVSPost2010PropOp38
 70
     1
102
RTVSPost2010Prop39
140
1.0
102
RTVSPost2010PropOp39
 70
     1
102
RTVSPost2010Prop40
 90
        0
102
RTVSPost2010PropOp40
 70
     1
102
RTVSPost2010Prop41ColorIndex
 90
       18
102
RTVSPost2010Prop41ColorRGB
 90
        0
102
RTVSPost2010PropOp41
 70
     1
102
RTVSPost2010Prop42
 90
       50
102
RTVSPost2010PropOp42
 70
     1
102
RTVSPost2010Prop43
 90
        3
102
RTVSPost2010PropOp43
 70
     1
102
RTVSPost2010Prop44ColorIndex
 90
        5
102
RTVSPost2010Prop44ColorRGB
 90
      255
102
RTVSPost2010PropOp44
 70
     1
102
RTVSPost2010Prop45
280
     0
102
RTVSPost2010PropOp45
 70
     1
102
RTVSPost2010Prop46
 90
       50
102
RTVSPost2010PropOp46
 70
     1
102
RTVSPost2010Prop47
 90
       50
102
RTVSPost2010PropOp47
 70
     1
102
RTVSPost2010Prop48
 90
       50
102
RTVSPost2010PropOp48
 70
     1
102
RTVSPost2010Prop49
280
     0
102
RTVSPost2010PropOp49
 70
     1
102
RTVSPost2010Prop50
 90
       50
102
RTVSPost2010PropOp50
 70
     1
102
RTVSPost2010Prop51ColorIndex
 90
      256
102
RTVSPost2010Prop51ColorRGB
 90
-16777216
102
RTVSPost2010PropOp51
 70
     0
102
RTVSPost2010Prop52
140
1.0
102
RTVSPost2010PropOp52
 70
     0
102
RTVSPost2010Prop53
 90
        2
102
RTVSPost2010PropOp53
 70
     1
102
RTVSPost2010Prop54
  1
strokes_ogs.tif
102
RTVSPost2010PropOp54
 70
     1
102
RTVSPost2010Prop55
280
     0
102
RTVSPost2010PropOp55
 70
     1
102
RTVSPost2010Prop56
140
1.0
102
RTVSPost2010PropOp56
 70
     1
102
RTVSPost2010Prop57
140
1.0
102
RTVSPost2010PropOp57
 70
     1
  0
XRECORD
  5
19B
102
{ACAD_REACTORS
330
19A
102
}
330
19A
100
AcDbXrecord
280
     1
102
RTVSPost2010Prop28
280
     0
102
RTVSPost2010PropOp28
 70
     1
102
RTVSPost2010Prop29
280
     1
102
RTVSPost2010PropOp29
 70
     1
102
RTVSPost2010Prop30
280
     1
102
RTVSPost2010PropOp30
 70
     1
102
RTVSPost2010Prop31
280
     0
102
RTVSPost2010PropOp31
 70
     1
102
RTVSPost2010Prop32
280
     0
102
RTVSPost2010PropOp32
 70
     1
102
RTVSPost2010Prop33
280
     0
102
RTVSPost2010PropOp33
 70
     1
102
RTVSPost2010Prop34
280
     0
102
RTVSPost2010PropOp34
 70
     1
102
RTVSPost2010Prop35
280
     0
102
RTVSPost2010PropOp35
 70
     1
102
RTVSPost2010Prop36
280
     0
102
RTVSPost2010PropOp36
 70
     1
102
RTVSPost2010Prop37
 90
       50
102
RTVSPost2010PropOp37
 70
     1
102
RTVSPost2010Prop38
140
0.0
102
RTVSPost2010PropOp38
 70
     1
102
RTVSPost2010Prop39
140
1.0
102
RTVSPost2010PropOp39
 70
     1
102
RTVSPost2010Prop40
 90
        0
102
RTVSPost2010PropOp40
 70
     1
102
RTVSPost2010Prop41ColorIndex
 90
       18
102
RTVSPost2010Prop41ColorRGB
 90
        0
102
RTVSPost2010PropOp41
 70
     1
102
RTVSPost2010Prop42
 90
       50
102
RTVSPost2010PropOp42
 70
     1
102
RTVSPost2010Prop43
 90
        3
102
RTVSPost2010PropOp43
 70
     1
102
RTVSPost2010Prop44ColorIndex
 90
        5
102
RTVSPost2010Prop44ColorRGB
 90
      255
102
RTVSPost2010PropOp44
 70
     1
102
RTVSPost2010Prop45
280
     0
102
RTVSPost2010PropOp45
 70
     1
102
RTVSPost2010Prop46
 90
       50
102
RTVSPost2010PropOp46
 70
     1
102
RTVSPost2010Prop47
 90
       50
102
RTVSPost2010PropOp47
 70
     1
102
RTVSPost2010Prop48
 90
       50
102
RTVSPost2010PropOp48
 70
     1
102
RTVSPost2010Prop49
280
     0
102
RTVSPost2010PropOp49
 70
     1
102
RTVSPost2010Prop50
 90
       50
102
RTVSPost2010PropOp50
 70
     1
102
RTVSPost2010Prop51ColorIndex
 90
      256
102
RTVSPost2010Prop51ColorRGB
 90
-16777216
102
RTVSPost2010PropOp51
 70
     0
102
RTVSPost2010Prop52
140
1.0
102
RTVSPost2010PropOp52
 70
     0
102
RTVSPost2010Prop53
 90
        2
102
RTVSPost2010PropOp53
 70
     1
102
RTVSPost2010Prop54
  1
strokes_ogs.tif
102
RTVSPost2010PropOp54
 70
     1
102
RTVSPost2010Prop55
280
     0
102
RTVSPost2010PropOp55
 70
     1
102
RTVSPost2010Prop56
140
1.0
102
RTVSPost2010PropOp56
 70
     1
102
RTVSPost2010Prop57
140
1.0
102
RTVSPost2010PropOp57
 70
     1
  0
XRECORD
  5
19F
102
{ACAD_REACTORS
330
19E
102
}
330
19E
100
AcDbXrecord
280
     1
102
RTVSPost2010Prop28
280
     0
102
RTVSPost2010PropOp28
 70
     1
102
RTVSPost2010Prop29
280
     1
102
RTVSPost2010PropOp29
 70
     1
102
RTVSPost2010Prop30
280
     1
102
RTVSPost2010PropOp30
 70
     1
102
RTVSPost2010Prop31
280
     0
102
RTVSPost2010PropOp31
 70
     1
102
RTVSPost2010Prop32
280
     0
102
RTVSPost2010PropOp32
 70
     1
102
RTVSPost2010Prop33
280
     0
102
RTVSPost2010PropOp33
 70
     1
102
RTVSPost2010Prop34
280
     0
102
RTVSPost2010PropOp34
 70
     1
102
RTVSPost2010Prop35
280
     0
102
RTVSPost2010PropOp35
 70
     1
102
RTVSPost2010Prop36
280
     0
102
RTVSPost2010PropOp36
 70
     1
102
RTVSPost2010Prop37
 90
       50
102
RTVSPost2010PropOp37
 70
     1
102
RTVSPost2010Prop38
140
0.0
102
RTVSPost2010PropOp38
 70
     1
102
RTVSPost2010Prop39
140
1.0
102
RTVSPost2010PropOp39
 70
     1
102
RTVSPost2010Prop40
 90
        0
102
RTVSPost2010PropOp40
 70
     1
102
RTVSPost2010Prop41ColorIndex
 90
       18
102
RTVSPost2010Prop41ColorRGB
 90
        0
102
RTVSPost2010PropOp41
 70
     1
102
RTVSPost2010Prop42
 90
       50
102
RTVSPost2010PropOp42
 70
     1
102
RTVSPost2010Prop43
 90
        3
102
RTVSPost2010PropOp43
 70
     1
102
RTVSPost2010Prop44ColorIndex
 90
        5
102
RTVSPost2010Prop44ColorRGB
 90
      255
102
RTVSPost2010PropOp44
 70
     1
102
RTVSPost2010Prop45
280
     0
102
RTVSPost2010PropOp45
 70
     1
102
RTVSPost2010Prop46
 90
       50
102
RTVSPost2010PropOp46
 70
     1
102
RTVSPost2010Prop47
 90
       50
102
RTVSPost2010PropOp47
 70
     1
102
RTVSPost2010Prop48
 90
       50
102
RTVSPost2010PropOp48
 70
     1
102
RTVSPost2010Prop49
280
     0
102
RTVSPost2010PropOp49
 70
     1
102
RTVSPost2010Prop50
 90
       50
102
RTVSPost2010PropOp50
 70
     1
102
RTVSPost2010Prop51ColorIndex
 90
      256
102
RTVSPost2010Prop51ColorRGB
 90
-16777216
102
RTVSPost2010PropOp51
 70
     0
102
RTVSPost2010Prop52
140
1.0
102
RTVSPost2010PropOp52
 70
     0
102
RTVSPost2010Prop53
 90
        2
102
RTVSPost2010PropOp53
 70
     1
102
RTVSPost2010Prop54
  1
strokes_ogs.tif
102
RTVSPost2010PropOp54
 70
     1
102
RTVSPost2010Prop55
280
     0
102
RTVSPost2010PropOp55
 70
     1
102
RTVSPost2010Prop56
140
1.0
102
RTVSPost2010PropOp56
 70
     1
102
RTVSPost2010Prop57
140
1.0
102
RTVSPost2010PropOp57
 70
     1
  0
XRECORD
  5
1B9
102
{ACAD_REACTORS
330
1B8
102
}
330
1B8
100
AcDbXrecord
280
     1
102
RTVSPost2010Prop28
280
     0
102
RTVSPost2010PropOp28
 70
     0
102
RTVSPost2010Prop29
280
     1
102
RTVSPost2010PropOp29
 70
     0
102
RTVSPost2010Prop30
280
     1
102
RTVSPost2010PropOp30
 70
     0
102
RTVSPost2010Prop31
280
     0
102
RTVSPost2010PropOp31
 70
     0
102
RTVSPost2010Prop32
280
     0
102
RTVSPost2010PropOp32
 70
     0
102
RTVSPost2010Prop33
280
     0
102
RTVSPost2010PropOp33
 70
     0
102
RTVSPost2010Prop34
280
     0
102
RTVSPost2010PropOp34
 70
     0
102
RTVSPost2010Prop35
280
     0
102
RTVSPost2010PropOp35
 70
     0
102
RTVSPost2010Prop36
280
     0
102
RTVSPost2010PropOp36
 70
     0
102
RTVSPost2010Prop37
 90
       50
102
RTVSPost2010PropOp37
 70
     0
102
RTVSPost2010Prop38
140
0.0
102
RTVSPost2010PropOp38
 70
     0
102
RTVSPost2010Prop39
140
1.0
102
RTVSPost2010PropOp39
 70
     0
102
RTVSPost2010Prop40
 90
        0
102
RTVSPost2010PropOp40
 70
     0
102
RTVSPost2010Prop41ColorIndex
 90
       18
102
RTVSPost2010Prop41ColorRGB
 90
        0
102
RTVSPost2010PropOp41
 70
     0
102
RTVSPost2010Prop42
 90
       50
102
RTVSPost2010PropOp42
 70
     0
102
RTVSPost2010Prop43
 90
        3
102
RTVSPost2010PropOp43
 70
     0
102
RTVSPost2010Prop44ColorIndex
 90
        5
102
RTVSPost2010Prop44ColorRGB
 90
      255
102
RTVSPost2010PropOp44
 70
     0
102
RTVSPost2010Prop45
280
     0
102
RTVSPost2010PropOp45
 70
     0
102
RTVSPost2010Prop46
 90
       50
102
RTVSPost2010PropOp46
 70
     0
102
RTVSPost2010Prop47
 90
       50
102
RTVSPost2010PropOp47
 70
     0
102
RTVSPost2010Prop48
 90
       50
102
RTVSPost2010PropOp48
 70
     0
102
RTVSPost2010Prop49
280
     0
102
RTVSPost2010PropOp49
 70
     0
102
RTVSPost2010Prop50
 90
       50
102
RTVSPost2010PropOp50
 70
     0
102
RTVSPost2010Prop51ColorIndex
 90
      256
102
RTVSPost2010Prop51ColorRGB
 90
-16777216
102
RTVSPost2010PropOp51
 70
     0
102
RTVSPost2010Prop52
140
1.0
102
RTVSPost2010PropOp52
 70
     0
102
RTVSPost2010Prop53
 90
        2
102
RTVSPost2010PropOp53
 70
     0
102
RTVSPost2010Prop54
  1
strokes_ogs.tif
102
RTVSPost2010PropOp54
 70
     0
102
RTVSPost2010Prop55
280
     0
102
RTVSPost2010PropOp55
 70
     0
102
RTVSPost2010Prop56
140
1.0
102
RTVSPost2010PropOp56
 70
     0
102
RTVSPost2010Prop57
140
1.0
102
RTVSPost2010PropOp57
 70
     0
  0
XRECORD
  5
1A7
102
{ACAD_REACTORS
330
1A6
102
}
330
1A6
100
AcDbXrecord
280
     1
102
RTVSPost2010Prop28
280
     0
102
RTVSPost2010PropOp28
 70
     1
102
RTVSPost2010Prop29
280
     1
102
RTVSPost2010PropOp29
 70
     1
102
RTVSPost2010Prop30
280
     1
102
RTVSPost2010PropOp30
 70
     1
102
RTVSPost2010Prop31
280
     0
102
RTVSPost2010PropOp31
 70
     1
102
RTVSPost2010Prop32
280
     0
102
RTVSPost2010PropOp32
 70
     1
102
RTVSPost2010Prop33
280
     0
102
RTVSPost2010PropOp33
 70
     1
102
RTVSPost2010Prop34
280
     0
102
RTVSPost2010PropOp34
 70
     1
102
RTVSPost2010Prop35
280
     0
102
RTVSPost2010PropOp35
 70
     1
102
RTVSPost2010Prop36
280
     0
102
RTVSPost2010PropOp36
 70
     1
102
RTVSPost2010Prop37
 90
       50
102
RTVSPost2010PropOp37
 70
     1
102
RTVSPost2010Prop38
140
0.0
102
RTVSPost2010PropOp38
 70
     1
102
RTVSPost2010Prop39
140
1.0
102
RTVSPost2010PropOp39
 70
     1
102
RTVSPost2010Prop40
 90
        0
102
RTVSPost2010PropOp40
 70
     1
102
RTVSPost2010Prop41ColorIndex
 90
       18
102
RTVSPost2010Prop41ColorRGB
 90
        0
102
RTVSPost2010PropOp41
 70
     1
102
RTVSPost2010Prop42
 90
       50
102
RTVSPost2010PropOp42
 70
     1
102
RTVSPost2010Prop43
 90
        3
102
RTVSPost2010PropOp43
 70
     1
102
RTVSPost2010Prop44ColorIndex
 90
        5
102
RTVSPost2010Prop44ColorRGB
 90
      255
102
RTVSPost2010PropOp44
 70
     1
102
RTVSPost2010Prop45
280
     0
102
RTVSPost2010PropOp45
 70
     1
102
RTVSPost2010Prop46
 90
       50
102
RTVSPost2010PropOp46
 70
     1
102
RTVSPost2010Prop47
 90
       50
102
RTVSPost2010PropOp47
 70
     1
102
RTVSPost2010Prop48
 90
       50
102
RTVSPost2010PropOp48
 70
     1
102
RTVSPost2010Prop49
280
     0
102
RTVSPost2010PropOp49
 70
     1
102
RTVSPost2010Prop50
 90
       50
102
RTVSPost2010PropOp50
 70
     1
102
RTVSPost2010Prop51ColorIndex
 90
      256
102
RTVSPost2010Prop51ColorRGB
 90
-16777216
102
RTVSPost2010PropOp51
 70
     0
102
RTVSPost2010Prop52
140
1.0
102
RTVSPost2010PropOp52
 70
     0
102
RTVSPost2010Prop53
 90
        2
102
RTVSPost2010PropOp53
 70
     1
102
RTVSPost2010Prop54
  1
strokes_ogs.tif
102
RTVSPost2010PropOp54
 70
     1
102
RTVSPost2010Prop55
280
     0
102
RTVSPost2010PropOp55
 70
     1
102
RTVSPost2010Prop56
140
1.0
102
RTVSPost2010PropOp56
 70
     1
102
RTVSPost2010Prop57
140
1.0
102
RTVSPost2010PropOp57
 70
     1
  0
XRECORD
  5
18B
102
{ACAD_REACTORS
330
18A
102
}
330
18A
100
AcDbXrecord
280
     1
102
RTVSPost2010Prop28
280
     0
102
RTVSPost2010PropOp28
 70
     1
102
RTVSPost2010Prop29
280
     1
102
RTVSPost2010PropOp29
 70
     1
102
RTVSPost2010Prop30
280
     1
102
RTVSPost2010PropOp30
 70
     1
102
RTVSPost2010Prop31
280
     0
102
RTVSPost2010PropOp31
 70
     1
102
RTVSPost2010Prop32
280
     0
102
RTVSPost2010PropOp32
 70
     1
102
RTVSPost2010Prop33
280
     0
102
RTVSPost2010PropOp33
 70
     1
102
RTVSPost2010Prop34
280
     0
102
RTVSPost2010PropOp34
 70
     1
102
RTVSPost2010Prop35
280
     0
102
RTVSPost2010PropOp35
 70
     1
102
RTVSPost2010Prop36
280
     0
102
RTVSPost2010PropOp36
 70
     1
102
RTVSPost2010Prop37
 90
       50
102
RTVSPost2010PropOp37
 70
     1
102
RTVSPost2010Prop38
140
0.0
102
RTVSPost2010PropOp38
 70
     1
102
RTVSPost2010Prop39
140
1.0
102
RTVSPost2010PropOp39
 70
     1
102
RTVSPost2010Prop40
 90
        0
102
RTVSPost2010PropOp40
 70
     1
102
RTVSPost2010Prop41ColorIndex
 90
       18
102
RTVSPost2010Prop41ColorRGB
 90
        0
102
RTVSPost2010PropOp41
 70
     1
102
RTVSPost2010Prop42
 90
       50
102
RTVSPost2010PropOp42
 70
     1
102
RTVSPost2010Prop43
 90
        3
102
RTVSPost2010PropOp43
 70
     1
102
RTVSPost2010Prop44ColorIndex
 90
        5
102
RTVSPost2010Prop44ColorRGB
 90
      255
102
RTVSPost2010PropOp44
 70
     1
102
RTVSPost2010Prop45
280
     0
102
RTVSPost2010PropOp45
 70
     1
102
RTVSPost2010Prop46
 90
       50
102
RTVSPost2010PropOp46
 70
     1
102
RTVSPost2010Prop47
 90
       50
102
RTVSPost2010PropOp47
 70
     1
102
RTVSPost2010Prop48
 90
       50
102
RTVSPost2010PropOp48
 70
     1
102
RTVSPost2010Prop49
280
     0
102
RTVSPost2010PropOp49
 70
     1
102
RTVSPost2010Prop50
 90
       50
102
RTVSPost2010PropOp50
 70
     1
102
RTVSPost2010Prop51ColorIndex
 90
      256
102
RTVSPost2010Prop51ColorRGB
 90
-16777216
102
RTVSPost2010PropOp51
 70
     0
102
RTVSPost2010Prop52
140
1.0
102
RTVSPost2010PropOp52
 70
     0
102
RTVSPost2010Prop53
 90
        2
102
RTVSPost2010PropOp53
 70
     1
102
RTVSPost2010Prop54
  1
strokes_ogs.tif
102
RTVSPost2010PropOp54
 70
     1
102
RTVSPost2010Prop55
280
     0
102
RTVSPost2010PropOp55
 70
     1
102
RTVSPost2010Prop56
140
1.0
102
RTVSPost2010PropOp56
 70
     1
102
RTVSPost2010Prop57
140
1.0
102
RTVSPost2010PropOp57
 70
     1
  0
XRECORD
  5
18D
102
{ACAD_REACTORS
330
18C
102
}
330
18C
100
AcDbXrecord
280
     1
102
RTVSPost2010Prop28
280
     0
102
RTVSPost2010PropOp28
 70
     1
102
RTVSPost2010Prop29
280
     1
102
RTVSPost2010PropOp29
 70
     1
102
RTVSPost2010Prop30
280
     1
102
RTVSPost2010PropOp30
 70
     1
102
RTVSPost2010Prop31
280
     0
102
RTVSPost2010PropOp31
 70
     1
102
RTVSPost2010Prop32
280
     0
102
RTVSPost2010PropOp32
 70
     1
102
RTVSPost2010Prop33
280
     0
102
RTVSPost2010PropOp33
 70
     1
102
RTVSPost2010Prop34
280
     0
102
RTVSPost2010PropOp34
 70
     1
102
RTVSPost2010Prop35
280
     0
102
RTVSPost2010PropOp35
 70
     1
102
RTVSPost2010Prop36
280
     0
102
RTVSPost2010PropOp36
 70
     1
102
RTVSPost2010Prop37
 90
       50
102
RTVSPost2010PropOp37
 70
     1
102
RTVSPost2010Prop38
140
0.0
102
RTVSPost2010PropOp38
 70
     1
102
RTVSPost2010Prop39
140
1.0
102
RTVSPost2010PropOp39
 70
     1
102
RTVSPost2010Prop40
 90
        0
102
RTVSPost2010PropOp40
 70
     1
102
RTVSPost2010Prop41ColorIndex
 90
       18
102
RTVSPost2010Prop41ColorRGB
 90
        0
102
RTVSPost2010PropOp41
 70
     1
102
RTVSPost2010Prop42
 90
       50
102
RTVSPost2010PropOp42
 70
     1
102
RTVSPost2010Prop43
 90
        3
102
RTVSPost2010PropOp43
 70
     1
102
RTVSPost2010Prop44ColorIndex
 90
        5
102
RTVSPost2010Prop44ColorRGB
 90
      255
102
RTVSPost2010PropOp44
 70
     1
102
RTVSPost2010Prop45
280
     0
102
RTVSPost2010PropOp45
 70
     1
102
RTVSPost2010Prop46
 90
       50
102
RTVSPost2010PropOp46
 70
     1
102
RTVSPost2010Prop47
 90
       50
102
RTVSPost2010PropOp47
 70
     1
102
RTVSPost2010Prop48
 90
       50
102
RTVSPost2010PropOp48
 70
     1
102
RTVSPost2010Prop49
280
     0
102
RTVSPost2010PropOp49
 70
     1
102
RTVSPost2010Prop50
 90
       50
102
RTVSPost2010PropOp50
 70
     1
102
RTVSPost2010Prop51ColorIndex
 90
      256
102
RTVSPost2010Prop51ColorRGB
 90
-16777216
102
RTVSPost2010PropOp51
 70
     0
102
RTVSPost2010Prop52
140
1.0
102
RTVSPost2010PropOp52
 70
     0
102
RTVSPost2010Prop53
 90
        2
102
RTVSPost2010PropOp53
 70
     1
102
RTVSPost2010Prop54
  1
strokes_ogs.tif
102
RTVSPost2010PropOp54
 70
     1
102
RTVSPost2010Prop55
280
     0
102
RTVSPost2010PropOp55
 70
     1
102
RTVSPost2010Prop56
140
1.0
102
RTVSPost2010PropOp56
 70
     1
102
RTVSPost2010Prop57
140
1.0
102
RTVSPost2010PropOp57
 70
     1
  0
XRECORD
  5
18F
102
{ACAD_REACTORS
330
18E
102
}
330
18E
100
AcDbXrecord
280
     1
102
RTVSPost2010Prop28
280
     0
102
RTVSPost2010PropOp28
 70
     1
102
RTVSPost2010Prop29
280
     1
102
RTVSPost2010PropOp29
 70
     1
102
RTVSPost2010Prop30
280
     1
102
RTVSPost2010PropOp30
 70
     1
102
RTVSPost2010Prop31
280
     0
102
RTVSPost2010PropOp31
 70
     1
102
RTVSPost2010Prop32
280
     0
102
RTVSPost2010PropOp32
 70
     1
102
RTVSPost2010Prop33
280
     0
102
RTVSPost2010PropOp33
 70
     1
102
RTVSPost2010Prop34
280
     0
102
RTVSPost2010PropOp34
 70
     1
102
RTVSPost2010Prop35
280
     0
102
RTVSPost2010PropOp35
 70
     1
102
RTVSPost2010Prop36
280
     0
102
RTVSPost2010PropOp36
 70
     1
102
RTVSPost2010Prop37
 90
       50
102
RTVSPost2010PropOp37
 70
     1
102
RTVSPost2010Prop38
140
0.0
102
RTVSPost2010PropOp38
 70
     1
102
RTVSPost2010Prop39
140
1.0
102
RTVSPost2010PropOp39
 70
     1
102
RTVSPost2010Prop40
 90
        0
102
RTVSPost2010PropOp40
 70
     1
102
RTVSPost2010Prop41ColorIndex
 90
       18
102
RTVSPost2010Prop41ColorRGB
 90
        0
102
RTVSPost2010PropOp41
 70
     1
102
RTVSPost2010Prop42
 90
       50
102
RTVSPost2010PropOp42
 70
     1
102
RTVSPost2010Prop43
 90
        3
102
RTVSPost2010PropOp43
 70
     1
102
RTVSPost2010Prop44ColorIndex
 90
        5
102
RTVSPost2010Prop44ColorRGB
 90
      255
102
RTVSPost2010PropOp44
 70
     1
102
RTVSPost2010Prop45
280
     0
102
RTVSPost2010PropOp45
 70
     1
102
RTVSPost2010Prop46
 90
       50
102
RTVSPost2010PropOp46
 70
     1
102
RTVSPost2010Prop47
 90
       50
102
RTVSPost2010PropOp47
 70
     1
102
RTVSPost2010Prop48
 90
       50
102
RTVSPost2010PropOp48
 70
     1
102
RTVSPost2010Prop49
280
     0
102
RTVSPost2010PropOp49
 70
     1
102
RTVSPost2010Prop50
 90
       50
102
RTVSPost2010PropOp50
 70
     1
102
RTVSPost2010Prop51ColorIndex
 90
      256
102
RTVSPost2010Prop51ColorRGB
 90
-16777216
102
RTVSPost2010PropOp51
 70
     0
102
RTVSPost2010Prop52
140
1.0
102
RTVSPost2010PropOp52
 70
     0
102
RTVSPost2010Prop53
 90
        2
102
RTVSPost2010PropOp53
 70
     1
102
RTVSPost2010Prop54
  1
strokes_ogs.tif
102
RTVSPost2010PropOp54
 70
     1
102
RTVSPost2010Prop55
280
     0
102
RTVSPost2010PropOp55
 70
     1
102
RTVSPost2010Prop56
140
1.0
102
RTVSPost2010PropOp56
 70
     1
102
RTVSPost2010Prop57
140
1.0
102
RTVSPost2010PropOp57
 70
     1
  0
XRECORD
  5
191
102
{ACAD_REACTORS
330
190
102
}
330
190
100
AcDbXrecord
280
     1
102
RTVSPost2010Prop28
280
     0
102
RTVSPost2010PropOp28
 70
     1
102
RTVSPost2010Prop29
280
     1
102
RTVSPost2010PropOp29
 70
     1
102
RTVSPost2010Prop30
280
     1
102
RTVSPost2010PropOp30
 70
     1
102
RTVSPost2010Prop31
280
     0
102
RTVSPost2010PropOp31
 70
     1
102
RTVSPost2010Prop32
280
     0
102
RTVSPost2010PropOp32
 70
     1
102
RTVSPost2010Prop33
280
     0
102
RTVSPost2010PropOp33
 70
     1
102
RTVSPost2010Prop34
280
     0
102
RTVSPost2010PropOp34
 70
     1
102
RTVSPost2010Prop35
280
     0
102
RTVSPost2010PropOp35
 70
     1
102
RTVSPost2010Prop36
280
     0
102
RTVSPost2010PropOp36
 70
     1
102
RTVSPost2010Prop37
 90
       50
102
RTVSPost2010PropOp37
 70
     1
102
RTVSPost2010Prop38
140
0.0
102
RTVSPost2010PropOp38
 70
     1
102
RTVSPost2010Prop39
140
1.0
102
RTVSPost2010PropOp39
 70
     1
102
RTVSPost2010Prop40
 90
        0
102
RTVSPost2010PropOp40
 70
     1
102
RTVSPost2010Prop41ColorIndex
 90
       18
102
RTVSPost2010Prop41ColorRGB
 90
        0
102
RTVSPost2010PropOp41
 70
     1
102
RTVSPost2010Prop42
 90
       50
102
RTVSPost2010PropOp42
 70
     1
102
RTVSPost2010Prop43
 90
        3
102
RTVSPost2010PropOp43
 70
     1
102
RTVSPost2010Prop44ColorIndex
 90
        5
102
RTVSPost2010Prop44ColorRGB
 90
      255
102
RTVSPost2010PropOp44
 70
     1
102
RTVSPost2010Prop45
280
     0
102
RTVSPost2010PropOp45
 70
     1
102
RTVSPost2010Prop46
 90
       50
102
RTVSPost2010PropOp46
 70
     1
102
RTVSPost2010Prop47
 90
       50
102
RTVSPost2010PropOp47
 70
     1
102
RTVSPost2010Prop48
 90
       50
102
RTVSPost2010PropOp48
 70
     1
102
RTVSPost2010Prop49
280
     0
102
RTVSPost2010PropOp49
 70
     1
102
RTVSPost2010Prop50
 90
       50
102
RTVSPost2010PropOp50
 70
     1
102
RTVSPost2010Prop51ColorIndex
 90
      256
102
RTVSPost2010Prop51ColorRGB
 90
-16777216
102
RTVSPost2010PropOp51
 70
     0
102
RTVSPost2010Prop52
140
1.0
102
RTVSPost2010PropOp52
 70
     0
102
RTVSPost2010Prop53
 90
        2
102
RTVSPost2010PropOp53
 70
     1
102
RTVSPost2010Prop54
  1
strokes_ogs.tif
102
RTVSPost2010PropOp54
 70
     1
102
RTVSPost2010Prop55
280
     0
102
RTVSPost2010PropOp55
 70
     1
102
RTVSPost2010Prop56
140
1.0
102
RTVSPost2010PropOp56
 70
     1
102
RTVSPost2010Prop57
140
1.0
102
RTVSPost2010PropOp57
 70
     1
  0
XRECORD
  5
199
102
{ACAD_REACTORS
330
198
102
}
330
198
100
AcDbXrecord
280
     1
102
RTVSPost2010Prop28
280
     0
102
RTVSPost2010PropOp28
 70
     1
102
RTVSPost2010Prop29
280
     1
102
RTVSPost2010PropOp29
 70
     1
102
RTVSPost2010Prop30
280
     1
102
RTVSPost2010PropOp30
 70
     1
102
RTVSPost2010Prop31
280
     0
102
RTVSPost2010PropOp31
 70
     1
102
RTVSPost2010Prop32
280
     0
102
RTVSPost2010PropOp32
 70
     1
102
RTVSPost2010Prop33
280
     0
102
RTVSPost2010PropOp33
 70
     1
102
RTVSPost2010Prop34
280
     0
102
RTVSPost2010PropOp34
 70
     1
102
RTVSPost2010Prop35
280
     0
102
RTVSPost2010PropOp35
 70
     1
102
RTVSPost2010Prop36
280
     0
102
RTVSPost2010PropOp36
 70
     1
102
RTVSPost2010Prop37
 90
       50
102
RTVSPost2010PropOp37
 70
     1
102
RTVSPost2010Prop38
140
0.0
102
RTVSPost2010PropOp38
 70
     1
102
RTVSPost2010Prop39
140
1.0
102
RTVSPost2010PropOp39
 70
     1
102
RTVSPost2010Prop40
 90
        0
102
RTVSPost2010PropOp40
 70
     1
102
RTVSPost2010Prop41ColorIndex
 90
       18
102
RTVSPost2010Prop41ColorRGB
 90
        0
102
RTVSPost2010PropOp41
 70
     1
102
RTVSPost2010Prop42
 90
       50
102
RTVSPost2010PropOp42
 70
     1
102
RTVSPost2010Prop43
 90
        3
102
RTVSPost2010PropOp43
 70
     1
102
RTVSPost2010Prop44ColorIndex
 90
        5
102
RTVSPost2010Prop44ColorRGB
 90
      255
102
RTVSPost2010PropOp44
 70
     1
102
RTVSPost2010Prop45
280
     0
102
RTVSPost2010PropOp45
 70
     1
102
RTVSPost2010Prop46
 90
       50
102
RTVSPost2010PropOp46
 70
     1
102
RTVSPost2010Prop47
 90
       50
102
RTVSPost2010PropOp47
 70
     1
102
RTVSPost2010Prop48
 90
       50
102
RTVSPost2010PropOp48
 70
     1
102
RTVSPost2010Prop49
280
     0
102
RTVSPost2010PropOp49
 70
     1
102
RTVSPost2010Prop50
 90
       50
102
RTVSPost2010PropOp50
 70
     1
102
RTVSPost2010Prop51ColorIndex
 90
      256
102
RTVSPost2010Prop51ColorRGB
 90
-16777216
102
RTVSPost2010PropOp51
 70
     0
102
RTVSPost2010Prop52
140
1.0
102
RTVSPost2010PropOp52
 70
     0
102
RTVSPost2010Prop53
 90
        2
102
RTVSPost2010PropOp53
 70
     1
102
RTVSPost2010Prop54
  1
strokes_ogs.tif
102
RTVSPost2010PropOp54
 70
     1
102
RTVSPost2010Prop55
280
     0
102
RTVSPost2010PropOp55
 70
     1
102
RTVSPost2010Prop56
140
1.0
102
RTVSPost2010PropOp56
 70
     1
102
RTVSPost2010Prop57
140
1.0
102
RTVSPost2010PropOp57
 70
     1
  0
XRECORD
  5
1B5
102
{ACAD_REACTORS
330
1B4
102
}
330
1B4
100
AcDbXrecord
280
     1
102
RTVSPost2010Prop28
280
     0
102
RTVSPost2010PropOp28
 70
     0
102
RTVSPost2010Prop29
280
     1
102
RTVSPost2010PropOp29
 70
     0
102
RTVSPost2010Prop30
280
     1
102
RTVSPost2010PropOp30
 70
     0
102
RTVSPost2010Prop31
280
     0
102
RTVSPost2010PropOp31
 70
     0
102
RTVSPost2010Prop32
280
     0
102
RTVSPost2010PropOp32
 70
     0
102
RTVSPost2010Prop33
280
     0
102
RTVSPost2010PropOp33
 70
     0
102
RTVSPost2010Prop34
280
     0
102
RTVSPost2010PropOp34
 70
     0
102
RTVSPost2010Prop35
280
     0
102
RTVSPost2010PropOp35
 70
     0
102
RTVSPost2010Prop36
280
     0
102
RTVSPost2010PropOp36
 70
     0
102
RTVSPost2010Prop37
 90
       50
102
RTVSPost2010PropOp37
 70
     0
102
RTVSPost2010Prop38
140
0.0
102
RTVSPost2010PropOp38
 70
     0
102
RTVSPost2010Prop39
140
1.0
102
RTVSPost2010PropOp39
 70
     0
102
RTVSPost2010Prop40
 90
        0
102
RTVSPost2010PropOp40
 70
     0
102
RTVSPost2010Prop41ColorIndex
 90
       18
102
RTVSPost2010Prop41ColorRGB
 90
        0
102
RTVSPost2010PropOp41
 70
     0
102
RTVSPost2010Prop42
 90
       50
102
RTVSPost2010PropOp42
 70
     0
102
RTVSPost2010Prop43
 90
        3
102
RTVSPost2010PropOp43
 70
     0
102
RTVSPost2010Prop44ColorIndex
 90
        5
102
RTVSPost2010Prop44ColorRGB
 90
      255
102
RTVSPost2010PropOp44
 70
     0
102
RTVSPost2010Prop45
280
     0
102
RTVSPost2010PropOp45
 70
     0
102
RTVSPost2010Prop46
 90
       50
102
RTVSPost2010PropOp46
 70
     0
102
RTVSPost2010Prop47
 90
       50
102
RTVSPost2010PropOp47
 70
     0
102
RTVSPost2010Prop48
 90
       50
102
RTVSPost2010PropOp48
 70
     0
102
RTVSPost2010Prop49
280
     0
102
RTVSPost2010PropOp49
 70
     0
102
RTVSPost2010Prop50
 90
       50
102
RTVSPost2010PropOp50
 70
     0
102
RTVSPost2010Prop51ColorIndex
 90
      256
102
RTVSPost2010Prop51ColorRGB
 90
-16777216
102
RTVSPost2010PropOp51
 70
     0
102
RTVSPost2010Prop52
140
1.0
102
RTVSPost2010PropOp52
 70
     0
102
RTVSPost2010Prop53
 90
        2
102
RTVSPost2010PropOp53
 70
     0
102
RTVSPost2010Prop54
  1
strokes_ogs.tif
102
RTVSPost2010PropOp54
 70
     0
102
RTVSPost2010Prop55
280
     0
102
RTVSPost2010PropOp55
 70
     0
102
RTVSPost2010Prop56
140
1.0
102
RTVSPost2010PropOp56
 70
     0
102
RTVSPost2010Prop57
140
1.0
102
RTVSPost2010PropOp57
 70
     0
  0
XRECORD
  5
1A5
102
{ACAD_REACTORS
330
1A4
102
}
330
1A4
100
AcDbXrecord
280
     1
102
RTVSPost2010Prop28
280
     0
102
RTVSPost2010PropOp28
 70
     1
102
RTVSPost2010Prop29
280
     1
102
RTVSPost2010PropOp29
 70
     1
102
RTVSPost2010Prop30
280
     1
102
RTVSPost2010PropOp30
 70
     1
102
RTVSPost2010Prop31
280
     0
102
RTVSPost2010PropOp31
 70
     1
102
RTVSPost2010Prop32
280
     0
102
RTVSPost2010PropOp32
 70
     1
102
RTVSPost2010Prop33
280
     0
102
RTVSPost2010PropOp33
 70
     1
102
RTVSPost2010Prop34
280
     0
102
RTVSPost2010PropOp34
 70
     1
102
RTVSPost2010Prop35
280
     0
102
RTVSPost2010PropOp35
 70
     1
102
RTVSPost2010Prop36
280
     0
102
RTVSPost2010PropOp36
 70
     1
102
RTVSPost2010Prop37
 90
       50
102
RTVSPost2010PropOp37
 70
     1
102
RTVSPost2010Prop38
140
0.0
102
RTVSPost2010PropOp38
 70
     1
102
RTVSPost2010Prop39
140
1.0
102
RTVSPost2010PropOp39
 70
     1
102
RTVSPost2010Prop40
 90
        0
102
RTVSPost2010PropOp40
 70
     1
102
RTVSPost2010Prop41ColorIndex
 90
       18
102
RTVSPost2010Prop41ColorRGB
 90
        0
102
RTVSPost2010PropOp41
 70
     1
102
RTVSPost2010Prop42
 90
       50
102
RTVSPost2010PropOp42
 70
     1
102
RTVSPost2010Prop43
 90
        3
102
RTVSPost2010PropOp43
 70
     1
102
RTVSPost2010Prop44ColorIndex
 90
        5
102
RTVSPost2010Prop44ColorRGB
 90
      255
102
RTVSPost2010PropOp44
 70
     1
102
RTVSPost2010Prop45
280
     0
102
RTVSPost2010PropOp45
 70
     1
102
RTVSPost2010Prop46
 90
       50
102
RTVSPost2010PropOp46
 70
     1
102
RTVSPost2010Prop47
 90
       50
102
RTVSPost2010PropOp47
 70
     1
102
RTVSPost2010Prop48
 90
       50
102
RTVSPost2010PropOp48
 70
     1
102
RTVSPost2010Prop49
280
     0
102
RTVSPost2010PropOp49
 70
     1
102
RTVSPost2010Prop50
 90
       50
102
RTVSPost2010PropOp50
 70
     1
102
RTVSPost2010Prop51ColorIndex
 90
      256
102
RTVSPost2010Prop51ColorRGB
 90
-16777216
102
RTVSPost2010PropOp51
 70
     0
102
RTVSPost2010Prop52
140
1.0
102
RTVSPost2010PropOp52
 70
     0
102
RTVSPost2010Prop53
 90
        2
102
RTVSPost2010PropOp53
 70
     1
102
RTVSPost2010Prop54
  1
strokes_ogs.tif
102
RTVSPost2010PropOp54
 70
     1
102
RTVSPost2010Prop55
280
     0
102
RTVSPost2010PropOp55
 70
     1
102
RTVSPost2010Prop56
140
1.0
102
RTVSPost2010PropOp56
 70
     1
102
RTVSPost2010Prop57
140
1.0
102
RTVSPost2010PropOp57
 70
     1
  0
XRECORD
  5
1B7
102
{ACAD_REACTORS
330
1B6
102
}
330
1B6
100
AcDbXrecord
280
     1
102
RTVSPost2010Prop28
280
     0
102
RTVSPost2010PropOp28
 70
     0
102
RTVSPost2010Prop29
280
     1
102
RTVSPost2010PropOp29
 70
     0
102
RTVSPost2010Prop30
280
     1
102
RTVSPost2010PropOp30
 70
     0
102
RTVSPost2010Prop31
280
     0
102
RTVSPost2010PropOp31
 70
     0
102
RTVSPost2010Prop32
280
     0
102
RTVSPost2010PropOp32
 70
     0
102
RTVSPost2010Prop33
280
     0
102
RTVSPost2010PropOp33
 70
     0
102
RTVSPost2010Prop34
280
     0
102
RTVSPost2010PropOp34
 70
     0
102
RTVSPost2010Prop35
280
     0
102
RTVSPost2010PropOp35
 70
     0
102
RTVSPost2010Prop36
280
     0
102
RTVSPost2010PropOp36
 70
     0
102
RTVSPost2010Prop37
 90
       50
102
RTVSPost2010PropOp37
 70
     0
102
RTVSPost2010Prop38
140
0.0
102
RTVSPost2010PropOp38
 70
     0
102
RTVSPost2010Prop39
140
1.0
102
RTVSPost2010PropOp39
 70
     0
102
RTVSPost2010Prop40
 90
        0
102
RTVSPost2010PropOp40
 70
     0
102
RTVSPost2010Prop41ColorIndex
 90
       18
102
RTVSPost2010Prop41ColorRGB
 90
        0
102
RTVSPost2010PropOp41
 70
     0
102
RTVSPost2010Prop42
 90
       50
102
RTVSPost2010PropOp42
 70
     0
102
RTVSPost2010Prop43
 90
        3
102
RTVSPost2010PropOp43
 70
     0
102
RTVSPost2010Prop44ColorIndex
 90
        5
102
RTVSPost2010Prop44ColorRGB
 90
      255
102
RTVSPost2010PropOp44
 70
     0
102
RTVSPost2010Prop45
280
     0
102
RTVSPost2010PropOp45
 70
     0
102
RTVSPost2010Prop46
 90
       50
102
RTVSPost2010PropOp46
 70
     0
102
RTVSPost2010Prop47
 90
       50
102
RTVSPost2010PropOp47
 70
     0
102
RTVSPost2010Prop48
 90
       50
102
RTVSPost2010PropOp48
 70
     0
102
RTVSPost2010Prop49
280
     0
102
RTVSPost2010PropOp49
 70
     0
102
RTVSPost2010Prop50
 90
       50
102
RTVSPost2010PropOp50
 70
     0
102
RTVSPost2010Prop51ColorIndex
 90
      256
102
RTVSPost2010Prop51ColorRGB
 90
-16777216
102
RTVSPost2010PropOp51
 70
     0
102
RTVSPost2010Prop52
140
1.0
102
RTVSPost2010PropOp52
 70
     0
102
RTVSPost2010Prop53
 90
        2
102
RTVSPost2010PropOp53
 70
     0
102
RTVSPost2010Prop54
  1
strokes_ogs.tif
102
RTVSPost2010PropOp54
 70
     0
102
RTVSPost2010Prop55
280
     0
102
RTVSPost2010PropOp55
 70
     0
102
RTVSPost2010Prop56
140
1.0
102
RTVSPost2010PropOp56
 70
     0
102
RTVSPost2010Prop57
140
1.0
102
RTVSPost2010PropOp57
 70
     0
  0
XRECORD
  5
19D
102
{ACAD_REACTORS
330
19C
102
}
330
19C
100
AcDbXrecord
280
     1
102
RTVSPost2010Prop28
280
     0
102
RTVSPost2010PropOp28
 70
     1
102
RTVSPost2010Prop29
280
     1
102
RTVSPost2010PropOp29
 70
     1
102
RTVSPost2010Prop30
280
     1
102
RTVSPost2010PropOp30
 70
     1
102
RTVSPost2010Prop31
280
     0
102
RTVSPost2010PropOp31
 70
     1
102
RTVSPost2010Prop32
280
     0
102
RTVSPost2010PropOp32
 70
     1
102
RTVSPost2010Prop33
280
     0
102
RTVSPost2010PropOp33
 70
     1
102
RTVSPost2010Prop34
280
     0
102
RTVSPost2010PropOp34
 70
     1
102
RTVSPost2010Prop35
280
     0
102
RTVSPost2010PropOp35
 70
     1
102
RTVSPost2010Prop36
280
     0
102
RTVSPost2010PropOp36
 70
     1
102
RTVSPost2010Prop37
 90
       50
102
RTVSPost2010PropOp37
 70
     1
102
RTVSPost2010Prop38
140
0.0
102
RTVSPost2010PropOp38
 70
     1
102
RTVSPost2010Prop39
140
1.0
102
RTVSPost2010PropOp39
 70
     1
102
RTVSPost2010Prop40
 90
        0
102
RTVSPost2010PropOp40
 70
     1
102
RTVSPost2010Prop41ColorIndex
 90
       18
102
RTVSPost2010Prop41ColorRGB
 90
        0
102
RTVSPost2010PropOp41
 70
     1
102
RTVSPost2010Prop42
 90
       50
102
RTVSPost2010PropOp42
 70
     1
102
RTVSPost2010Prop43
 90
        3
102
RTVSPost2010PropOp43
 70
     1
102
RTVSPost2010Prop44ColorIndex
 90
        5
102
RTVSPost2010Prop44ColorRGB
 90
      255
102
RTVSPost2010PropOp44
 70
     1
102
RTVSPost2010Prop45
280
     0
102
RTVSPost2010PropOp45
 70
     1
102
RTVSPost2010Prop46
 90
       50
102
RTVSPost2010PropOp46
 70
     1
102
RTVSPost2010Prop47
 90
       50
102
RTVSPost2010PropOp47
 70
     1
102
RTVSPost2010Prop48
 90
       50
102
RTVSPost2010PropOp48
 70
     1
102
RTVSPost2010Prop49
280
     0
102
RTVSPost2010PropOp49
 70
     1
102
RTVSPost2010Prop50
 90
       50
102
RTVSPost2010PropOp50
 70
     1
102
RTVSPost2010Prop51ColorIndex
 90
      256
102
RTVSPost2010Prop51ColorRGB
 90
-16777216
102
RTVSPost2010PropOp51
 70
     0
102
RTVSPost2010Prop52
140
1.0
102
RTVSPost2010PropOp52
 70
     0
102
RTVSPost2010Prop53
 90
        2
102
RTVSPost2010PropOp53
 70
     1
102
RTVSPost2010Prop54
  1
strokes_ogs.tif
102
RTVSPost2010PropOp54
 70
     1
102
RTVSPost2010Prop55
280
     0
102
RTVSPost2010PropOp55
 70
     1
102
RTVSPost2010Prop56
140
1.0
102
RTVSPost2010PropOp56
 70
     1
102
RTVSPost2010Prop57
140
1.0
102
RTVSPost2010PropOp57
 70
     1
  0
XRECORD
  5
1B3
102
{ACAD_REACTORS
330
1B2
102
}
330
1B2
100
AcDbXrecord
280
     1
102
RTVSPost2010Prop28
280
     0
102
RTVSPost2010PropOp28
 70
     1
102
RTVSPost2010Prop29
280
     1
102
RTVSPost2010PropOp29
 70
     1
102
RTVSPost2010Prop30
280
     1
102
RTVSPost2010PropOp30
 70
     1
102
RTVSPost2010Prop31
280
     0
102
RTVSPost2010PropOp31
 70
     1
102
RTVSPost2010Prop32
280
     0
102
RTVSPost2010PropOp32
 70
     1
102
RTVSPost2010Prop33
280
     0
102
RTVSPost2010PropOp33
 70
     1
102
RTVSPost2010Prop34
280
     0
102
RTVSPost2010PropOp34
 70
     1
102
RTVSPost2010Prop35
280
     0
102
RTVSPost2010PropOp35
 70
     1
102
RTVSPost2010Prop36
280
     0
102
RTVSPost2010PropOp36
 70
     1
102
RTVSPost2010Prop37
 90
       50
102
RTVSPost2010PropOp37
 70
     1
102
RTVSPost2010Prop38
140
0.0
102
RTVSPost2010PropOp38
 70
     1
102
RTVSPost2010Prop39
140
1.0
102
RTVSPost2010PropOp39
 70
     1
102
RTVSPost2010Prop40
 90
        0
102
RTVSPost2010PropOp40
 70
     1
102
RTVSPost2010Prop41ColorIndex
 90
       18
102
RTVSPost2010Prop41ColorRGB
 90
        0
102
RTVSPost2010PropOp41
 70
     1
102
RTVSPost2010Prop42
 90
       50
102
RTVSPost2010PropOp42
 70
     1
102
RTVSPost2010Prop43
 90
        3
102
RTVSPost2010PropOp43
 70
     1
102
RTVSPost2010Prop44ColorIndex
 90
        5
102
RTVSPost2010Prop44ColorRGB
 90
      255
102
RTVSPost2010PropOp44
 70
     1
102
RTVSPost2010Prop45
280
     0
102
RTVSPost2010PropOp45
 70
     1
102
RTVSPost2010Prop46
 90
       50
102
RTVSPost2010PropOp46
 70
     1
102
RTVSPost2010Prop47
 90
       50
102
RTVSPost2010PropOp47
 70
     1
102
RTVSPost2010Prop48
 90
       50
102
RTVSPost2010PropOp48
 70
     1
102
RTVSPost2010Prop49
280
     0
102
RTVSPost2010PropOp49
 70
     1
102
RTVSPost2010Prop50
 90
       50
102
RTVSPost2010PropOp50
 70
     1
102
RTVSPost2010Prop51ColorIndex
 90
      256
102
RTVSPost2010Prop51ColorRGB
 90
-16777216
102
RTVSPost2010PropOp51
 70
     0
102
RTVSPost2010Prop52
140
1.0
102
RTVSPost2010PropOp52
 70
     0
102
RTVSPost2010Prop53
 90
        2
102
RTVSPost2010PropOp53
 70
     1
102
RTVSPost2010Prop54
  1
strokes_ogs.tif
102
RTVSPost2010PropOp54
 70
     1
102
RTVSPost2010Prop55
280
     0
102
RTVSPost2010PropOp55
 70
     1
102
RTVSPost2010Prop56
140
1.0
102
RTVSPost2010PropOp56
 70
     1
102
RTVSPost2010Prop57
140
1.0
102
RTVSPost2010PropOp57
 70
     1
  0
XRECORD
  5
1B1
102
{ACAD_REACTORS
330
1B0
102
}
330
1B0
100
AcDbXrecord
280
     1
102
RTVSPost2010Prop28
280
     0
102
RTVSPost2010PropOp28
 70
     1
102
RTVSPost2010Prop29
280
     1
102
RTVSPost2010PropOp29
 70
     1
102
RTVSPost2010Prop30
280
     1
102
RTVSPost2010PropOp30
 70
     1
102
RTVSPost2010Prop31
280
     0
102
RTVSPost2010PropOp31
 70
     1
102
RTVSPost2010Prop32
280
     0
102
RTVSPost2010PropOp32
 70
     1
102
RTVSPost2010Prop33
280
     0
102
RTVSPost2010PropOp33
 70
     1
102
RTVSPost2010Prop34
280
     0
102
RTVSPost2010PropOp34
 70
     1
102
RTVSPost2010Prop35
280
     0
102
RTVSPost2010PropOp35
 70
     1
102
RTVSPost2010Prop36
280
     0
102
RTVSPost2010PropOp36
 70
     1
102
RTVSPost2010Prop37
 90
       50
102
RTVSPost2010PropOp37
 70
     1
102
RTVSPost2010Prop38
140
0.0
102
RTVSPost2010PropOp38
 70
     1
102
RTVSPost2010Prop39
140
1.0
102
RTVSPost2010PropOp39
 70
     1
102
RTVSPost2010Prop40
 90
        0
102
RTVSPost2010PropOp40
 70
     1
102
RTVSPost2010Prop41ColorIndex
 90
       18
102
RTVSPost2010Prop41ColorRGB
 90
        0
102
RTVSPost2010PropOp41
 70
     1
102
RTVSPost2010Prop42
 90
       50
102
RTVSPost2010PropOp42
 70
     1
102
RTVSPost2010Prop43
 90
        3
102
RTVSPost2010PropOp43
 70
     1
102
RTVSPost2010Prop44ColorIndex
 90
        5
102
RTVSPost2010Prop44ColorRGB
 90
      255
102
RTVSPost2010PropOp44
 70
     1
102
RTVSPost2010Prop45
280
     0
102
RTVSPost2010PropOp45
 70
     1
102
RTVSPost2010Prop46
 90
       50
102
RTVSPost2010PropOp46
 70
     1
102
RTVSPost2010Prop47
 90
       50
102
RTVSPost2010PropOp47
 70
     1
102
RTVSPost2010Prop48
 90
       50
102
RTVSPost2010PropOp48
 70
     1
102
RTVSPost2010Prop49
280
     0
102
RTVSPost2010PropOp49
 70
     1
102
RTVSPost2010Prop50
 90
       50
102
RTVSPost2010PropOp50
 70
     1
102
RTVSPost2010Prop51ColorIndex
 90
      256
102
RTVSPost2010Prop51ColorRGB
 90
-16777216
102
RTVSPost2010PropOp51
 70
     0
102
RTVSPost2010Prop52
140
1.0
102
RTVSPost2010PropOp52
 70
     0
102
RTVSPost2010Prop53
 90
        2
102
RTVSPost2010PropOp53
 70
     1
102
RTVSPost2010Prop54
  1
strokes_ogs.tif
102
RTVSPost2010PropOp54
 70
     1
102
RTVSPost2010Prop55
280
     0
102
RTVSPost2010PropOp55
 70
     1
102
RTVSPost2010Prop56
140
1.0
102
RTVSPost2010PropOp56
 70
     1
102
RTVSPost2010Prop57
140
1.0
102
RTVSPost2010PropOp57
 70
     1
  0
XRECORD
  5
1AB
102
{ACAD_REACTORS
330
1AA
102
}
330
1AA
100
AcDbXrecord
280
     1
102
RTVSPost2010Prop28
280
     0
102
RTVSPost2010PropOp28
 70
     1
102
RTVSPost2010Prop29
280
     1
102
RTVSPost2010PropOp29
 70
     1
102
RTVSPost2010Prop30
280
     1
102
RTVSPost2010PropOp30
 70
     1
102
RTVSPost2010Prop31
280
     0
102
RTVSPost2010PropOp31
 70
     1
102
RTVSPost2010Prop32
280
     0
102
RTVSPost2010PropOp32
 70
     1
102
RTVSPost2010Prop33
280
     0
102
RTVSPost2010PropOp33
 70
     1
102
RTVSPost2010Prop34
280
     0
102
RTVSPost2010PropOp34
 70
     1
102
RTVSPost2010Prop35
280
     0
102
RTVSPost2010PropOp35
 70
     1
102
RTVSPost2010Prop36
280
     0
102
RTVSPost2010PropOp36
 70
     1
102
RTVSPost2010Prop37
 90
       50
102
RTVSPost2010PropOp37
 70
     1
102
RTVSPost2010Prop38
140
0.0
102
RTVSPost2010PropOp38
 70
     1
102
RTVSPost2010Prop39
140
1.0
102
RTVSPost2010PropOp39
 70
     1
102
RTVSPost2010Prop40
 90
        0
102
RTVSPost2010PropOp40
 70
     1
102
RTVSPost2010Prop41ColorIndex
 90
       18
102
RTVSPost2010Prop41ColorRGB
 90
        0
102
RTVSPost2010PropOp41
 70
     1
102
RTVSPost2010Prop42
 90
       50
102
RTVSPost2010PropOp42
 70
     1
102
RTVSPost2010Prop43
 90
        3
102
RTVSPost2010PropOp43
 70
     1
102
RTVSPost2010Prop44ColorIndex
 90
        5
102
RTVSPost2010Prop44ColorRGB
 90
      255
102
RTVSPost2010PropOp44
 70
     1
102
RTVSPost2010Prop45
280
     0
102
RTVSPost2010PropOp45
 70
     1
102
RTVSPost2010Prop46
 90
       50
102
RTVSPost2010PropOp46
 70
     1
102
RTVSPost2010Prop47
 90
       50
102
RTVSPost2010PropOp47
 70
     1
102
RTVSPost2010Prop48
 90
       50
102
RTVSPost2010PropOp48
 70
     1
102
RTVSPost2010Prop49
280
     0
102
RTVSPost2010PropOp49
 70
     1
102
RTVSPost2010Prop50
 90
       50
102
RTVSPost2010PropOp50
 70
     1
102
RTVSPost2010Prop51ColorIndex
 90
      256
102
RTVSPost2010Prop51ColorRGB
 90
-16777216
102
RTVSPost2010PropOp51
 70
     0
102
RTVSPost2010Prop52
140
1.0
102
RTVSPost2010PropOp52
 70
     0
102
RTVSPost2010Prop53
 90
        2
102
RTVSPost2010PropOp53
 70
     1
102
RTVSPost2010Prop54
  1
strokes_ogs.tif
102
RTVSPost2010PropOp54
 70
     1
102
RTVSPost2010Prop55
280
     0
102
RTVSPost2010PropOp55
 70
     1
102
RTVSPost2010Prop56
140
1.0
102
RTVSPost2010PropOp56
 70
     1
102
RTVSPost2010Prop57
140
1.0
102
RTVSPost2010PropOp57
 70
     1
  0
XRECORD
  5
1AD
102
{ACAD_REACTORS
330
1AC
102
}
330
1AC
100
AcDbXrecord
280
     1
102
RTVSPost2010Prop28
280
     0
102
RTVSPost2010PropOp28
 70
     1
102
RTVSPost2010Prop29
280
     1
102
RTVSPost2010PropOp29
 70
     1
102
RTVSPost2010Prop30
280
     1
102
RTVSPost2010PropOp30
 70
     1
102
RTVSPost2010Prop31
280
     0
102
RTVSPost2010PropOp31
 70
     1
102
RTVSPost2010Prop32
280
     0
102
RTVSPost2010PropOp32
 70
     1
102
RTVSPost2010Prop33
280
     0
102
RTVSPost2010PropOp33
 70
     1
102
RTVSPost2010Prop34
280
     0
102
RTVSPost2010PropOp34
 70
     1
102
RTVSPost2010Prop35
280
     0
102
RTVSPost2010PropOp35
 70
     1
102
RTVSPost2010Prop36
280
     0
102
RTVSPost2010PropOp36
 70
     1
102
RTVSPost2010Prop37
 90
       50
102
RTVSPost2010PropOp37
 70
     1
102
RTVSPost2010Prop38
140
0.0
102
RTVSPost2010PropOp38
 70
     1
102
RTVSPost2010Prop39
140
1.0
102
RTVSPost2010PropOp39
 70
     1
102
RTVSPost2010Prop40
 90
        0
102
RTVSPost2010PropOp40
 70
     1
102
RTVSPost2010Prop41ColorIndex
 90
       18
102
RTVSPost2010Prop41ColorRGB
 90
        0
102
RTVSPost2010PropOp41
 70
     1
102
RTVSPost2010Prop42
 90
       50
102
RTVSPost2010PropOp42
 70
     1
102
RTVSPost2010Prop43
 90
        3
102
RTVSPost2010PropOp43
 70
     1
102
RTVSPost2010Prop44ColorIndex
 90
        5
102
RTVSPost2010Prop44ColorRGB
 90
      255
102
RTVSPost2010PropOp44
 70
     1
102
RTVSPost2010Prop45
280
     0
102
RTVSPost2010PropOp45
 70
     1
102
RTVSPost2010Prop46
 90
       50
102
RTVSPost2010PropOp46
 70
     1
102
RTVSPost2010Prop47
 90
       50
102
RTVSPost2010PropOp47
 70
     1
102
RTVSPost2010Prop48
 90
       50
102
RTVSPost2010PropOp48
 70
     1
102
RTVSPost2010Prop49
280
     0
102
RTVSPost2010PropOp49
 70
     1
102
RTVSPost2010Prop50
 90
       50
102
RTVSPost2010PropOp50
 70
     1
102
RTVSPost2010Prop51ColorIndex
 90
      256
102
RTVSPost2010Prop51ColorRGB
 90
-16777216
102
RTVSPost2010PropOp51
 70
     0
102
RTVSPost2010Prop52
140
1.0
102
RTVSPost2010PropOp52
 70
     0
102
RTVSPost2010Prop53
 90
        2
102
RTVSPost2010PropOp53
 70
     1
102
RTVSPost2010Prop54
  1
strokes_ogs.tif
102
RTVSPost2010PropOp54
 70
     1
102
RTVSPost2010Prop55
280
     0
102
RTVSPost2010PropOp55
 70
     1
102
RTVSPost2010Prop56
140
1.0
102
RTVSPost2010PropOp56
 70
     1
102
RTVSPost2010Prop57
140
1.0
102
RTVSPost2010PropOp57
 70
     1
  0
XRECORD
  5
1A3
102
{ACAD_REACTORS
330
1A2
102
}
330
1A2
100
AcDbXrecord
280
     1
102
RTVSPost2010Prop28
280
     0
102
RTVSPost2010PropOp28
 70
     1
102
RTVSPost2010Prop29
280
     1
102
RTVSPost2010PropOp29
 70
     1
102
RTVSPost2010Prop30
280
     1
102
RTVSPost2010PropOp30
 70
     1
102
RTVSPost2010Prop31
280
     0
102
RTVSPost2010PropOp31
 70
     1
102
RTVSPost2010Prop32
280
     0
102
RTVSPost2010PropOp32
 70
     1
102
RTVSPost2010Prop33
280
     0
102
RTVSPost2010PropOp33
 70
     1
102
RTVSPost2010Prop34
280
     0
102
RTVSPost2010PropOp34
 70
     1
102
RTVSPost2010Prop35
280
     0
102
RTVSPost2010PropOp35
 70
     1
102
RTVSPost2010Prop36
280
     0
102
RTVSPost2010PropOp36
 70
     1
102
RTVSPost2010Prop37
 90
       50
102
RTVSPost2010PropOp37
 70
     1
102
RTVSPost2010Prop38
140
0.0
102
RTVSPost2010PropOp38
 70
     1
102
RTVSPost2010Prop39
140
1.0
102
RTVSPost2010PropOp39
 70
     1
102
RTVSPost2010Prop40
 90
        0
102
RTVSPost2010PropOp40
 70
     1
102
RTVSPost2010Prop41ColorIndex
 90
       18
102
RTVSPost2010Prop41ColorRGB
 90
        0
102
RTVSPost2010PropOp41
 70
     1
102
RTVSPost2010Prop42
 90
       50
102
RTVSPost2010PropOp42
 70
     1
102
RTVSPost2010Prop43
 90
        3
102
RTVSPost2010PropOp43
 70
     1
102
RTVSPost2010Prop44ColorIndex
 90
        5
102
RTVSPost2010Prop44ColorRGB
 90
      255
102
RTVSPost2010PropOp44
 70
     1
102
RTVSPost2010Prop45
280
     0
102
RTVSPost2010PropOp45
 70
     1
102
RTVSPost2010Prop46
 90
       50
102
RTVSPost2010PropOp46
 70
     1
102
RTVSPost2010Prop47
 90
       50
102
RTVSPost2010PropOp47
 70
     1
102
RTVSPost2010Prop48
 90
       50
102
RTVSPost2010PropOp48
 70
     1
102
RTVSPost2010Prop49
280
     0
102
RTVSPost2010PropOp49
 70
     1
102
RTVSPost2010Prop50
 90
       50
102
RTVSPost2010PropOp50
 70
     1
102
RTVSPost2010Prop51ColorIndex
 90
      256
102
RTVSPost2010Prop51ColorRGB
 90
-16777216
102
RTVSPost2010PropOp51
 70
     0
102
RTVSPost2010Prop52
140
1.0
102
RTVSPost2010PropOp52
 70
     0
102
RTVSPost2010Prop53
 90
        2
102
RTVSPost2010PropOp53
 70
     1
102
RTVSPost2010Prop54
  1
strokes_ogs.tif
102
RTVSPost2010PropOp54
 70
     1
102
RTVSPost2010Prop55
280
     0
102
RTVSPost2010PropOp55
 70
     1
102
RTVSPost2010Prop56
140
1.0
102
RTVSPost2010PropOp56
 70
     1
102
RTVSPost2010Prop57
140
1.0
102
RTVSPost2010PropOp57
 70
     1
  0
XRECORD
  5
197
102
{ACAD_REACTORS
330
196
102
}
330
196
100
AcDbXrecord
280
     1
102
RTVSPost2010Prop28
280
     0
102
RTVSPost2010PropOp28
 70
     1
102
RTVSPost2010Prop29
280
     1
102
RTVSPost2010PropOp29
 70
     1
102
RTVSPost2010Prop30
280
     1
102
RTVSPost2010PropOp30
 70
     1
102
RTVSPost2010Prop31
280
     0
102
RTVSPost2010PropOp31
 70
     1
102
RTVSPost2010Prop32
280
     0
102
RTVSPost2010PropOp32
 70
     1
102
RTVSPost2010Prop33
280
     0
102
RTVSPost2010PropOp33
 70
     1
102
RTVSPost2010Prop34
280
     0
102
RTVSPost2010PropOp34
 70
     1
102
RTVSPost2010Prop35
280
     0
102
RTVSPost2010PropOp35
 70
     1
102
RTVSPost2010Prop36
280
     0
102
RTVSPost2010PropOp36
 70
     1
102
RTVSPost2010Prop37
 90
       50
102
RTVSPost2010PropOp37
 70
     1
102
RTVSPost2010Prop38
140
0.0
102
RTVSPost2010PropOp38
 70
     1
102
RTVSPost2010Prop39
140
1.0
102
RTVSPost2010PropOp39
 70
     1
102
RTVSPost2010Prop40
 90
        0
102
RTVSPost2010PropOp40
 70
     1
102
RTVSPost2010Prop41ColorIndex
 90
       18
102
RTVSPost2010Prop41ColorRGB
 90
        0
102
RTVSPost2010PropOp41
 70
     1
102
RTVSPost2010Prop42
 90
       50
102
RTVSPost2010PropOp42
 70
     1
102
RTVSPost2010Prop43
 90
        3
102
RTVSPost2010PropOp43
 70
     1
102
RTVSPost2010Prop44ColorIndex
 90
        5
102
RTVSPost2010Prop44ColorRGB
 90
      255
102
RTVSPost2010PropOp44
 70
     1
102
RTVSPost2010Prop45
280
     0
102
RTVSPost2010PropOp45
 70
     1
102
RTVSPost2010Prop46
 90
       50
102
RTVSPost2010PropOp46
 70
     1
102
RTVSPost2010Prop47
 90
       50
102
RTVSPost2010PropOp47
 70
     1
102
RTVSPost2010Prop48
 90
       50
102
RTVSPost2010PropOp48
 70
     1
102
RTVSPost2010Prop49
280
     0
102
RTVSPost2010PropOp49
 70
     1
102
RTVSPost2010Prop50
 90
       50
102
RTVSPost2010PropOp50
 70
     1
102
RTVSPost2010Prop51ColorIndex
 90
      256
102
RTVSPost2010Prop51ColorRGB
 90
-16777216
102
RTVSPost2010PropOp51
 70
     0
102
RTVSPost2010Prop52
140
1.0
102
RTVSPost2010PropOp52
 70
     0
102
RTVSPost2010Prop53
 90
        2
102
RTVSPost2010PropOp53
 70
     1
102
RTVSPost2010Prop54
  1
strokes_ogs.tif
102
RTVSPost2010PropOp54
 70
     1
102
RTVSPost2010Prop55
280
     0
102
RTVSPost2010PropOp55
 70
     1
102
RTVSPost2010Prop56
140
1.0
102
RTVSPost2010PropOp56
 70
     1
102
RTVSPost2010Prop57
140
1.0
102
RTVSPost2010PropOp57
 70
     1
  0
XRECORD
  5
1AF
102
{ACAD_REACTORS
330
1AE
102
}
330
1AE
100
AcDbXrecord
280
     1
102
RTVSPost2010Prop28
280
     0
102
RTVSPost2010PropOp28
 70
     1
102
RTVSPost2010Prop29
280
     1
102
RTVSPost2010PropOp29
 70
     1
102
RTVSPost2010Prop30
280
     1
102
RTVSPost2010PropOp30
 70
     1
102
RTVSPost2010Prop31
280
     0
102
RTVSPost2010PropOp31
 70
     1
102
RTVSPost2010Prop32
280
     0
102
RTVSPost2010PropOp32
 70
     1
102
RTVSPost2010Prop33
280
     0
102
RTVSPost2010PropOp33
 70
     1
102
RTVSPost2010Prop34
280
     0
102
RTVSPost2010PropOp34
 70
     1
102
RTVSPost2010Prop35
280
     0
102
RTVSPost2010PropOp35
 70
     1
102
RTVSPost2010Prop36
280
     0
102
RTVSPost2010PropOp36
 70
     1
102
RTVSPost2010Prop37
 90
       50
102
RTVSPost2010PropOp37
 70
     1
102
RTVSPost2010Prop38
140
0.0
102
RTVSPost2010PropOp38
 70
     1
102
RTVSPost2010Prop39
140
1.0
102
RTVSPost2010PropOp39
 70
     1
102
RTVSPost2010Prop40
 90
        0
102
RTVSPost2010PropOp40
 70
     1
102
RTVSPost2010Prop41ColorIndex
 90
       18
102
RTVSPost2010Prop41ColorRGB
 90
        0
102
RTVSPost2010PropOp41
 70
     1
102
RTVSPost2010Prop42
 90
       50
102
RTVSPost2010PropOp42
 70
     1
102
RTVSPost2010Prop43
 90
        3
102
RTVSPost2010PropOp43
 70
     1
102
RTVSPost2010Prop44ColorIndex
 90
        5
102
RTVSPost2010Prop44ColorRGB
 90
      255
102
RTVSPost2010PropOp44
 70
     1
102
RTVSPost2010Prop45
280
     0
102
RTVSPost2010PropOp45
 70
     1
102
RTVSPost2010Prop46
 90
       50
102
RTVSPost2010PropOp46
 70
     1
102
RTVSPost2010Prop47
 90
       50
102
RTVSPost2010PropOp47
 70
     1
102
RTVSPost2010Prop48
 90
       50
102
RTVSPost2010PropOp48
 70
     1
102
RTVSPost2010Prop49
280
     0
102
RTVSPost2010PropOp49
 70
     1
102
RTVSPost2010Prop50
 90
       50
102
RTVSPost2010PropOp50
 70
     1
102
RTVSPost2010Prop51ColorIndex
 90
      256
102
RTVSPost2010Prop51ColorRGB
 90
-16777216
102
RTVSPost2010PropOp51
 70
     0
102
RTVSPost2010Prop52
140
1.0
102
RTVSPost2010PropOp52
 70
     0
102
RTVSPost2010Prop53
 90
        2
102
RTVSPost2010PropOp53
 70
     1
102
RTVSPost2010Prop54
  1
strokes_ogs.tif
102
RTVSPost2010PropOp54
 70
     1
102
RTVSPost2010Prop55
280
     0
102
RTVSPost2010PropOp55
 70
     1
102
RTVSPost2010Prop56
140
1.0
102
RTVSPost2010PropOp56
 70
     1
102
RTVSPost2010Prop57
140
1.0
102
RTVSPost2010PropOp57
 70
     1
  0
ENDSEC
  0
EOF
