  0
SECTION
  2
HEADER
  9
$ACADVER
  1
AC1024
  9
$ACADMAINTVER
 70
   226
  9
$DWGCODEPAGE
  3
ANSI_1252
  9
$INSBASE
 10
0.0
 20
0.0
 30
0.0
  9
$EXTMIN
 10
1.000000000000000E+20
 20
1.000000000000000E+20
 30
1.000000000000000E+20
  9
$EXTMAX
 10
-1.000000000000000E+20
 20
-1.000000000000000E+20
 30
-1.000000000000000E+20
  9
$LIMMIN
 10
0.0
 20
0.0
  9
$LIMMAX
 10
12.0
 20
9.0
  9
$ORTHOMODE
 70
     0
  9
$REGENMODE
 70
     1
  9
$FILLMODE
 70
     1
  9
$QTEXTMODE
 70
     0
  9
$MIRRTEXT
 70
     1
  9
$LTSCALE
 40
1.0
  9
$ATTMODE
 70
     1
  9
$TEXTSIZE
 40
0.2
  9
$TRACEWID
 40
0.05
  9
$TEXTSTYLE
  7
Standard
  9
$CLAYER
  8
0
  9
$CELTYPE
  6
ByLayer
  9
$CECOLOR
 62
   256
  9
$CELTSCALE
 40
1.0
  9
$DISPSILH
 70
     0
  9
$DIMSCALE
 40
1.0
  9
$DIMASZ
 40
0.18
  9
$DIMEXO
 40
0.0625
  9
$DIMDLI
 40
0.38
  9
$DIMRND
 40
0.0
  9
$DIMDLE
 40
0.0
  9
$DIMEXE
 40
0.18
  9
$DIMTP
 40
0.0
  9
$DIMTM
 40
0.0
  9
$DIMTXT
 40
0.18
  9
$DIMCEN
 40
0.09
  9
$DIMTSZ
 40
0.0
  9
$DIMTOL
 70
     0
  9
$DIMLIM
 70
     0
  9
$DIMTIH
 70
     1
  9
$DIMTOH
 70
     1
  9
$DIMSE1
 70
     0
  9
$DIMSE2
 70
     0
  9
$DIMTAD
 70
     0
  9
$DIMZIN
 70
     0
  9
$DIMBLK
  1

  9
$DIMASO
 70
     1
  9
$DIMSHO
 70
     1
  9
$DIMPOST
  1

  9
$DIMAPOST
  1

  9
$DIMALT
 70
     0
  9
$DIMALTD
 70
     2
  9
$DIMALTF
 40
25.4
  9
$DIMLFAC
 40
1.0
  9
$DIMTOFL
 70
     0
  9
$DIMTVP
 40
0.0
  9
$DIMTIX
 70
     0
  9
$DIMSOXD
 70
     0
  9
$DIMSAH
 70
     0
  9
$DIMBLK1
  1

  9
$DIMBLK2
  1

  9
$DIMSTYLE
  2
Standard
  9
$DIMCLRD
 70
     0
  9
$DIMCLRE
 70
     0
  9
$DIMCLRT
 70
     0
  9
$DIMTFAC
 40
1.0
  9
$DIMGAP
 40
0.09
  9
$DIMJUST
 70
     0
  9
$DIMSD1
 70
     0
  9
$DIMSD2
 70
     0
  9
$DIMTOLJ
 70
     1
  9
$DIMTZIN
 70
     0
  9
$DIMALTZ
 70
     0
  9
$DIMALTTZ
 70
     0
  9
$DIMUPT
 70
     0
  9
$DIMDEC
 70
     4
  9
$DIMTDEC
 70
     4
  9
$DIMALTU
 70
     2
  9
$DIMALTTD
 70
     2
  9
$DIMTXSTY
  7
Standard
  9
$DIMAUNIT
 70
     0
  9
$DIMADEC
 70
     0
  9
$DIMALTRND
 40
0.0
  9
$DIMAZIN
 70
     0
  9
$DIMDSEP
 70
    46
  9
$DIMATFIT
 70
     3
  9
$DIMFRAC
 70
     0
  9
$DIMLDRBLK
  1

  9
$DIMLUNIT
 70
     2
  9
$DIMLWD
 70
    -2
  9
$DIMLWE
 70
    -2
  9
$DIMTMOVE
 70
     0
  9
$DIMFXL
 40
1.0
  9
$DIMFXLON
 70
     0
  9
$DIMJOGANG
 40
0.7853981633974483
  9
$DIMTFILL
 70
     0
  9
$DIMTFILLCLR
 70
     0
  9
$DIMARCSYM
 70
     0
  9
$DIMLTYPE
  6

  9
$DIMLTEX1
  6

  9
$DIMLTEX2
  6

  9
$DIMTXTDIRECTION
 70
     0
  9
$LUNITS
 70
     2
  9
$LUPREC
 70
     4
  9
$SKETCHINC
 40
0.1
  9
$FILLETRAD
 40
0.5
  9
$AUNITS
 70
     0
  9
$AUPREC
 70
     0
  9
$MENU
  1
.
  9
$ELEVATION
 40
0.0
  9
$PELEVATION
 40
0.0
  9
$THICKNESS
 40
0.0
  9
$LIMCHECK
 70
     0
  9
$CHAMFERA
 40
0.5
  9
$CHAMFERB
 40
0.5
  9
$CHAMFERC
 40
1.0
  9
$CHAMFERD
 40
0.0
  9
$SKPOLY
 70
     0
  9
$TDCREATE
 40
2451380.888761574
  9
$TDUCREATE
 40
2451380.805432396
  9
$TDUPDATE
 40
2451380.924513889
  9
$TDUUPDATE
 40
2451380.841180556
  9
$TDINDWG
 40
0.0075602199
  9
$TDUSRTIMER
 40
0.0075511806
  9
$USRTIMER
 70
     1
  9
$ANGBASE
 50
0.0
  9
$ANGDIR
 70
     0
  9
$PDMODE
 70
     0
  9
$PDSIZE
 40
0.0
  9
$PLINEWID
 40
0.0
  9
$SPLFRAME
 70
     0
  9
$SPLINETYPE
 70
     6
  9
$SPLINESEGS
 70
     8
  9
$HANDSEED
  5
346
  9
$SURFTAB1
 70
     6
  9
$SURFTAB2
 70
     6
  9
$SURFTYPE
 70
     6
  9
$SURFU
 70
     6
  9
$SURFV
 70
     6
  9
$UCSBASE
  2

  9
$UCSNAME
  2

  9
$UCSORG
 10
0.0
 20
0.0
 30
0.0
  9
$UCSXDIR
 10
1.0
 20
0.0
 30
0.0
  9
$UCSYDIR
 10
0.0
 20
1.0
 30
0.0
  9
$UCSORTHOREF
  2

  9
$UCSORTHOVIEW
 70
     0
  9
$UCSORGTOP
 10
0.0
 20
0.0
 30
0.0
  9
$UCSORGBOTTOM
 10
0.0
 20
0.0
 30
0.0
  9
$UCSORGLEFT
 10
0.0
 20
0.0
 30
0.0
  9
$UCSORGRIGHT
 10
0.0
 20
0.0
 30
0.0
  9
$UCSORGFRONT
 10
0.0
 20
0.0
 30
0.0
  9
$UCSORGBACK
 10
0.0
 20
0.0
 30
0.0
  9
$PUCSBASE
  2

  9
$PUCSNAME
  2

  9
$PUCSORG
 10
0.0
 20
0.0
 30
0.0
  9
$PUCSXDIR
 10
1.0
 20
0.0
 30
0.0
  9
$PUCSYDIR
 10
0.0
 20
1.0
 30
0.0
  9
$PUCSORTHOREF
  2

  9
$PUCSORTHOVIEW
 70
     0
  9
$PUCSORGTOP
 10
0.0
 20
0.0
 30
0.0
  9
$PUCSORGBOTTOM
 10
0.0
 20
0.0
 30
0.0
  9
$PUCSORGLEFT
 10
0.0
 20
0.0
 30
0.0
  9
$PUCSORGRIGHT
 10
0.0
 20
0.0
 30
0.0
  9
$PUCSORGFRONT
 10
0.0
 20
0.0
 30
0.0
  9
$PUCSORGBACK
 10
0.0
 20
0.0
 30
0.0
  9
$USERI1
 70
     0
  9
$USERI2
 70
     0
  9
$USERI3
 70
     0
  9
$USERI4
 70
     0
  9
$USERI5
 70
     0
  9
$USERR1
 40
0.0
  9
$USERR2
 40
0.0
  9
$USERR3
 40
0.0
  9
$USERR4
 40
0.0
  9
$USERR5
 40
0.0
  9
$WORLDVIEW
 70
     1
  9
$SHADEDGE
 70
     3
  9
$SHADEDIF
 70
    70
  9
$TILEMODE
 70
     1
  9
$MAXACTVP
 70
    64
  9
$PINSBASE
 10
0.0
 20
0.0
 30
0.0
  9
$PLIMCHECK
 70
     0
  9
$PEXTMIN
 10
1.000000000000000E+20
 20
1.000000000000000E+20
 30
1.000000000000000E+20
  9
$PEXTMAX
 10
-1.000000000000000E+20
 20
-1.000000000000000E+20
 30
-1.000000000000000E+20
  9
$PLIMMIN
 10
0.0
 20
0.0
  9
$PLIMMAX
 10
12.0
 20
9.0
  9
$UNITMODE
 70
     0
  9
$VISRETAIN
 70
     1
  9
$PLINEGEN
 70
     0
  9
$PSLTSCALE
 70
     1
  9
$TREEDEPTH
 70
  3020
  9
$CMLSTYLE
  2
Standard
  9
$CMLJUST
 70
     0
  9
$CMLSCALE
 40
1.0
  9
$PROXYGRAPHICS
 70
     1
  9
$MEASUREMENT
 70
     1
  9
$CELWEIGHT
370
    -1
  9
$ENDCAPS
280
     0
  9
$JOINSTYLE
280
     0
  9
$LWDISPLAY
290
     0
  9
$INSUNITS
 70
     4
  9
$HYPERLINKBASE
  1

  9
$STYLESHEET
  1

  9
$XEDIT
290
     1
  9
$CEPSNTYPE
380
     0
  9
$PSTYLEMODE
290
     1
  9
$FINGERPRINTGUID
  2
{12F50282-3ED8-11D3-A8B7-0060B0F84BC6}
  9
$VERSIONGUID
  2
{12F50293-3ED8-11D3-A8B7-0060B0F84BC6}
  9
$EXTNAMES
290
     1
  9
$PSVPSCALE
 40
0.0
  9
$OLESTARTUP
290
     0
  9
$SORTENTS
280
   127
  9
$INDEXCTL
280
     0
  9
$HIDETEXT
280
     0
  9
$XCLIPFRAME
280
     2
  9
$HALOGAP
280
     0
  9
$OBSCOLOR
 70
   257
  9
$OBSLTYPE
280
     0
  9
$INTERSECTIONDISPLAY
280
     0
  9
$INTERSECTIONCOLOR
 70
   257
  9
$DIMASSOC
280
     1
  9
$PROJECTNAME
  1

  9
$CAMERADISPLAY
290
     0
  9
$LENSLENGTH
 40
50.0
  9
$CAMERAHEIGHT
 40
0.0
  9
$STEPSPERSEC
 40
2.0
  9
$STEPSIZE
 40
6.0
  9
$3DDWFPREC
 40
2.0
  9
$PSOLWIDTH
 40
0.25
  9
$PSOLHEIGHT
 40
4.0
  9
$LOFTANG1
 40
1.570796326794896
  9
$LOFTANG2
 40
1.570796326794896
  9
$LOFTMAG1
 40
0.0
  9
$LOFTMAG2
 40
0.0
  9
$LOFTPARAM
 70
     7
  9
$LOFTNORMALS
280
     1
  9
$LATITUDE
 40
37.795
  9
$LONGITUDE
 40
-122.394
  9
$NORTHDIRECTION
 40
0.0
  9
$TIMEZONE
 70
 -8000
  9
$LIGHTGLYPHDISPLAY
280
     1
  9
$TILEMODELIGHTSYNCH
280
     1
  9
$CMATERIAL
347
AB
  9
$SOLIDHIST
280
     0
  9
$SHOWHIST
280
     1
  9
$DWFFRAME
280
     2
  9
$DGNFRAME
280
     0
  9
$REALWORLDSCALE
290
     1
  9
$INTERFERECOLOR
 62
     1
  9
$INTERFEREOBJVS
345
CD
  9
$INTERFEREVPVS
346
CA
  9
$CSHADOW
280
     0
  9
$SHADOWPLANELOCATION
 40
0.0
  0
ENDSEC
  0
SECTION
  2
CLASSES
  0
CLASS
  1
ACDBDICTIONARYWDFLT
  2
AcDbDictionaryWithDefault
  3
ObjectDBX Classes
 90
        0
 91
        1
280
     0
281
     0
  0
CLASS
  1
ACDBPLACEHOLDER
  2
AcDbPlaceHolder
  3
ObjectDBX Classes
 90
        0
 91
        2
280
     0
281
     0
  0
CLASS
  1
LAYOUT
  2
AcDbLayout
  3
ObjectDBX Classes
 90
        0
 91
        3
280
     0
281
     0
  0
CLASS
  1
MATERIAL
  2
AcDbMaterial
  3
ObjectDBX Classes
 90
     1153
 91
        3
280
     0
281
     0
  0
CLASS
  1
VISUALSTYLE
  2
AcDbVisualStyle
  3
ObjectDBX Classes
 90
     4095
 91
       24
280
     0
281
     0
  0
CLASS
  1
TABLESTYLE
  2
AcDbTableStyle
  3
ObjectDBX Classes
 90
     4095
 91
        1
280
     0
281
     0
  0
CLASS
  1
SCALE
  2
AcDbScale
  3
ObjectDBX Classes
 90
     1153
 91
       17
280
     0
281
     0
  0
CLASS
  1
MLEADERSTYLE
  2
AcDbMLeaderStyle
  3
ACDB_MLEADERSTYLE_CLASS
 90
     4095
 91
        1
280
     0
281
     0
  0
CLASS
  1
ACDBSECTIONVIEWSTYLE
  2
AcDbSectionViewStyle
  3
ObjectDBX Classes
 90
     1025
 91
        1
280
     0
281
     0
  0
CLASS
  1
ACDBDETAILVIEWSTYLE
  2
AcDbDetailViewStyle
  3
ObjectDBX Classes
 90
     1025
 91
        1
280
     0
281
     0
  0
CLASS
  1
MESH
  2
AcDbSubDMesh
  3
ObjectDBX Classes
 90
        0
 91
        1
280
     0
281
     1
  0
CLASS
  1
DICTIONARYVAR
  2
AcDbDictionaryVar
  3
ObjectDBX Classes
 90
        0
 91
        9
280
     0
281
     0
  0
CLASS
  1
CELLSTYLEMAP
  2
AcDbCellStyleMap
  3
ObjectDBX Classes
 90
     1152
 91
        1
280
     0
281
     0
  0
ENDSEC
  0
SECTION
  2
TABLES
  0
TABLE
  2
VPORT
  5
8
330
0
100
AcDbSymbolTable
 70
     1
  0
VPORT
  5
A8
330
8
100
AcDbSymbolTableRecord
100
AcDbViewportTableRecord
  2
*Active
 70
     0
 10
0.0
 20
0.0
 11
1.0
 21
1.0
 12
-0.0000009536743164
 22
47.93450927734375
 13
0.0
 23
0.0
 14
0.5
 24
0.5
 15
0.5
 25
0.5
 16
-1.0
 26
-1.0
 36
1.0
 17
0.0
 27
0.0
 37
0.0
 40
140.0945716362222
 41
0.7585742458122237
 42
50.0
 43
0.0
 44
0.0
 50
0.0
 51
0.0
 71
     0
 72
   100
 73
     1
 74
     3
 75
     0
 76
     0
 77
     0
 78
     0
281
     0
 65
     1
110
0.0
120
0.0
130
0.0
111
1.0
121
0.0
131
0.0
112
0.0
122
1.0
132
0.0
 79
     0
146
0.0
348
C9
 60
     3
 61
     5
292
     1
282
     1
141
0.0
142
0.0
 63
   250
421
  3355443
  0
ENDTAB
  0
TABLE
  2
LTYPE
  5
5
330
0
100
AcDbSymbolTable
 70
     1
  0
LTYPE
  5
14
330
5
100
AcDbSymbolTableRecord
100
AcDbLinetypeTableRecord
  2
ByBlock
 70
     0
  3

 72
    65
 73
     0
 40
0.0
  0
LTYPE
  5
15
330
5
100
AcDbSymbolTableRecord
100
AcDbLinetypeTableRecord
  2
ByLayer
 70
     0
  3

 72
    65
 73
     0
 40
0.0
  0
LTYPE
  5
16
330
5
100
AcDbSymbolTableRecord
100
AcDbLinetypeTableRecord
  2
Continuous
 70
     0
  3
Solid line
 72
    65
 73
     0
 40
0.0
  0
ENDTAB
  0
TABLE
  2
LAYER
  5
2
330
0
100
AcDbSymbolTable
 70
     3
  0
LAYER
  5
10
330
2
100
AcDbSymbolTableRecord
100
AcDbLayerTableRecord
  2
0
 70
     0
 62
   153
420
  7507413
  6
Continuous
370
    -3
390
F
347
BB
  0
LAYER
  5
2B
330
2
100
AcDbSymbolTableRecord
100
AcDbLayerTableRecord
  2
ASHADE
 70
     4
 62
     7
  6
Continuous
370
    -3
390
2D
347
BB
  0
LAYER
  5
F9
330
2
100
AcDbSymbolTableRecord
100
AcDbLayerTableRecord
  2
Material Color - 37
 70
     0
 62
     7
420
 16777215
  6
Continuous
370
    -3
390
F
347
BB
  0
ENDTAB
  0
TABLE
  2
STYLE
  5
3
330
0
100
AcDbSymbolTable
 70
     2
  0
STYLE
  5
11
330
3
100
AcDbSymbolTableRecord
100
AcDbTextStyleTableRecord
  2
Standard
 70
     0
 40
0.0
 41
1.0
 50
0.0
 71
     0
 42
0.2
  3
txt
  4

  0
STYLE
  5
2C
330
3
100
AcDbSymbolTableRecord
100
AcDbTextStyleTableRecord
  2
ASHADE
 70
     0
 40
0.2
 41
1.0
 50
0.0
 71
     0
 42
0.2
  3
simplex
  4

  0
ENDTAB
  0
TABLE
  2
VIEW
  5
6
330
0
100
AcDbSymbolTable
 70
     0
  0
ENDTAB
  0
TABLE
  2
UCS
  5
7
330
0
100
AcDbSymbolTable
 70
     0
  0
ENDTAB
  0
TABLE
  2
APPID
  5
9
330
0
100
AcDbSymbolTable
 70
     6
  0
APPID
  5
12
330
9
100
AcDbSymbolTableRecord
100
AcDbRegAppTableRecord
  2
ACAD
 70
     0
  0
APPID
  5
8F
330
9
100
AcDbSymbolTableRecord
100
AcDbRegAppTableRecord
  2
AVE_RENDER
 70
     0
  0
APPID
  5
90
330
9
100
AcDbSymbolTableRecord
100
AcDbRegAppTableRecord
  2
AVE_ENTITY_MATERIAL
 70
     0
  0
APPID
  5
9C
330
9
100
AcDbSymbolTableRecord
100
AcDbRegAppTableRecord
  2
AVE_FINISH
 70
     0
  0
APPID
  5
9D
330
9
100
AcDbSymbolTableRecord
100
AcDbRegAppTableRecord
  2
AVE_MATERIAL
 70
     0
  0
APPID
  5
9E
330
9
100
AcDbSymbolTableRecord
100
AcDbRegAppTableRecord
  2
AVE_GLOBAL
 70
     0
  0
ENDTAB
  0
TABLE
  2
DIMSTYLE
  5
A
330
0
100
AcDbSymbolTable
 70
     1
100
AcDbDimStyleTable
 71
     0
  0
DIMSTYLE
105
27
330
A
100
AcDbSymbolTableRecord
100
AcDbDimStyleTableRecord
  2
Standard
 70
     0
340
11
  0
ENDTAB
  0
TABLE
  2
BLOCK_RECORD
  5
1
330
0
100
AcDbSymbolTable
 70
     6
  0
BLOCK_RECORD
  5
1F
330
1
100
AcDbSymbolTableRecord
100
AcDbBlockTableRecord
  2
*Model_Space
340
22
 70
     0
280
     1
281
     0
  0
BLOCK_RECORD
  5
1B
330
1
100
AcDbSymbolTableRecord
100
AcDbBlockTableRecord
  2
*Paper_Space
340
1E
 70
     0
280
     1
281
     0
  0
BLOCK_RECORD
  5
23
330
1
100
AcDbSymbolTableRecord
100
AcDbBlockTableRecord
  2
*Paper_Space0
340
26
 70
     0
280
     1
281
     0
  0
BLOCK_RECORD
  5
2E
330
1
100
AcDbSymbolTableRecord
100
AcDbBlockTableRecord
  2
direct
340
0
 70
     0
280
     1
281
     0
  0
BLOCK_RECORD
  5
42
330
1
100
AcDbSymbolTableRecord
100
AcDbBlockTableRecord
  2
overhead
340
0
 70
     0
280
     1
281
     0
  0
BLOCK_RECORD
  5
5F
330
1
100
AcDbSymbolTableRecord
100
AcDbBlockTableRecord
  2
sh_spot
340
0
 70
     0
280
     1
281
     0
  0
BLOCK_RECORD
  5
91
330
1
100
AcDbSymbolTableRecord
100
AcDbBlockTableRecord
  2
AVE_RENDER
340
0
102
{BLKREFS
331
94
331
95
331
96
331
97
331
98
331
99
331
9A
331
9B
102
}
 70
     0
280
     1
281
     0
  0
BLOCK_RECORD
  5
9F
330
1
100
AcDbSymbolTableRecord
100
AcDbBlockTableRecord
  2
AVE_GLOBAL
340
0
102
{BLKREFS
331
A2
102
}
 70
     0
280
     1
281
     0
  0
ENDTAB
  0
ENDSEC
  0
SECTION
  2
BLOCKS
  0
BLOCK
  5
20
330
1F
100
AcDbEntity
  8
0
100
AcDbBlockBegin
  2
*Model_Space
 70
     0
 10
0.0
 20
0.0
 30
0.0
  3
*Model_Space
  1

  0
ENDBLK
  5
21
330
1F
100
AcDbEntity
  8
0
100
AcDbBlockEnd
  0
BLOCK
  5
1C
330
1B
100
AcDbEntity
 67
     1
  8
0
100
AcDbBlockBegin
  2
*Paper_Space
 70
     0
 10
0.0
 20
0.0
 30
0.0
  3
*Paper_Space
  1

  0
ENDBLK
  5
1D
330
1B
100
AcDbEntity
 67
     1
  8
0
100
AcDbBlockEnd
  0
BLOCK
  5
24
330
23
100
AcDbEntity
 67
     1
  8
0
100
AcDbBlockBegin
  2
*Paper_Space0
 70
     0
 10
0.0
 20
0.0
 30
0.0
  3
*Paper_Space0
  1

  0
ENDBLK
  5
25
330
23
100
AcDbEntity
 67
     1
  8
0
100
AcDbBlockEnd
  0
BLOCK
  5
40
330
2E
100
AcDbEntity
  8
0
100
AcDbBlockBegin
  2
direct
 70
     2
 10
0.0
 20
0.0
 30
0.0
  3
direct
  1

  0
ATTDEF
  5
2F
330
2E
100
AcDbEntity
  8
ASHADE
  6
Continuous
 62
     1
100
AcDbText
 10
0.0
 20
-0.1
 30
0.0
 40
0.2
  1

  7
ASHADE
 72
     1
 11
0.0
 21
-0.1
 31
0.0
100
AcDbAttributeDefinition
280
     0
  3
Light Name
  2
SNAME
 70
     0
280
     0
  0
ARC
  5
30
330
2E
100
AcDbEntity
  8
ASHADE
  6
Continuous
 62
     7
100
AcDbCircle
 10
0.0
 20
0.0
 30
0.0
 40
0.3
100
AcDbArc
 50
205.6792886194569
 51
334.3207113805431
  0
ARC
  5
31
330
2E
100
AcDbEntity
  8
ASHADE
  6
Continuous
 62
     7
100
AcDbCircle
 10
0.0
 20
0.0
 30
0.0
 40
0.3
100
AcDbArc
 50
25.67928861945685
 51
154.3207113805431
  0
LINE
  5
32
330
2E
100
AcDbEntity
  8
ASHADE
  6
Continuous
 62
     7
100
AcDbLine
 10
-0.21
 20
0.2142428528562855
 30
0.0
 11
-0.21
 21
0.5
 31
0.0
  0
LINE
  5
33
330
2E
100
AcDbEntity
  8
ASHADE
  6
Continuous
 62
     7
100
AcDbLine
 10
-0.11
 20
0.2791057147390572
 30
0.0
 11
-0.11
 21
0.5
 31
0.0
  0
LINE
  5
34
330
2E
100
AcDbEntity
  8
ASHADE
  6
Continuous
 62
     7
100
AcDbLine
 10
0.21
 20
0.2142428528562855
 30
0.0
 11
0.21
 21
0.5
 31
0.0
  0
ATTDEF
  5
35
330
2E
100
AcDbEntity
  8
ASHADE
  6
Continuous
 62
     7
100
AcDbText
 10
0.0
 20
0.25
 30
0.0
 40
0.01
  1

100
AcDbAttributeDefinition
280
     0
  3
Look-at Y
  2
LAY
 70
     1
280
     0
  0
ATTDEF
  5
36
330
2E
100
AcDbEntity
  8
ASHADE
  6
Continuous
 62
     7
100
AcDbText
 10
0.0
 20
0.22
 30
0.0
 40
0.01
  1
1
100
AcDbAttributeDefinition
280
     0
  3
Light Intensity
  2
INTENSITY
 70
     1
280
     0
  0
ATTDEF
  5
37
330
2E
100
AcDbEntity
  8
ASHADE
  6
Continuous
 62
     7
100
AcDbText
 10
0.0
 20
0.16
 30
0.0
 40
0.01
  1
-1
100
AcDbAttributeDefinition
280
     0
  3
*not used*
  2
BEAMD
 70
     1
280
     0
  0
ATTDEF
  5
38
330
2E
100
AcDbEntity
  8
ASHADE
  6
Continuous
 62
     7
100
AcDbText
 10
0.0
 20
0.175
 30
0.0
 40
0.01
  1
-1
100
AcDbAttributeDefinition
280
     0
  3
*not used*
  2
CONED
 70
     1
280
     0
  0
ATTDEF
  5
39
330
2E
100
AcDbEntity
  8
ASHADE
  6
Continuous
 62
     7
100
AcDbText
 10
0.0
 20
0.19
 30
0.0
 40
0.01
  1
0
100
AcDbAttributeDefinition
280
     0
  3
Depth Map Size
  2
CONEA
 70
     1
280
     0
  0
ATTDEF
  5
3A
330
2E
100
AcDbEntity
  8
ASHADE
  6
Continuous
 62
     7
100
AcDbText
 10
0.0
 20
0.2050000000000001
 30
0.0
 40
0.01
  1
1,1,1
100
AcDbAttributeDefinition
280
     0
  3
Light Color (RGB)
  2
COLOR
 70
     1
280
     0
  0
ATTDEF
  5
3B
330
2E
100
AcDbEntity
  8
ASHADE
  6
Continuous
 62
     7
100
AcDbText
 10
0.0
 20
0.235
 30
0.0
 40
0.01
  1

100
AcDbAttributeDefinition
280
     0
  3
Look-at Z
  2
LAZ
 70
     1
280
     0
  0
LINE
  5
3C
330
2E
100
AcDbEntity
  8
ASHADE
  6
Continuous
 62
     7
100
AcDbLine
 10
0.0
 20
0.3
 30
0.0
 11
0.0
 21
0.5
 31
0.0
  0
LINE
  5
3D
330
2E
100
AcDbEntity
  8
ASHADE
  6
Continuous
 62
     7
100
AcDbLine
 10
0.11
 20
0.2791057147390572
 30
0.0
 11
0.11
 21
0.5
 31
0.0
  0
ATTDEF
  5
3E
330
2E
100
AcDbEntity
  8
ASHADE
  6
Continuous
 62
     7
100
AcDbText
 10
0.0
 20
0.265
 30
0.0
 40
0.01
  1

100
AcDbAttributeDefinition
280
     0
  3
Look-at X
  2
LAX
 70
     1
280
     0
  0
ATTDEF
  5
3F
330
2E
100
AcDbEntity
  8
ASHADE
  6
Continuous
 62
     7
100
AcDbText
 10
0.0
 20
0.28
 30
0.0
 40
0.01
  1

100
AcDbAttributeDefinition
280
     0
  3

  2
GNAME
 70
     1
280
     0
  0
ENDBLK
  5
41
330
2E
100
AcDbEntity
  8
0
100
AcDbBlockEnd
  0
BLOCK
  5
5D
330
42
100
AcDbEntity
  8
0
100
AcDbBlockBegin
  2
overhead
 70
     2
 10
0.0
 20
0.0
 30
0.0
  3
overhead
  1

  0
ATTDEF
  5
43
330
42
100
AcDbEntity
  8
ASHADE
  6
Continuous
 62
     1
100
AcDbText
 10
0.0
 20
-0.1
 30
0.0
 40
0.2
  1

  7
ASHADE
 72
     1
 11
0.0
 21
-0.1
 31
0.0
100
AcDbAttributeDefinition
280
     0
  3
Light Name
  2
SNAME
 70
     0
280
     0
  0
ARC
  5
44
330
42
100
AcDbEntity
  8
ASHADE
  6
Continuous
 62
     7
100
AcDbCircle
 10
0.0
 20
0.0
 30
0.0
 40
0.3
100
AcDbArc
 50
205.6792886194569
 51
334.3207113805431
  0
LINE
  5
45
330
42
100
AcDbEntity
  8
ASHADE
  6
Continuous
 62
     7
100
AcDbLine
 10
-0.2041413561583015
 20
-0.2198324514393848
 30
0.0
 11
-0.2721884748777353
 21
-0.2931099352525131
 31
0.0
  0
LINE
  5
46
330
42
100
AcDbEntity
  8
ASHADE
  6
Continuous
 62
     7
100
AcDbLine
 10
-0.1096591641591904
 20
-0.2792398032442862
 30
0.0
 11
-0.1279356915190555
 21
-0.3257797704516673
 31
0.0
  0
LINE
  5
47
330
42
100
AcDbEntity
  8
ASHADE
  6
Continuous
 62
     7
100
AcDbLine
 10
0.0
 20
-0.2999999999999999
 30
0.0
 11
0.0
 21
-0.4
 31
0.0
  0
LINE
  5
48
330
42
100
AcDbEntity
  8
ASHADE
  6
Continuous
 62
     7
100
AcDbLine
 10
0.1096591641591904
 20
-0.2792398032442862
 30
0.0
 11
0.1279356915190555
 21
-0.3257797704516673
 31
0.0
  0
LINE
  5
49
330
42
100
AcDbEntity
  8
ASHADE
  6
Continuous
 62
     7
100
AcDbLine
 10
0.2041413561583015
 20
-0.2198324514393848
 30
0.0
 11
0.2721884748777353
 21
-0.2931099352525131
 31
0.0
  0
ARC
  5
4A
330
42
100
AcDbEntity
  8
ASHADE
  6
Continuous
 62
     7
100
AcDbCircle
 10
0.0
 20
0.0
 30
0.0
 40
0.3
100
AcDbArc
 50
25.67928861945685
 51
154.3207113805431
  0
LINE
  5
4B
330
42
100
AcDbEntity
  8
ASHADE
  6
Continuous
 62
     7
100
AcDbLine
 10
-0.2703701166919155
 20
0.13
 30
0.0
 11
-0.3154318028072347
 21
0.1516666666666666
 31
0.0
  0
LINE
  5
4C
330
42
100
AcDbEntity
  8
ASHADE
  6
Continuous
 62
     7
100
AcDbLine
 10
-0.2703701166919155
 20
-0.13
 30
0.0
 11
-0.3154318028072347
 21
-0.1516666666666666
 31
0.0
  0
LINE
  5
4D
330
42
100
AcDbEntity
  8
ASHADE
  6
Continuous
 62
     7
100
AcDbLine
 10
-0.2041413561583015
 20
0.2198324514393849
 30
0.0
 11
-0.2721884748777353
 21
0.2931099352525131
 31
0.0
  0
LINE
  5
4E
330
42
100
AcDbEntity
  8
ASHADE
  6
Continuous
 62
     7
100
AcDbLine
 10
-0.1096591641591904
 20
0.2792398032442862
 30
0.0
 11
-0.1279356915190555
 21
0.3257797704516674
 31
0.0
  0
LINE
  5
4F
330
42
100
AcDbEntity
  8
ASHADE
  6
Continuous
 62
     7
100
AcDbLine
 10
0.2703701166919155
 20
-0.13
 30
0.0
 11
0.3154318028072347
 21
-0.1516666666666666
 31
0.0
  0
LINE
  5
50
330
42
100
AcDbEntity
  8
ASHADE
  6
Continuous
 62
     7
100
AcDbLine
 10
0.2703701166919155
 20
0.13
 30
0.0
 11
0.3154318028072347
 21
0.1516666666666666
 31
0.0
  0
LINE
  5
51
330
42
100
AcDbEntity
  8
ASHADE
  6
Continuous
 62
     7
100
AcDbLine
 10
0.0
 20
0.3
 30
0.0
 11
0.0
 21
0.4
 31
0.0
  0
ATTDEF
  5
52
330
42
100
AcDbEntity
  8
ASHADE
  6
Continuous
 62
     7
100
AcDbText
 10
0.0
 20
0.22
 30
0.0
 40
0.01
  1
1
100
AcDbAttributeDefinition
280
     0
  3
Light Intensity
  2
INTENSITY
 70
     1
280
     0
  0
ATTDEF
  5
53
330
42
100
AcDbEntity
  8
ASHADE
  6
Continuous
 62
     7
100
AcDbText
 10
0.0
 20
0.16
 30
0.0
 40
0.01
  1
-1
100
AcDbAttributeDefinition
280
     0
  3
*not used*
  2
BEAMD
 70
     1
280
     0
  0
ATTDEF
  5
54
330
42
100
AcDbEntity
  8
ASHADE
  6
Continuous
 62
     7
100
AcDbText
 10
0.0
 20
0.175
 30
0.0
 40
0.01
  1
-1
100
AcDbAttributeDefinition
280
     0
  3
*not used*
  2
CONED
 70
     1
280
     0
  0
ATTDEF
  5
55
330
42
100
AcDbEntity
  8
ASHADE
  6
Continuous
 62
     7
100
AcDbText
 10
0.0
 20
0.19
 30
0.0
 40
0.01
  1
0
100
AcDbAttributeDefinition
280
     0
  3
Depth Map Size
  2
CONEA
 70
     1
280
     0
  0
ATTDEF
  5
56
330
42
100
AcDbEntity
  8
ASHADE
  6
Continuous
 62
     7
100
AcDbText
 10
0.0
 20
0.2050000000000001
 30
0.0
 40
0.01
  1
1,1,1
100
AcDbAttributeDefinition
280
     0
  3
Light Color (RGB)
  2
COLOR
 70
     1
280
     0
  0
ATTDEF
  5
57
330
42
100
AcDbEntity
  8
ASHADE
  6
Continuous
 62
     7
100
AcDbText
 10
0.0
 20
0.235
 30
0.0
 40
0.01
  1

100
AcDbAttributeDefinition
280
     0
  3
Look-at Z
  2
LAZ
 70
     1
280
     0
  0
ATTDEF
  5
58
330
42
100
AcDbEntity
  8
ASHADE
  6
Continuous
 62
     7
100
AcDbText
 10
0.0
 20
0.25
 30
0.0
 40
0.01
  1

100
AcDbAttributeDefinition
280
     0
  3
Look-at Y
  2
LAY
 70
     1
280
     0
  0
ATTDEF
  5
59
330
42
100
AcDbEntity
  8
ASHADE
  6
Continuous
 62
     7
100
AcDbText
 10
0.0
 20
0.265
 30
0.0
 40
0.01
  1

100
AcDbAttributeDefinition
280
     0
  3
Look-at X
  2
LAX
 70
     1
280
     0
  0
ATTDEF
  5
5A
330
42
100
AcDbEntity
  8
ASHADE
  6
Continuous
 62
     7
100
AcDbText
 10
0.0
 20
0.28
 30
0.0
 40
0.01
  1

100
AcDbAttributeDefinition
280
     0
  3

  2
GNAME
 70
     1
280
     0
  0
LINE
  5
5B
330
42
100
AcDbEntity
  8
ASHADE
  6
Continuous
 62
     7
100
AcDbLine
 10
0.1096591641591904
 20
0.2792398032442862
 30
0.0
 11
0.1279356915190555
 21
0.3257797704516674
 31
0.0
  0
LINE
  5
5C
330
42
100
AcDbEntity
  8
ASHADE
  6
Continuous
 62
     7
100
AcDbLine
 10
0.2041413561583015
 20
0.2198324514393849
 30
0.0
 11
0.2721884748777353
 21
0.2931099352525131
 31
0.0
  0
ENDBLK
  5
5E
330
42
100
AcDbEntity
  8
0
100
AcDbBlockEnd
  0
BLOCK
  5
85
330
5F
100
AcDbEntity
  8
0
100
AcDbBlockBegin
  2
sh_spot
 70
     2
 10
0.0
 20
0.0
 30
0.0
  3
sh_spot
  1

  0
LINE
  5
60
330
5F
100
AcDbEntity
  8
ASHADE
  6
Continuous
 62
     7
100
AcDbLine
 10
0.25
 20
0.26
 30
0.0
 11
-0.25
 21
0.26
 31
0.0
  0
LINE
  5
61
330
5F
100
AcDbEntity
  8
ASHADE
  6
Continuous
 62
     7
100
AcDbLine
 10
-0.25
 20
-0.3399999999999999
 30
0.0
 11
0.25
 21
-0.3399999999999999
 31
0.0
  0
ATTDEF
  5
62
330
5F
100
AcDbEntity
  8
ASHADE
  6
Continuous
 62
     1
100
AcDbText
 10
0.0
 20
-0.1
 30
0.0
 40
0.2
  1

  7
ASHADE
 72
     1
 11
0.0
 21
-0.1
 31
0.0
100
AcDbAttributeDefinition
280
     0
  3
Light Name
  2
SNAME
 70
     0
280
     0
  0
LINE
  5
63
330
5F
100
AcDbEntity
  8
ASHADE
  6
Continuous
 62
     7
100
AcDbLine
 10
-0.25
 20
-0.13
 30
0.0
 11
-0.25
 21
-0.3399999999999999
 31
0.0
  0
LINE
  5
64
330
5F
100
AcDbEntity
  8
ASHADE
  6
Continuous
 62
     7
100
AcDbLine
 10
-0.25
 20
-0.18
 30
0.0
 11
-0.29
 21
-0.18
 31
0.0
  0
LINE
  5
65
330
5F
100
AcDbEntity
  8
ASHADE
  6
Continuous
 62
     7
100
AcDbLine
 10
-0.29
 20
-0.22
 30
0.0
 11
-0.25
 21
-0.22
 31
0.0
  0
LINE
  5
66
330
5F
100
AcDbEntity
  8
ASHADE
  6
Continuous
 62
     7
100
AcDbLine
 10
-0.29
 20
-0.18
 30
0.0
 11
-0.29
 21
-0.22
 31
0.0
  0
LINE
  5
67
330
5F
100
AcDbEntity
  8
ASHADE
  6
Continuous
 62
     7
100
AcDbLine
 10
-0.1045454545454545
 20
0.26
 30
0.0
 11
-0.15
 21
0.46
 31
0.0
  0
LINE
  5
68
330
5F
100
AcDbEntity
  8
ASHADE
  6
Continuous
 62
     7
100
AcDbLine
 10
-0.21
 20
0.26
 30
0.0
 11
-0.301304347826087
 21
0.46
 31
0.0
  0
LINE
  5
69
330
5F
100
AcDbEntity
  8
ASHADE
  6
Continuous
 62
     7
100
AcDbLine
 10
-0.25
 20
0.26
 30
0.0
 11
-0.25
 21
0.13
 31
0.0
  0
LINE
  5
6A
330
5F
100
AcDbEntity
  8
ASHADE
  6
Continuous
 62
     7
100
AcDbLine
 10
-0.25
 20
0.22
 30
0.0
 11
-0.29
 21
0.22
 31
0.0
  0
LINE
  5
6B
330
5F
100
AcDbEntity
  8
ASHADE
  6
Continuous
 62
     7
100
AcDbLine
 10
-0.29
 20
0.1799999999999999
 30
0.0
 11
-0.25
 21
0.1799999999999999
 31
0.0
  0
LINE
  5
6C
330
5F
100
AcDbEntity
  8
ASHADE
  6
Continuous
 62
     7
100
AcDbLine
 10
-0.29
 20
0.22
 30
0.0
 11
-0.29
 21
0.1799999999999999
 31
0.0
  0
ATTDEF
  5
6D
330
5F
100
AcDbEntity
  8
ASHADE
  6
Continuous
 62
     7
100
AcDbText
 10
0.0
 20
-0.24
 30
0.0
 40
0.01
  1
0
100
AcDbAttributeDefinition
280
     0
  3
Depth Map Size
  2
ZSIZE
 70
     1
280
     0
  0
ATTDEF
  5
6E
330
5F
100
AcDbEntity
  8
ASHADE
  6
Continuous
 62
     7
100
AcDbText
 10
0.0
 20
-0.3300000000000001
 30
0.0
 40
0.01
  1
0,0,0
100
AcDbAttributeDefinition
280
     0
  3
Look-from XYZ
  2
LFXYZ
 70
     1
280
     0
  0
ATTDEF
  5
6F
330
5F
100
AcDbEntity
  8
ASHADE
  6
Continuous
 62
     7
100
AcDbText
 10
0.0
 20
-0.315
 30
0.0
 40
0.01
  1
0.0
100
AcDbAttributeDefinition
280
     0
  3
Beam Distribution
  2
BEAMDI
 70
     1
280
     0
  0
ATTDEF
  5
70
330
5F
100
AcDbEntity
  8
ASHADE
  6
Continuous
 62
     7
100
AcDbText
 10
0.0
 20
-0.3
 30
0.0
 40
0.01
  1
0.0
100
AcDbAttributeDefinition
280
     0
  3
Cone Delta
  2
CONEDE
 70
     1
280
     0
  0
ATTDEF
  5
71
330
5F
100
AcDbEntity
  8
ASHADE
  6
Continuous
 62
     7
100
AcDbText
 10
0.0
 20
-0.2850000000000001
 30
0.0
 40
0.01
  1
10.0
100
AcDbAttributeDefinition
280
     0
  3
Cone Angle
  2
CONEAN
 70
     1
280
     0
  0
ATTDEF
  5
72
330
5F
100
AcDbEntity
  8
ASHADE
  6
Continuous
 62
     7
100
AcDbText
 10
0.0
 20
-0.27
 30
0.0
 40
0.01
  1
-1
100
AcDbAttributeDefinition
280
     0
  3
*not used*
  2
BIASMAX
 70
     1
280
     0
  0
ATTDEF
  5
73
330
5F
100
AcDbEntity
  8
ASHADE
  6
Continuous
 62
     7
100
AcDbText
 10
0.0
 20
-0.255
 30
0.0
 40
0.01
  1
-1
100
AcDbAttributeDefinition
280
     0
  3
*not used*
  2
BIASMIN
 70
     1
280
     0
  0
ATTDEF
  5
74
330
5F
100
AcDbEntity
  8
ASHADE
  6
Continuous
 62
     7
100
AcDbText
 10
0.0
 20
-0.225
 30
0.0
 40
0.01
  1
1,1,1
100
AcDbAttributeDefinition
280
     0
  3
Light Color (RGB)
  2
COLOR
 70
     1
280
     0
  0
ATTDEF
  5
75
330
5F
100
AcDbEntity
  8
ASHADE
  6
Continuous
 62
     7
100
AcDbText
 10
0.0
 20
-0.21
 30
0.0
 40
0.01
  1
1
100
AcDbAttributeDefinition
280
     0
  3
Light Intensity
  2
INTENSITY
 70
     1
280
     0
  0
ATTDEF
  5
76
330
5F
100
AcDbEntity
  8
ASHADE
  6
Continuous
 62
     7
100
AcDbText
 10
0.0
 20
-0.15
 30
0.0
 40
0.01
  1

100
AcDbAttributeDefinition
280
     0
  3

  2
GNAME
 70
     1
280
     0
  0
ATTDEF
  5
77
330
5F
100
AcDbEntity
  8
ASHADE
  6
Continuous
 62
     7
100
AcDbText
 10
0.0
 20
-0.195
 30
0.0
 40
0.01
  1

100
AcDbAttributeDefinition
280
     0
  3
Look-at Z
  2
LAZ
 70
     1
280
     0
  0
ATTDEF
  5
78
330
5F
100
AcDbEntity
  8
ASHADE
  6
Continuous
 62
     7
100
AcDbText
 10
0.0
 20
-0.18
 30
0.0
 40
0.01
  1

100
AcDbAttributeDefinition
280
     0
  3
Look-at Y
  2
LAY
 70
     1
280
     0
  0
ATTDEF
  5
79
330
5F
100
AcDbEntity
  8
ASHADE
  6
Continuous
 62
     7
100
AcDbText
 10
0.0
 20
-0.165
 30
0.0
 40
0.01
  1

100
AcDbAttributeDefinition
280
     0
  3
Look-at X
  2
LAX
 70
     1
280
     0
  0
LINE
  5
7A
330
5F
100
AcDbEntity
  8
ASHADE
  6
Continuous
 62
     7
100
AcDbLine
 10
0.25
 20
-0.3399999999999999
 30
0.0
 11
0.25
 21
-0.13
 31
0.0
  0
LINE
  5
7B
330
5F
100
AcDbEntity
  8
ASHADE
  6
Continuous
 62
     7
100
AcDbLine
 10
0.25
 20
-0.18
 30
0.0
 11
0.29
 21
-0.18
 31
0.0
  0
LINE
  5
7C
330
5F
100
AcDbEntity
  8
ASHADE
  6
Continuous
 62
     7
100
AcDbLine
 10
0.29
 20
-0.22
 30
0.0
 11
0.25
 21
-0.22
 31
0.0
  0
LINE
  5
7D
330
5F
100
AcDbEntity
  8
ASHADE
  6
Continuous
 62
     7
100
AcDbLine
 10
0.29
 20
-0.18
 30
0.0
 11
0.29
 21
-0.22
 31
0.0
  0
LINE
  5
7E
330
5F
100
AcDbEntity
  8
ASHADE
  6
Continuous
 62
     7
100
AcDbLine
 10
0.21
 20
0.26
 30
0.0
 11
0.301304347826087
 21
0.46
 31
0.0
  0
LINE
  5
7F
330
5F
100
AcDbEntity
  8
ASHADE
  6
Continuous
 62
     7
100
AcDbLine
 10
0.1045454545454545
 20
0.26
 30
0.0
 11
0.15
 21
0.46
 31
0.0
  0
LINE
  5
80
330
5F
100
AcDbEntity
  8
ASHADE
  6
Continuous
 62
     7
100
AcDbLine
 10
0.0
 20
0.26
 30
0.0
 11
0.0
 21
0.46
 31
0.0
  0
LINE
  5
81
330
5F
100
AcDbEntity
  8
ASHADE
  6
Continuous
 62
     7
100
AcDbLine
 10
0.25
 20
0.13
 30
0.0
 11
0.25
 21
0.26
 31
0.0
  0
LINE
  5
82
330
5F
100
AcDbEntity
  8
ASHADE
  6
Continuous
 62
     7
100
AcDbLine
 10
0.25
 20
0.22
 30
0.0
 11
0.29
 21
0.22
 31
0.0
  0
LINE
  5
83
330
5F
100
AcDbEntity
  8
ASHADE
  6
Continuous
 62
     7
100
AcDbLine
 10
0.29
 20
0.1799999999999999
 30
0.0
 11
0.25
 21
0.1799999999999999
 31
0.0
  0
LINE
  5
84
330
5F
100
AcDbEntity
  8
ASHADE
  6
Continuous
 62
     7
100
AcDbLine
 10
0.29
 20
0.22
 30
0.0
 11
0.29
 21
0.1799999999999999
 31
0.0
  0
ENDBLK
  5
86
330
5F
100
AcDbEntity
  8
0
100
AcDbBlockEnd
  0
BLOCK
  5
92
330
91
100
AcDbEntity
  8
ASHADE
100
AcDbBlockBegin
  2
AVE_RENDER
 70
     0
 10
0.0
 20
0.0
 30
0.0
  3
AVE_RENDER
  1
AVE_RENDER
  0
ENDBLK
  5
93
330
91
100
AcDbEntity
  8
0
100
AcDbBlockEnd
  0
BLOCK
  5
A0
330
9F
100
AcDbEntity
  8
ASHADE
100
AcDbBlockBegin
  2
AVE_GLOBAL
 70
     0
 10
0.0
 20
0.0
 30
0.0
  3
AVE_GLOBAL
  1
AVE_GLOBAL
  0
ENDBLK
  5
A1
330
9F
100
AcDbEntity
  8
0
100
AcDbBlockEnd
  0
ENDSEC
  0
SECTION
  2
ENTITIES
  0
INSERT
  5
94
330
1F
100
AcDbEntity
  8
ASHADE
 62
     1
100
AcDbBlockReference
  2
AVE_RENDER
 10
0.0
 20
0.0
 30
0.0
1001
AVE_RENDER
1002
{
1070
     7
1000
Pref
1070
    30
1070
    20
1070
     1
1070
     0
1000

1070
    10
1070
     1
1070
    10
1040
1.0
1070
     1
1040
0.3
1040
0.7
1040
0.0
1040
10.0
1010
-1.0
1020
-1.0
1030
-1.0
1040
0.3
1070
    49
1070
     0
1070
     0
1010
1.0
1020
1.0
1030
1.0
1040
45.0
1070
     1
1070
     0
1000
WCS
1040
0.0
1070
     0
1040
10.0
1002
}
  0
INSERT
  5
95
330
1F
100
AcDbEntity
  8
ASHADE
 62
     3
100
AcDbBlockReference
  2
AVE_RENDER
 10
0.0
 20
0.0
 30
0.0
1001
AVE_RENDER
1002
{
1070
     0
1000
Full Opt
1070
     0
1070
     1
1070
     1
1070
     1
1070
     0
1070
     0
1070
     0
1070
     1
1070
     1
1040
0.0001
1040
0.0001
1002
}
  0
INSERT
  5
96
330
1F
100
AcDbEntity
  8
ASHADE
 62
     4
100
AcDbBlockReference
  2
AVE_RENDER
 10
0.0
 20
0.0
 30
0.0
1001
AVE_RENDER
1002
{
1070
     0
1000
Quick Opt
1070
     0
1070
     1
1070
     1
1070
     1
1070
     0
1070
     0
1070
     1
1002
}
  0
INSERT
  5
97
330
1F
100
AcDbEntity
  8
ASHADE
 62
     5
100
AcDbBlockReference
  2
AVE_RENDER
 10
0.0
 20
0.0
 30
0.0
1001
AVE_RENDER
1002
{
1070
     1
1000
Scanl Opt
1070
     2
1070
     0
1070
     2
1040
2.0
1040
4.0
1070
     0
1070
     1
1070
     0
1040
0.03
1002
}
  0
INSERT
  5
98
330
1F
100
AcDbEntity
  8
ASHADE
 62
     6
100
AcDbBlockReference
  2
AVE_RENDER
 10
0.0
 20
0.0
 30
0.0
1001
AVE_RENDER
1002
{
1070
     2
1000
Raytr Opt
1070
     2
1070
     0
1070
     2
1040
2.0
1040
4.0
1070
     0
1070
     1
1070
     1
1040
0.03
1070
     3
1040
0.03
1002
}
  0
INSERT
  5
99
330
1F
100
AcDbEntity
  8
ASHADE
 62
     7
100
AcDbBlockReference
  2
AVE_RENDER
 10
0.0
 20
0.0
 30
0.0
1001
AVE_RENDER
1002
{
1070
     0
1000
RFile Opt
1070
     1
1070
   640
1070
   480
1070
 10000
1070
     1
1070
     8
1070
     8
1070
     0
1070
     0
1070
     0
1070
     0
1070
     0
1070
     0
1070
     0
1002
}
  0
INSERT
  5
9A
330
1F
100
AcDbEntity
  8
ASHADE
 62
     8
100
AcDbBlockReference
  2
AVE_RENDER
 10
0.0
 20
0.0
 30
0.0
1001
AVE_RENDER
1002
{
1070
     0
1000
Fog Opt
1070
     0
1070
     0
1040
0.0
1040
1.0
1040
0.0
1040
1.0
1010
0.5
1020
0.5
1030
0.5
1002
}
  0
INSERT
  5
9B
330
1F
100
AcDbEntity
  8
ASHADE
 62
     9
100
AcDbBlockReference
  2
AVE_RENDER
 10
0.0
 20
0.0
 30
0.0
1001
AVE_RENDER
1002
{
1070
     0
1000
BG Opt
1070
     0
1070
     1
1010
0.0
1020
0.0
1030
0.0
1010
1.0
1020
0.0
1030
0.0
1010
0.0
1020
1.0
1030
0.0
1010
0.0
1020
0.0
1030
1.0
1040
0.5
1040
0.33
1040
0.0
1000

1070
     1
1000

1070
     1
1070
     1
1040
1.0
1040
1.0
1040
0.0
1040
0.0
1070
     0
1002
}
  0
INSERT
  5
A2
330
1F
100
AcDbEntity
  8
ASHADE
 62
     1
100
AcDbBlockReference
  2
AVE_GLOBAL
 10
0.0
 20
0.0
 30
0.0
1001
AVE_MATERIAL
1002
{
1000
*GLOBAL*
1000
2
1000
Global finish.
1002
{
1002
}
1002
{
1070
    63
1002
{
1002
{
1010
-1.0
1020
-1.0
1030
-1.0
1002
}
1040
0.1000000014901161
1000

1040
0.0
1002
{
1002
}
1040
0.0
1002
{
1002
}
1040
0.0
1002
}
1002
{
1002
{
1010
-1.0
1020
-1.0
1030
-1.0
1002
}
1040
0.6999999880790711
1000

1040
0.0
1002
{
1002
}
1040
0.0
1002
{
1002
}
1040
0.0
1002
}
1002
{
1002
{
1010
-1.0
1020
-1.0
1030
-1.0
1002
}
1040
0.2000000029802322
1000

1040
0.0
1002
{
1002
}
1040
0.0
1002
{
1002
}
1040
0.0
1002
}
1002
{
1070
     0
1002
{
1070
     1
1002
{
1040
1.0
1040
1.0
1000

1040
0.0
1002
{
1002
}
1040
0.0
1002
{
1002
}
1040
0.0
1002
}
1002
}
1040
1.0
1040
0.0
1040
0.0
1002
}
1002
{
1040
1.0
1040
1.0
1000

1040
0.0
1002
{
1002
}
1040
0.0
1002
{
1002
}
1040
0.0
1002
}
1002
{
1040
0.5
1040
1.0
1000

1040
0.0
1002
{
1002
}
1040
0.0
1002
{
1002
}
1040
0.0
1002
}
1002
{
1070
     0
1040
0.0
1002
{
1002
}
1040
1.0
1002
{
1002
}
1040
0.0
1002
}
1002
{
1040
0.0
1002
{
1002
{
1010
0.0
1020
0.0
1030
0.0
1002
}
1040
1.0
1000

1040
0.0
1002
{
1002
}
1040
0.0
1002
{
1002
}
1040
0.0
1002
}
1002
}
1002
{
1002
{
1070
     1
1002
{
1040
0.0
1040
1.0
1000

1040
0.0
1002
{
1002
}
1040
0.0
1002
{
1002
}
1040
0.0
1002
}
1002
}
1040
0.0
1002
{
1002
}
1010
1.0
1020
0.0
1030
0.0
1010
0.0
1020
1.0
1030
0.0
1010
0.0
1020
0.0
1030
1.0
1070
     0
1002
}
1002
{
1002
{
1040
1.0
1040
1.0
1002
{
1070
     1
1002
{
1040
1.0
1040
1.0
1000

1040
0.0
1002
{
1002
}
1040
0.0
1002
{
1002
}
1040
0.0
1002
}
1002
}
1002
}
1070
     0
1040
0.0
1002
{
1002
}
1002
}
1002
{
1002
}
1002
}
1002
{
1071
        3
1070
     3
1070
     0
1002
{
1070
     2
1070
     0
1070
     0
1040
0.0
1002
}
1070
     0
1070
     2
1002
{
1002
}
1002
}
1002
{
1040
8030.0
1040
190.3000030517578
1040
0.3050000071525574
1040
228.0
1040
545.0
1040
14.0
1040
17.39999961853027
1040
0.4560000002384186
1002
}
1002
}
  0
MESH
  5
FA
330
1F
100
AcDbEntity
  8
Material Color - 37
160
             17288
310
88430000E00100000C00000013000000020000003C000000060000000200000000000080C2582C400000000090E00640000000000080454000000080C2582C400000000090E0064000000000000044400C000000130000000A0000003C000000060000000200000000000080C2582C400000000090E0064000000000000044
310
400000004073082E4000000000CD21004000000000008045400C00000013000000120000003C000000060000000200000000000080C2582C400000000090E0064000000000008045400000004073082E4000000000CD21004000000000008045400C000000130000001A0000003C000000060000000200000000000080C258
310
2C400000000090E0064000000000000044400000004073082E4000000000CD21004000000000000044400C00000013000000220000003C00000006000000020000000000004073082E4000000000CD21004000000000000044400000004073082E4000000000CD21004000000000008045400C000000130000002A0000003C
310
00000006000000020000000000004073082E4000000000CD21004000000000000044400000004073082E40000000007CC3E83F00000000000044400C00000013000000320000003C00000006000000020000000000004073082E4000000000CD2100400000000000004440000000604E54444000000040ADBF284000000000
310
000044400C000000130000003A0000003C0000000600000002000000000000604E54444000000040ADBF284000000000000044400000004073082E40000000007CC3E83F00000000000044400C00000013000000420000003C000000060000000200000000000080C2582C400000000090E006400000000000004440000000
310
604E54444000000040ADBF284000000000000044400C000000130000004A0000003C000000060000000200000000000080C2582C400000000090E00640000000000000444000000040ADBF2840000000604E54444000000000000044400C00000013000000520000003C000000060000000200000000000040ADBF28400000
310
00604E5444400000000000004440000000604E54444000000040ADBF284000000000000044400C000000130000005A0000003C000000060000000200000000000080C2582C400000000090E0064000000000000044400000000090E0064000000080C2582C4000000000000044400C00000013000000620000003C00000006
310
000000020000000000000090E0064000000080C2582C40000000000000444000000040ADBF2840000000604E54444000000000000044400C000000130000006A0000003C00000006000000020000000000000090E0064000000080C2582C40000000000000444000000000CD2100400000004073082E400000000000004440
310
0C00000013000000720000003C000000060000000200000000000000CD2100400000004073082E40000000000000444000000040ADBF2840000000604E54444000000000000044400C000000130000007A0000003C000000060000000200000000000080C2582C400000000090E00640000000000000444000000000AC722A
310
40000000006C90FE3F00000000000044400C00000013000000820000003C000000060000000200000000000000AC722A40000000006C90FE3F00000000000044400000000090E0064000000080C2582C4000000000000044400C000000130000008A0000003C000000060000000200000000000000AC722A40000000006C90
310
FE3F0000000000004440000000006C90FE3F00000000AC722A4000000000000044400C00000013000000920000003C0000000600000002000000000000006C90FE3F00000000AC722A4000000000000044400000000090E0064000000080C2582C4000000000000044400C000000130000009A0000003C0000000600000002
310
00000000000000CD2100400000004073082E400000000000004440000000007CC3E83F0000004073082E4000000000000044400C00000013000000A20000003C0000000600000002000000000000007CC3E83F0000004073082E40000000000000444000000040ADBF2840000000604E54444000000000000044400C000000
310
13000000AA0000003C0000000600000002000000000000007CC3E83F0000004073082E400000000000004440000000007CC3E83F000000E01C02494000000000000044400C00000013000000B20000003C0000000600000002000000000000007CC3E83F000000E01C024940000000000000444000000040ADBF2840000000
310
604E54444000000000000044400C00000013000000BA0000003C0000000600000002000000000000007CC3E83F000000E01C024940000000000000444000000000CD210840000000E01C02494000000000000044400C00000013000000C20000003C000000060000000200000000000000CD210840000000E01C0249400000
310
00000000444000000040ADBF2840000000604E54444000000000000044400C00000013000000CA0000003C0000000600000002000000000000E087BA2A400000000005D3444000000000000044400000000005D34440000000E087BA2A4000000000000044400C00000013000000D20000003C000000060000000200000000
310
000040ADBF2840000000604E54444000000000000044400000000005D34440000000E087BA2A4000000000000044400C00000013000000DA0000003C000000060000000200000000000040ADBF2840000000604E5444400000000000004440000000E087BA2A400000000005D3444000000000000044400C00000013000000
310
E20000003C00000006000000020000000000000005D34440000000E087BA2A400000000000004440000000604E54444000000040ADBF284000000000000044400C00000013000000EA0000003C0000000600000002000000000000C01C02494000000000CD2108400000000000004440000000C01C024940000000007CC3E8
310
3F00000000000044400C00000013000000F20000003C0000000600000002000000000000604E54444000000040ADBF28400000000000004440000000C01C024940000000007CC3E83F00000000000044400C00000013000000FA0000003C0000000600000002000000000000604E54444000000040ADBF2840000000000000
310
4440000000C01C02494000000000CD21084000000000000044400C00000013000000020100003C0000000600000002000000000000C01C024940000000007CC3E83F00000000000044400000004073082E40000000007CC3E83F00000000000044400C000000130000000A0100003C00000006000000020000000000004073
310
082E4000000000CD21004000000000008045400000004073082E40000000C0524022C00000008031124B400C00000013000000120100003C00000006000000020000000000004073082E40000000C0524022C00000008031124B40000000C01C02494000000000CD21004000000000008045400C000000130000001A010000
310
3C00000006000000020000000000004073082E4000000000CD2100400000000000804540000000C01C02494000000000CD21004000000000008045400C00000013000000220100003C00000006000000020000000000004073082E40000000C0524022C00000008031124B40000000C01C024940000000C0524022C0000000
310
8031124B400C000000130000002A0100003C0000000600000002000000000000C01C024940000000C0524022C00000008031124B40000000C01C02494000000000CD21004000000000008045400C00000013000000320100003C0000000600000002000000000000C01C024940000000007CC3E83F00000000000044400000
310
00C01C02494000000080707E26C000000020AA024A400C000000130000003A0100003C00000006000000020000000000004073082E40000000007CC3E83F0000000000004440000000C01C02494000000080707E26C000000020AA024A400C00000013000000420100003C0000000600000002000000000000C01C02494000
310
000080707E26C000000020AA024A400000004073082E4000000080707E26C000000020AA024A400C000000130000004A0100003C00000006000000020000000000004073082E40000000007CC3E83F00000000000044400000004073082E4000000080707E26C000000020AA024A400C00000013000000520100003C000000
310
060000000200000000000000CD2100400000004073082E40000000000080454000000000CD210040000000E01C02494000000000008045400C000000130000005A0100003C0000000600000002000000000000C0524022C00000004073082E400000008031124B4000000000CD210040000000E01C02494000000000008045
310
400C00000013000000620100003C0000000600000002000000000000C0524022C00000004073082E400000008031124B4000000000CD2100400000004073082E4000000000008045400C000000130000006A0100003C000000060000000200000000000000CD210040000000E01C0249400000000000804540000000C05240
310
22C0000000E01C0249400000008031124B400C00000013000000720100003C0000000600000002000000000000C0524022C00000004073082E400000008031124B40000000C0524022C0000000E01C0249400000008031124B400C000000130000007A0100003C0000000600000002000000000000007CC3E83F0000004073
310
082E40000000000000444000000080707E26C0000000E01C02494000000020AA024A400C00000013000000820100003C0000000600000002000000000000007CC3E83F000000E01C024940000000000000444000000080707E26C0000000E01C02494000000020AA024A400C000000130000008A0100003C00000006000000
310
02000000000000007CC3E83F0000004073082E40000000000000444000000080707E26C00000004073082E4000000020AA024A400C00000013000000920100003C000000060000000200000000000080707E26C0000000E01C02494000000020AA024A4000000080707E26C00000004073082E4000000020AA024A400C0000
310
00130000009A0100003C000000060000000200000000000000CD2100400000004073082E400000000000004440000000C0524022C00000004073082E400000008031124B400C00000013000000A20100003C000000060000000200000000000000CD2100400000004073082E40000000000000444000000000CD2100400000
310
004073082E4000000000008045400C00000013000000AA0100003C0000000600000002000000000000C0524022C00000004073082E400000008031124B4000000080707E26C00000004073082E4000000020AA024A400C00000013000000B20100003C000000060000000200000000000000CD2100400000004073082E4000
310
0000000000444000000080707E26C00000004073082E4000000020AA024A400C00000013000000BA0100003C00000006000000020000000000004073082E4000000000CD2100400000000000804540000000604E54444000000040ADBF284000000000008045400C00000013000000C20100003C0000000600000002000000
310
00000080C2582C400000000090E006400000000000804540000000604E54444000000040ADBF284000000000008045400C00000013000000CA0100003C0000000600000002000000000000604E54444000000040ADBF2840000000000080454000000040ADBF2840000000604E54444000000000008045400C000000130000
310
00D20100003C000000060000000200000000000080C2582C400000000090E00640000000000080454000000040ADBF2840000000604E54444000000000008045400C00000013000000DA0100003C000000060000000200000000000040ADBF2840000000604E54444000000000008045400000000090E0064000000080C258
310
2C4000000000008045400C00000013000000E20100003C000000060000000200000000000080C2582C400000000090E0064000000000008045400000000090E0064000000080C2582C4000000000008045400C00000013000000EA0100003C000000060000000200000000000000CD2100400000004073082E400000000000
310
80454000000040ADBF2840000000604E54444000000000008045400C00000013000000F20100003C000000060000000200000000000000CD2100400000004073082E4000000000008045400000000090E0064000000080C2582C4000000000008045400C00000013000000FA0100003C000000060000000200000000000000
310
CD210040000000E01C024940000000000080454000000040ADBF2840000000604E54444000000000008045400C00000013000000020200003C000000060000000200000000000040ADBF2840000000604E544440000000000080454000000000CD210840000000E01C02494000000000008045400C000000130000000A0200
310
003C000000060000000200000000000000CD210040000000E01C024940000000000080454000000000CD210840000000E01C02494000000000008045400C00000013000000120200003C0000000600000002000000000000C01C02494000000000CD2100400000000000804540000000604E54444000000040ADBF28400000
310
0000008045400C000000130000001A0200003C0000000600000002000000000000C01C02494000000000CD2100400000000000804540000000C01C02494000000000CD21084000000000008045400C00000013000000220200003C0000000600000002000000000000C01C02494000000000CD210840000000000080454000
310
0000604E54444000000040ADBF284000000000008045400C000000130000002A0200003C00000006000000020000000000008099EB4540000000C0D91C2F400000000000804540000000C0D91C2F400000008099EB454000000000008045400C00000013000000320200003C0000000600000002000000000000604E544440
310
00000040ADBF28400000000000804540000000C0D91C2F400000008099EB454000000000008045400C000000130000003A0200003C0000000600000002000000000000604E54444000000040ADBF284000000000008045400000008099EB4540000000C0D91C2F4000000000008045400C00000013000000420200003C0000
310
000600000002000000000000C0D91C2F400000008099EB4540000000000080454000000040ADBF2840000000604E54444000000000008045400C000000130000004A0200003C000000060000000200000000000000BF4F0640000000408E342C400000000000804540000000408E342C4000000000C04F0640000000000080
310
45400C00000013000000520200003C00000006000000020000000000000090E0064000000080C2582C400000000000804540000000408E342C4000000000C04F064000000000008045400C000000130000005A0200003C00000006000000020000000000000090E0064000000080C2582C40000000000080454000000000BF
310
4F0640000000408E342C4000000000008045400C00000013000000620200003C000000060000000200000000000080C2582C400000000090E006400000000000804540000000408E342C4000000000C04F064000000000008045400C000000130000006A0200003C000000060000000200000000000000CD21004000000040
310
73082E4000000000000044400000000090E0064000000080C2582C4000000000008045400C00000013000000720200003C00000006000000020000000000000090E0064000000080C2582C4000000000000044400000000090E0064000000080C2582C4000000000008045400C000000130000007A0200003C000000060000
310
000200000000000000AC722A40000000006C90FE3F00000000000044400000000091ED0040000000003A6522C0000000A0D0F94D400C00000013000000820200003C00000006000000020000000000000000A89ABF00000080F2AD26C0000000A0815E4D400000000091ED0040000000003A6522C0000000A0D0F94D400C00
310
0000130000008A0200003C000000060000000200000000000000AC722A40000000006C90FE3F00000000000044400000000000A89ABF00000080F2AD26C0000000A0815E4D400C00000013000000920200003C00000006000000020000000000000091ED0040000000003A6522C0000000A0D0F94D40000000008DD6004000
310
000000FB6A22C00000006077FC4D400C000000130000009A0200003C00000006000000020000000000000000A89ABF00000080F2AD26C0000000A0815E4D40000000008DD6004000000000FB6A22C00000006077FC4D400C00000013000000A20200003C0000000600000002000000000000008DD6004000000000FB6A22C0
310
0000006077FC4D400000000016C8004000000000996E22C0000000C08DFF4D400C00000013000000AA0200003C00000006000000020000000000000000A89ABF00000080F2AD26C0000000A0815E4D400000000016C8004000000000996E22C0000000C08DFF4D400C00000013000000B20200003C00000006000000020000
310
0000000000AC722A40000000006C90FE3F0000000000004440000000408E342C4000000000C04F064000000000008045400C00000013000000BA0200003C0000000600000002000000000000408E342C4000000000C04F064000000000008045400000000091ED0040000000003A6522C0000000A0D0F94D400C0000001300
310
0000C20200003C000000060000000200000000000080C2582C400000000090E006400000000000004440000000408E342C4000000000C04F064000000000008045400C00000013000000CA0200003C00000006000000020000000000000016C8004000000000996E22C0000000C08DFF4D400000000027C30040000000C0D4
310
6F22C0000000C0DD024E400C00000013000000D20200003C00000006000000020000000000000000A89ABF00000080F2AD26C0000000A0815E4D400000000027C30040000000C0D46F22C0000000C0DD024E400C00000013000000DA0200003C00000006000000020000000000000027C30040000000C0D46F22C0000000C0
310
DD024E400000000000A89ABF00000080F2AD26C0000000C040AF53400C00000013000000E20200003C00000006000000020000000000000000A89ABF00000080F2AD26C0000000A0815E4D400000000000A89ABF00000080F2AD26C0000000C040AF53400C00000013000000EA0200003C0000000600000002000000000000
310
0027C30040000000C0D46F22C0000000C0DD024E400000000027C30040000000C0D46F22C0000000C040AF53400C00000013000000F20200003C00000006000000020000000000000027C30040000000C0D46F22C0000000C040AF53400000000000A89ABF00000080F2AD26C0000000C040AF53400C00000013000000FA02
310
00003C000000060000000200000000000000BF4F0640000000408E342C4000000000008045400000000091ED0040000000003A6522C0000000A0D0F94D400C00000013000000020300003C000000060000000200000000000000BF4F0640000000408E342C400000000000804540000000403A6522C00000000091ED004000
310
0000A0D0F94D400C000000130000000A0300003C00000006000000020000000000000091ED0040000000003A6522C0000000A0D0F94D40000000403A6522C00000000091ED0040000000A0D0F94D400C00000013000000120300003C0000000600000002000000000000C01C024940000000C0524022C00000008031124B40
310
000000C01C02494000000080707E26C000000020AA024A400C000000130000001A0300003C0000000600000002000000000000C01C02494000000000CD2100400000000000804540000000C01C02494000000080707E26C000000020AA024A400C00000013000000220300003C0000000600000002000000000000C01C0249
310
40000000007CC3E83F0000000000004440000000C01C02494000000000CD21004000000000008045400C000000130000002A0300003C0000000600000002000000000000C01C02494000000000CD2108400000000000004440000000C01C02494000000000CD21004000000000008045400C00000013000000320300003C00
310
00000600000002000000000000C01C02494000000000CD2108400000000000004440000000C01C02494000000000CD21084000000000008045400C000000130000003A0300003C000000060000000200000000000000CD210840000000E01C024940000000000000444000000000CD210840000000E01C0249400000000000
310
8045400C00000013000000420300003C000000060000000200000000000000CD210840000000E01C024940000000000000444000000000CD210040000000E01C02494000000000008045400C000000130000004A0300003C0000000600000002000000000000007CC3E83F000000E01C024940000000000000444000000000
310
CD210040000000E01C02494000000000008045400C00000013000000520300003C000000060000000200000000000000CD210040000000E01C024940000000000080454000000080707E26C0000000E01C02494000000020AA024A400C000000130000005A0300003C0000000600000002000000000000C0524022C0000000
310
E01C0249400000008031124B4000000080707E26C0000000E01C02494000000020AA024A400C00000013000000620300003C0000000600000002000000000000006C90FE3F00000000AC722A40000000000000444000000000BF4F0640000000408E342C4000000000008045400C000000130000006A0300003C0000000600
310
000002000000000000006C90FE3F00000000AC722A400000000000004440000000403A6522C00000000091ED0040000000A0D0F94D400C00000013000000720300003C0000000600000002000000000000006C90FE3F00000000AC722A40000000000000444000000080F2AD26C00000000000A89ABF000000A0815E4D400C
310
000000130000007A0300003C0000000600000002000000000000403A6522C00000000091ED0040000000A0D0F94D4000000080F2AD26C00000000000A89ABF000000A0815E4D400C00000013000000820300003C000000060000000200000000000080F2AD26C00000000000A89ABF000000A0815E4D4000000000FB6A22C0
310
000000008ED600400000006077FC4D400C000000130000008A0300003C0000000600000002000000000000403A6522C00000000091ED0040000000A0D0F94D4000000000FB6A22C0000000008ED600400000006077FC4D400C00000013000000920300003C000000060000000200000000000080F2AD26C00000000000A89A
310
BF000000A0815E4D40000000C0986E22C00000000016C80040000000C08DFF4D400C000000130000009A0300003C0000000600000002000000000000C0986E22C00000000016C80040000000C08DFF4D4000000000FB6A22C0000000008ED600400000006077FC4D400C00000013000000A20300003C000000060000000200
310
000000000080F2AD26C00000000000A89ABF000000A0815E4D40000000C0D46F22C00000000027C30040000000C0DD024E400C00000013000000AA0300003C0000000600000002000000000000C0D46F22C00000000027C30040000000C0DD024E40000000C0986E22C00000000016C80040000000C08DFF4D400C00000013
310
000000B20300003C000000060000000200000000000080F2AD26C00000000000A89ABF000000A0815E4D4000000080F2AD26C00000000000A89ABF000000C040AF53400C00000013000000BA0300003C000000060000000200000000000080F2AD26C00000000000A89ABF000000C040AF5340000000C0D46F22C000000000
310
27C30040000000C0DD024E400C00000013000000C20300003C000000060000000200000000000080F2AD26C00000000000A89ABF000000C040AF5340000000C0D46F22C00000000027C30040000000C040AF53400C00000013000000CA0300003C0000000600000002000000000000C0D46F22C00000000027C30040000000
310
C040AF5340000000C0D46F22C00000000027C30040000000C0DD024E400C00000013000000D20300003C00000006000000020000000000000090E0064000000080C2582C40000000000000444000000000BF4F0640000000408E342C4000000000008045400C00000013000000DA0300003C00000006000000020000000000
310
00006C90FE3F00000000AC722A4000000000000044400000000000A89ABF00000080F2AD26C0000000A0815E4D400C00000013000000E20300003C00000006000000020000000000000000A89ABF00000080F2AD26C0000000A0815E4D4000000080F2AD26C00000000000A89ABF000000A0815E4D400C00000013000000EA
310
0300003C0000000600000002000000000000C0D91C2F400000008099EB4540000000000000000000000020BCDE2A400000000012DC44400000004033F343400C00000013000000F20300003C0000000600000002000000000000C0D91C2F400000008099EB4540000000000080454000000020BCDE2A400000000012DC4440
310
0000004033F343400C00000013000000FA0300003C0000000600000002000000000000C0D91C2F400000008099EB45400000000000804540000000C0D91C2F400000008099EB454000000000000000000C00000013000000020400003C000000060000000200000000000020BCDE2A400000000012DC44400000004033F343
310
4000000060E2D92A40000000C0DBDA4440000000C099F943400C000000130000000A0400003C0000000600000002000000000000C0D91C2F400000008099EB4540000000000080454000000060E2D92A40000000C0DBDA4440000000C099F943400C00000013000000120400003C000000060000000200000000000060E2D9
310
2A40000000C0DBDA4440000000C099F9434000000000A2CC2A40000000808BD744400000000049FE43400C000000130000001A0400003C0000000600000002000000000000C0D91C2F400000008099EB4540000000000080454000000000A2CC2A40000000808BD744400000000049FE43400C00000013000000220400003C
310
0000000600000002000000000000000000000000000000C6483C400000000000000000000000E087BA2A400000000005D3444000000000000008400C000000130000002A0400003C0000000600000002000000000000C0D91C2F400000008099EB45400000000000000000000000E087BA2A400000000005D3444000000000
310
000008400C00000013000000320400003C0000000600000002000000000000C0D91C2F400000008099EB45400000000000000000000000000000000000000000C6483C4000000000000000000C000000130000003A0400003C0000000600000002000000000000E087BA2A400000000005D344400000000000000840000000
310
00A2CC2A40000000808BD7444000000000701B08400C00000013000000420400003C0000000600000002000000000000C0D91C2F400000008099EB4540000000000000000000000000A2CC2A40000000808BD7444000000000701B08400C000000130000004A0400003C000000060000000200000000000000A2CC2A400000
310
00808BD7444000000000701B084000000060E2D92A40000000C0DBDA444000000000666608400C00000013000000520400003C0000000600000002000000000000C0D91C2F400000008099EB4540000000000000000000000060E2D92A40000000C0DBDA444000000000666608400C000000130000005A0400003C00000006
310
00000002000000000000000000000000000000C6483C400000000000000000000000000000000000000000C6483C4000000000000008400C00000013000000620400003C0000000600000002000000000000000000000000000000C6483C400000000000000840000000E087BA2A400000000005D344400000000000000840
310
0C000000130000006A0400003C000000060000000200000000000060E2D92A40000000C0DBDA4440000000006666084000000020BCDE2A400000000012DC444000000000CCCC08400C00000013000000720400003C0000000600000002000000000000C0D91C2F400000008099EB4540000000000000000000000020BCDE2A
310
400000000012DC444000000000CCCC08400C000000130000007A0400003C000000060000000200000000000020BCDE2A400000000012DC444000000000CCCC084000000020BCDE2A400000000012DC44400000004033F343400C00000013000000820400003C000000060000000200000000000040ADBF2840000000604E54
310
4440000000000080454000000000A2CC2A40000000808BD744400000000049FE43400C000000130000008A0400003C0000000600000002000000000000E087BA2A400000000005D34440000000000000444000000000A2CC2A40000000808BD744400000000049FE43400C00000013000000920400003C0000000600000002
310
000000000000E087BA2A400000000005D34440000000000000444000000040ADBF2840000000604E54444000000000008045400C000000130000009A0400003C000000060000000200000000000040ADBF2840000000604E544440000000000000444000000040ADBF2840000000604E54444000000000008045400C000000
310
13000000A20400003C00000006000000020000000000008099EB4540000000C0D91C2F400000000000804540000000C0D91C2F400000008099EB454000000000000000000C00000013000000AA0400003C00000006000000020000000000008099EB4540000000C0D91C2F4000000000008045400000008099EB4540000000
310
C0D91C2F4000000000000000000C00000013000000B20400003C0000000600000002000000000000C0D91C2F400000008099EB454000000000000000000000008099EB4540000000C0D91C2F4000000000000000000C00000013000000BA0400003C00000006000000020000000000000027C30040000000C0D46F22C00000
310
00C0DD024E40000000C0D46F22C00000000027C30040000000C0DD024E400C00000013000000C20400003C00000006000000020000000000000027C30040000000C0D46F22C0000000C040AF5340000000C0D46F22C00000000027C30040000000C0DD024E400C00000013000000CA0400003C000000060000000200000000
310
00000027C30040000000C0D46F22C0000000C040AF5340000000C0D46F22C00000000027C30040000000C040AF53400C00000013000000D20400003C00000006000000020000000000000027C30040000000C0D46F22C0000000C040AF534000000080F2AD26C00000000000A89ABF000000C040AF53400C00000013000000
310
DA0400003C00000006000000020000000000000000A89ABF00000080F2AD26C0000000C040AF534000000080F2AD26C00000000000A89ABF000000C040AF53400C00000013000000E20400003C00000006000000020000000000000000A89ABF00000080F2AD26C0000000C040AF534000000080F2AD26C00000000000A89A
310
BF000000A0815E4D400C00000013000000EA0400003C00000006000000020000000000000027C30040000000C0D46F22C0000000C0DD024E40000000C0986E22C00000000016C80040000000C08DFF4D400C00000013000000F20400003C00000006000000020000000000000016C8004000000000996E22C0000000C08DFF
310
4D40000000C0986E22C00000000016C80040000000C08DFF4D400C00000013000000FA0400003C0000000600000002000000000000008DD6004000000000FB6A22C00000006077FC4D40000000C0986E22C00000000016C80040000000C08DFF4D400C00000013000000020500003C0000000600000002000000000000008D
310
D6004000000000FB6A22C00000006077FC4D40000000403A6522C00000000091ED0040000000A0D0F94D400C000000130000000A0500003C0000000600000002000000000000008DD6004000000000FB6A22C00000006077FC4D4000000000FB6A22C0000000008ED600400000006077FC4D400C0000001300000012050000
310
3C0000000600000002000000000000809DB414C0000000408A5133400000000000000840000000408A513340000000009DB414C000000000000008400C000000130000001A0500003C0000000600000002000000000000000000000000000000C6483C400000000000000840000000408A513340000000009DB414C0000000
310
00000008400C00000013000000220500003C0000000600000002000000000000000000000000000000C6483C400000000000000840000000809DB414C0000000408A51334000000000000008400C000000130000002A0500003C0000000600000002000000000000408A513340000000009DB414C000000000000008400000
310
0000C6483C40000000000000000000000000000008400C00000013000000320500003C0000000600000002000000000000000000000000000000C6483C40000000000000084000000000C6483C40000000000000000000000000000008400C000000130000003A0500003C000000060000000200000000000000C6483C4000
310
0000000000000000000000000008400000000005D34440000000E087BA2A4000000000000008400C00000013000000420500003C0000000600000002000000000000000000000000000000C6483C4000000000000008400000000005D34440000000E087BA2A4000000000000008400C000000130000004A0500003C000000
310
0600000002000000000000809DB414C0000000408A5133400000000000000840000000809DB414C00000006077EE214000000000000008400C00000013000000520500003C0000000600000002000000000000809DB414C00000006077EE21400000000000000840000000408A513340000000009DB414C000000000000008
310
400C000000130000005A0500003C0000000600000002000000000000809DB414C00000006077EE214000000000000008400000006077EE2140000000009DB414C000000000000008400C00000013000000620500003C00000006000000020000000000006077EE2140000000009DB414C00000000000000840000000408A51
310
3340000000009DB414C000000000000008400C000000130000006A0500003C0000000600000002000000000000809DB414C00000006077EE214000000000000008400000000000000000000000000000000000000000000008400C00000013000000720500003C000000060000000200000000000000000000000000000000
310
00000000000000000008400000006077EE2140000000009DB414C000000000000008400C000000130000007A0500003C0000000600000002000000000000E087BA2A400000000005D3444000000000000008400000000005D34440000000E087BA2A4000000000000008400C00000013000000820500003C00000006000000
310
02000000000000000000000000000000C6483C400000000000000000000000809DB414C0000000408A51334000000000000008400C000000130000008A0500003C0000000600000002000000000000000000000000000000C6483C400000000000000000000000809DB414C0000000408A51334000000000000000000C0000
310
0013000000920500003C0000000600000002000000000000809DB414C0000000408A5133400000000000000840000000809DB414C0000000408A51334000000000000000000C000000130000009A0500003C0000000600000002000000000000809DB414C00000006077EE21400000000000000840000000809DB414C00000
310
00408A51334000000000000000000C00000013000000A20500003C0000000600000002000000000000809DB414C0000000408A5133400000000000000000000000809DB414C00000006077EE214000000000000000000C00000013000000AA0500003C0000000600000002000000000000809DB414C00000006077EE214000
310
00000000000840000000809DB414C00000006077EE214000000000000000000C00000013000000B20500003C0000000600000002000000000000000000000000000000000000000000000000000840000000809DB414C00000006077EE214000000000000000000C00000013000000BA0500003C0000000600000002000000
310
000000809DB414C00000006077EE214000000000000000000000000000000000000000000000000000000000000000000C00000013000000C20500003C00000006000000020000000000000000000000000000000000000000000000000008400000000000000000000000000000000000000000000000000C000000130000
310
00CA0500003C00000006000000020000000000006077EE2140000000009DB414C000000000000008400000000000000000000000000000000000000000000000000C00000013000000D20500003C00000006000000020000000000000000000000000000000000000000000000000000000000006077EE2140000000009DB4
310
14C000000000000000000C00000013000000DA0500003C00000006000000020000000000006077EE2140000000009DB414C000000000000008400000006077EE2140000000009DB414C000000000000000000C00000013000000E20500003C0000000600000002000000000000408A513340000000009DB414C00000000000
310
0008400000006077EE2140000000009DB414C000000000000000000C00000013000000EA0500003C00000006000000020000000000006077EE2140000000009DB414C00000000000000000000000408A513340000000009DB414C000000000000000000C00000013000000F20500003C000000060000000200000000000040
310
8A513340000000009DB414C00000000000000840000000408A513340000000009DB414C000000000000000000C00000013000000FA0500003C000000060000000200000000000000C6483C4000000000000000000000000000000840000000408A513340000000009DB414C000000000000000000C00000013000000020600
310
003C0000000600000002000000000000408A513340000000009DB414C0000000000000000000000000C6483C40000000000000000000000000000000000C000000130000000A0600003C000000060000000200000000000000C6483C400000000000000000000000000000084000000000C6483C4000000000000000000000
310
0000000000000C00000013000000120600003C0000000600000002000000000000000000000000000000C6483C4000000000000000000000008099EB4540000000C0D91C2F4000000000000000000C000000130000001A0600003C00000006000000020000000000008099EB4540000000C0D91C2F40000000000000000000
310
000000C6483C40000000000000000000000000000000000C00000013000000220600003C0000000600000002000000000000000000000000000000C6483C40000000000000000000000000C6483C40000000000000000000000000000000000C000000130000002A0600003C00000006000000020000000000000000000000
310
00000000C6483C400000000000000000000000408A513340000000009DB414C000000000000000000C00000013000000320600003C0000000600000002000000000000000000000000000000000000000000000000000000000000408A513340000000009DB414C000000000000000000C000000130000003A0600003C0000
310
000600000002000000000000809DB414C00000006077EE21400000000000000000000000408A513340000000009DB414C000000000000000000C00000013000000420600003C0000000600000002000000000000809DB414C0000000408A5133400000000000000000000000408A513340000000009DB414C0000000000000
310
00000C000000130000004A0600003C000000060000000200000000000000A2CC2A40000000808BD7444000000000701B08400000000005D34440000000E087BA2A4000000000000008400C00000013000000520600003C00000006000000020000000000000005D34440000000E087BA2A400000000000000840000000808B
310
D7444000000000A2CC2A4000000000701B08400C000000130000005A0600003C000000060000000200000000000000A2CC2A40000000808BD7444000000000701B0840000000808BD7444000000000A2CC2A4000000000701B08400C00000013000000620600003C000000060000000200000000000060E2D92A40000000C0
310
DBDA44400000000066660840000000808BD7444000000000A2CC2A4000000000701B08400C000000130000006A0600003C0000000600000002000000000000808BD7444000000000A2CC2A4000000000701B0840000000C0DBDA444000000060E2D92A4000000000666608400C00000013000000720600003C000000060000
310
000200000000000060E2D92A40000000C0DBDA44400000000066660840000000C0DBDA444000000060E2D92A4000000000666608400C000000130000007A0600003C000000060000000200000000000020BCDE2A400000000012DC444000000000CCCC0840000000C0DBDA444000000060E2D92A4000000000666608400C00
310
000013000000820600003C0000000600000002000000000000C0DBDA444000000060E2D92A4000000000666608400000000012DC444000000020BCDE2A4000000000CCCC08400C000000130000008A0600003C000000060000000200000000000020BCDE2A400000000012DC444000000000CCCC08400000000012DC444000
310
000020BCDE2A4000000000CCCC08400C00000013000000920600003C00000006000000020000000000000012DC444000000020BCDE2A4000000000CCCC08400000000012DC444000000020BCDE2A400000004033F343400C000000130000009A0600003C000000060000000200000000000020BCDE2A400000000012DC4440
310
00000000CCCC08400000000012DC444000000020BCDE2A400000004033F343400C00000013000000A20600003C000000060000000200000000000020BCDE2A400000000012DC44400000004033F343400000000012DC444000000020BCDE2A400000004033F343400C00000013000000AA0600003C00000006000000020000
310
0000000060E2D92A40000000C0DBDA4440000000C099F943400000000012DC444000000020BCDE2A400000004033F343400C00000013000000B20600003C00000006000000020000000000000012DC444000000020BCDE2A400000004033F34340000000C0DBDA444000000060E2D92A40000000C099F943400C0000001300
310
0000BA0600003C000000060000000200000000000060E2D92A40000000C0DBDA4440000000C099F94340000000C0DBDA444000000060E2D92A40000000C099F943400C00000013000000C20600003C000000060000000200000000000000A2CC2A40000000808BD744400000000049FE4340000000C0DBDA444000000060E2
310
D92A40000000C099F943400C00000013000000CA0600003C0000000600000002000000000000C0DBDA444000000060E2D92A40000000C099F94340000000808BD7444000000000A2CC2A400000000049FE43400C00000013000000D20600003C000000060000000200000000000000A2CC2A40000000808BD7444000000000
310
49FE4340000000808BD7444000000000A2CC2A400000000049FE43400C00000013000000DA0600003C0000000600000002000000000000E087BA2A400000000005D344400000000000004440000000808BD7444000000000A2CC2A400000000049FE43400C00000013000000E20600003C0000000600000002000000000000
310
0005D34440000000E087BA2A400000000000004440000000808BD7444000000000A2CC2A400000000049FE43400C00000013000000EA0600003C00000006000000020000000000008099EB4540000000C0D91C2F4000000000008045400000000012DC444000000020BCDE2A4000000000CCCC08400C00000013000000F206
310
00003C00000006000000020000000000008099EB4540000000C0D91C2F4000000000000000000000000012DC444000000020BCDE2A4000000000CCCC08400C00000013000000FA0600003C00000006000000020000000000008099EB4540000000C0D91C2F400000000000000000000000C0DBDA444000000060E2D92A4000
310
000000666608400C00000013000000020700003C00000006000000020000000000008099EB4540000000C0D91C2F400000000000000000000000808BD7444000000000A2CC2A4000000000701B08400C000000130000000A0700003C0000000600000002000000000000604E54444000000040ADBF28400000000000804540
310
000000808BD7444000000000A2CC2A400000000049FE43400C00000013000000120700003C00000006000000020000000000008099EB4540000000C0D91C2F400000000000804540000000808BD7444000000000A2CC2A400000000049FE43400C000000130000001A0700003C00000006000000020000000000008099EB45
310
40000000C0D91C2F400000000000804540000000C0DBDA444000000060E2D92A40000000C099F943400C00000013000000220700003C00000006000000020000000000008099EB4540000000C0D91C2F4000000000008045400000000012DC444000000020BCDE2A400000004033F343400C000000130000002A0700003C00
310
000006000000020000000000000005D34440000000E087BA2A400000000000004440000000604E54444000000040ADBF284000000000008045400C00000013000000320700003C0000000600000002000000000000604E54444000000040ADBF28400000000000004440000000604E54444000000040ADBF28400000000000
310
8045400C000000130000003A0700003C00000006000000020000000000008099EB4540000000C0D91C2F4000000000000000000000000005D34440000000E087BA2A4000000000000008400C00000013000000420700003C00000006000000020000000000000005D34440000000E087BA2A40000000000000084000000000
310
C6483C40000000000000000000000000000000000C000000130000004A0700003C00000006000000020000000000004073082E4000000000CD21004000000000000044400000004073082E4000000080707E26C000000020AA024A400C00000013000000520700003C00000006000000020000000000004073082E40000000
310
C0524022C00000008031124B400000004073082E4000000080707E26C000000020AA024A400C000000130000005A0700003C00000006000000020000000000004073082E4000000000CD21004000000000000044400000004073082E40000000C0524022C00000008031124B400C00000013000000620700003C0000000600
310
000002000000000000C01C024940000000C0524022C00000008031124B400000004073082E4000000080707E26C000000020AA024A400C000000130000006A0700003C0000000600000002000000000000C0524022C00000004073082E400000008031124B4000000080707E26C0000000E01C02494000000020AA024A400C
310
00000013000000720700003C0000000600000002000000000000C01C02494000000000CD2108400000000000004440000000604E54444000000040ADBF284000000000008045400C000000130000007A0700003C000000060000000200000000000040ADBF2840000000604E544440000000000000444000000000CD210840
310
000000E01C0249400000000000804540
100
AcDbSubDMesh
 71
     2
 72
     0
 91
        0
 92
       82
 10
14.17335891723633
 20
2.859649658203125
 30
43.0
 10
14.17335891723633
 20
2.859649658203125
 30
40.0
 10
15.01650428771973
 20
2.016504287719726
 30
40.0
 10
15.01650428771973
 20
2.016504287719726
 30
43.0
 10
13.22396850585937
 20
1.910259246826171
 30
40.0
 10
1.910259246826171
 20
13.22396850585937
 30
40.0
 10
2.859649658203125
 20
14.17335891723633
 30
40.0
 10
2.016504287719726
 20
15.01650428771973
 30
40.0
 10
0.7738628387451172
 20
15.01650428771973
 30
40.0
 10
0.7738628387451172
 20
50.01650619506836
 30
40.0
 10
3.016504287719726
 20
50.01650619506836
 30
40.0
 10
12.37436866760254
 20
40.65864181518555
 30
40.0
 10
13.36431789398193
 20
41.64859008789062
 30
40.0
 10
41.64859008789062
 20
13.36431789398193
 30
40.0
 10
40.65864181518555
 20
12.37436866760254
 30
40.0
 10
50.01650238037109
 20
3.016504287719726
 30
40.0
 10
50.01650238037109
 20
0.7738628387451172
 30
40.0
 10
15.01650428771973
 20
0.7738628387451172
 30
40.0
 10
15.01650428771973
 20
-9.12563133239746
 30
54.14213562011719
 10
50.01650238037109
 20
-9.12563133239746
 30
54.14213562011719
 10
50.01650238037109
 20
2.016504287719726
 30
43.0
 10
50.01650238037109
 20
-11.24695205688476
 30
52.02081680297851
 10
15.01650428771973
 20
-11.24695205688476
 30
52.02081680297851
 10
-9.12563133239746
 20
15.01650428771973
 30
54.14213562011719
 10
2.016504287719726
 20
15.01650428771973
 30
43.0
 10
2.016504287719726
 20
50.01650619506836
 30
43.0
 10
-9.12563133239746
 20
50.01650619506836
 30
54.14213562011719
 10
-11.24695205688476
 20
50.01650619506836
 30
52.02081680297851
 10
-11.24695205688476
 20
15.01650428771973
 30
52.02081680297851
 10
50.01650238037109
 20
3.016504287719726
 30
43.0
 10
40.65864181518555
 20
12.37436866760254
 30
43.0
 10
43.84062194824219
 20
15.55634880065918
 30
43.0
 10
15.55634880065918
 20
43.84062194824219
 30
43.0
 10
12.37436866760254
 20
40.65864181518555
 30
43.0
 10
3.016504287719726
 20
50.01650619506836
 30
43.0
 10
2.859649658203125
 20
14.17335891723633
 30
43.0
 10
2.788938522338867
 20
14.10264778137207
 30
43.0
 10
14.10264778137207
 20
2.7889404296875
 30
43.0
 10
-0.026031494140625
 20
-11.33974075317383
 30
58.73833084106445
 10
2.115999221801757
 20
-9.197708129882812
 30
59.95167922973632
 10
2.104761123657226
 20
-9.208946228027343
 30
59.97239303588867
 10
2.097698211669921
 20
-9.216011047363281
 30
59.99651336669922
 10
2.095289230346679
 20
-9.218420028686523
 30
60.02239227294921
 10
2.095289230346679
 20
-9.218420028686523
 30
78.73832702636718
 10
-0.026031494140625
 20
-11.33974075317383
 30
78.73832702636718
 10
-9.197710037231445
 20
2.115999221801757
 30
59.95167922973632
 10
-11.33974075317383
 20
-0.026031494140625
 30
58.73833084106445
 10
-11.33974075317383
 20
-0.026031494140625
 30
78.73832702636718
 10
-9.218420028686523
 20
2.095289230346679
 30
78.73832702636718
 10
-9.218420028686523
 20
2.095289230346679
 30
60.02239227294921
 10
-9.216009140014648
 20
2.097698211669921
 30
59.99651336669922
 10
-9.208946228027343
 20
2.104763031005859
 30
59.97239303588867
 10
15.55634880065918
 20
43.84062194824219
 30
0.0
 10
0.0
 20
28.28427124023438
 30
0.0
 10
0.0
 20
28.28427124023438
 30
3.0
 10
13.36431789398193
 20
41.64859008789062
 30
3.0
 10
13.39967346191406
 20
41.68394470214844
 30
3.013397216796875
 10
13.42555522918701
 20
41.70983123779296
 30
3.049999237060546
 10
13.43502902984619
 20
41.71929931640625
 30
3.099998474121093
 10
13.43502902984619
 20
41.71929931640625
 30
39.90000152587891
 10
13.42555522918701
 20
41.70983123779296
 30
39.95000457763672
 10
13.39967346191406
 20
41.68394470214844
 30
39.98660278320313
 10
43.84062194824219
 20
15.55634880065918
 30
0.0
 10
-5.176382064819335
 20
19.31851577758789
 30
3.0
 10
-5.176382064819335
 20
8.965754508972167
 30
3.0
 10
0.0
 20
0.0
 30
3.0
 10
8.965754508972167
 20
-5.176380157470703
 30
3.0
 10
19.31851577758789
 20
-5.176380157470703
 30
3.0
 10
28.28427124023438
 20
0.0
 30
3.0
 10
41.64859008789062
 20
13.36431789398193
 30
3.0
 10
-5.176382064819335
 20
19.31851577758789
 30
0.0
 10
-5.176382064819335
 20
8.965754508972167
 30
0.0
 10
0.0
 20
0.0
 30
0.0
 10
8.965754508972167
 20
-5.176380157470703
 30
0.0
 10
19.31851577758789
 20
-5.176380157470703
 30
0.0
 10
28.28427124023438
 20
0.0
 30
0.0
 10
41.68394470214844
 20
13.39967346191406
 30
3.013397216796875
 10
41.70983123779296
 20
13.42555522918701
 30
3.049999237060546
 10
41.71929931640625
 20
13.43502902984619
 30
3.099998474121093
 10
41.71929931640625
 20
13.43502902984619
 30
39.90000152587891
 10
41.70983123779296
 20
13.42555522918701
 30
39.95000457763672
 10
41.68394470214844
 20
13.39967346191406
 30
39.98660278320313
 93
      640
 90
        3
 90
        0
 90
        1
 90
        3
 90
        3
 90
        3
 90
        1
 90
        2
 90
        3
 90
       17
 90
        2
 90
       14
 90
        3
 90
       14
 90
        2
 90
        1
 90
        3
 90
       14
 90
        1
 90
       11
 90
        3
 90
       11
 90
        1
 90
        6
 90
        3
 90
       11
 90
        6
 90
        7
 90
        3
 90
        1
 90
        4
 90
        6
 90
        3
 90
        6
 90
        4
 90
        5
 90
        3
 90
        7
 90
        8
 90
       11
 90
        3
 90
       11
 90
        8
 90
        9
 90
        3
 90
       11
 90
        9
 90
       10
 90
        3
 90
       12
 90
       13
 90
       11
 90
        3
 90
       11
 90
       13
 90
       14
 90
        3
 90
       15
 90
       16
 90
       14
 90
        3
 90
       14
 90
       16
 90
       17
 90
        3
 90
        3
 90
       18
 90
       20
 90
        3
 90
       20
 90
       18
 90
       19
 90
        3
 90
       16
 90
       21
 90
       17
 90
        3
 90
       17
 90
       21
 90
       22
 90
        3
 90
       24
 90
       25
 90
       23
 90
        3
 90
       23
 90
       25
 90
       26
 90
        3
 90
        9
 90
        8
 90
       27
 90
        3
 90
       27
 90
        8
 90
       28
 90
        3
 90
       24
 90
       23
 90
        7
 90
        3
 90
        7
 90
       23
 90
       28
 90
        3
 90
        7
 90
       28
 90
        8
 90
        3
 90
        3
 90
       30
 90
        0
 90
        3
 90
        0
 90
       30
 90
       33
 90
        3
 90
        0
 90
       33
 90
       35
 90
        3
 90
       35
 90
       33
 90
       24
 90
        3
 90
       24
 90
       33
 90
       25
 90
        3
 90
       25
 90
       33
 90
       34
 90
        3
 90
        3
 90
       20
 90
       30
 90
        3
 90
       30
 90
       20
 90
       29
 90
        3
 90
       31
 90
       32
 90
       30
 90
        3
 90
       30
 90
       32
 90
       33
 90
        3
 90
       36
 90
       37
 90
       35
 90
        3
 90
       35
 90
       37
 90
        0
 90
        3
 90
       24
 90
        7
 90
       35
 90
        3
 90
       35
 90
        7
 90
        6
 90
        3
 90
        4
 90
       39
 90
       38
 90
        3
 90
       38
 90
       39
 90
       40
 90
        3
 90
       38
 90
       40
 90
       41
 90
        3
 90
       39
 90
        4
 90
       37
 90
        3
 90
       37
 90
        4
 90
        1
 90
        3
 90
       37
 90
        1
 90
        0
 90
        3
 90
       41
 90
       42
 90
       38
 90
        3
 90
       38
 90
       42
 90
       44
 90
        3
 90
       44
 90
       42
 90
       43
 90
        3
 90
       37
 90
       36
 90
       39
 90
        3
 90
       39
 90
       36
 90
       45
 90
        3
 90
       19
 90
       21
 90
       20
 90
        3
 90
       20
 90
       21
 90
       16
 90
        3
 90
       20
 90
       16
 90
       15
 90
        3
 90
       15
 90
       29
 90
       20
 90
        3
 90
       34
 90
       10
 90
       25
 90
        3
 90
       25
 90
       10
 90
        9
 90
        3
 90
       25
 90
        9
 90
       27
 90
        3
 90
       27
 90
       26
 90
       25
 90
        3
 90
       36
 90
        5
 90
       45
 90
        3
 90
       45
 90
        5
 90
       46
 90
        3
 90
       45
 90
       46
 90
       51
 90
        3
 90
       51
 90
       46
 90
       50
 90
        3
 90
       50
 90
       46
 90
       49
 90
        3
 90
       49
 90
       46
 90
       47
 90
        3
 90
       49
 90
       47
 90
       48
 90
        3
 90
       35
 90
        6
 90
       36
 90
        3
 90
       36
 90
        6
 90
        5
 90
        3
 90
       46
 90
        5
 90
       38
 90
        3
 90
       38
 90
        5
 90
        4
 90
        3
 90
       52
 90
       59
 90
       32
 90
        3
 90
       32
 90
       59
 90
       60
 90
        3
 90
       32
 90
       60
 90
       61
 90
        3
 90
       53
 90
       55
 90
       52
 90
        3
 90
       52
 90
       55
 90
       56
 90
        3
 90
       52
 90
       56
 90
       57
 90
        3
 90
       53
 90
       54
 90
       55
 90
        3
 90
       57
 90
       58
 90
       52
 90
        3
 90
       52
 90
       58
 90
       59
 90
        3
 90
       32
 90
       61
 90
       33
 90
        3
 90
       33
 90
       61
 90
       12
 90
        3
 90
       33
 90
       12
 90
       11
 90
        3
 90
       32
 90
       31
 90
       52
 90
        3
 90
       52
 90
       31
 90
       62
 90
        3
 90
       42
 90
       49
 90
       43
 90
        3
 90
       43
 90
       49
 90
       48
 90
        3
 90
       44
 90
       43
 90
       47
 90
        3
 90
       47
 90
       43
 90
       48
 90
        3
 90
       47
 90
       46
 90
       44
 90
        3
 90
       44
 90
       46
 90
       38
 90
        3
 90
       49
 90
       42
 90
       50
 90
        3
 90
       50
 90
       42
 90
       41
 90
        3
 90
       50
 90
       41
 90
       40
 90
        3
 90
       39
 90
       45
 90
       40
 90
        3
 90
       40
 90
       45
 90
       51
 90
        3
 90
       40
 90
       51
 90
       50
 90
        3
 90
       63
 90
       67
 90
       54
 90
        3
 90
       54
 90
       67
 90
       68
 90
        3
 90
       54
 90
       68
 90
       69
 90
        3
 90
       63
 90
       64
 90
       67
 90
        3
 90
       67
 90
       64
 90
       66
 90
        3
 90
       66
 90
       64
 90
       65
 90
        3
 90
       69
 90
       55
 90
       54
 90
        3
 90
       54
 90
       53
 90
       63
 90
        3
 90
       63
 90
       53
 90
       70
 90
        3
 90
       63
 90
       70
 90
       64
 90
        3
 90
       64
 90
       70
 90
       71
 90
        3
 90
       64
 90
       71
 90
       65
 90
        3
 90
       65
 90
       71
 90
       72
 90
        3
 90
       65
 90
       72
 90
       66
 90
        3
 90
       66
 90
       72
 90
       73
 90
        3
 90
       66
 90
       73
 90
       67
 90
        3
 90
       67
 90
       73
 90
       74
 90
        3
 90
       67
 90
       74
 90
       68
 90
        3
 90
       68
 90
       74
 90
       75
 90
        3
 90
       52
 90
       62
 90
       53
 90
        3
 90
       53
 90
       62
 90
       75
 90
        3
 90
       53
 90
       75
 90
       74
 90
        3
 90
       73
 90
       72
 90
       74
 90
        3
 90
       74
 90
       72
 90
       71
 90
        3
 90
       74
 90
       71
 90
       70
 90
        3
 90
       70
 90
       53
 90
       74
 90
        3
 90
       55
 90
       69
 90
       56
 90
        3
 90
       56
 90
       69
 90
       76
 90
        3
 90
       56
 90
       76
 90
       57
 90
        3
 90
       57
 90
       76
 90
       77
 90
        3
 90
       57
 90
       77
 90
       58
 90
        3
 90
       58
 90
       77
 90
       78
 90
        3
 90
       78
 90
       79
 90
       58
 90
        3
 90
       58
 90
       79
 90
       59
 90
        3
 90
       59
 90
       79
 90
       60
 90
        3
 90
       60
 90
       79
 90
       80
 90
        3
 90
       60
 90
       80
 90
       61
 90
        3
 90
       61
 90
       80
 90
       81
 90
        3
 90
       61
 90
       81
 90
       12
 90
        3
 90
       12
 90
       81
 90
       13
 90
        3
 90
       31
 90
       78
 90
       62
 90
        3
 90
       62
 90
       78
 90
       77
 90
        3
 90
       62
 90
       77
 90
       76
 90
        3
 90
       30
 90
       81
 90
       31
 90
        3
 90
       31
 90
       81
 90
       80
 90
        3
 90
       31
 90
       80
 90
       79
 90
        3
 90
       14
 90
       13
 90
       30
 90
        3
 90
       30
 90
       13
 90
       81
 90
        3
 90
       79
 90
       78
 90
       31
 90
        3
 90
       76
 90
       69
 90
       62
 90
        3
 90
       62
 90
       69
 90
       75
 90
        3
 90
       75
 90
       69
 90
       68
 90
        3
 90
       17
 90
       22
 90
        2
 90
        3
 90
        2
 90
       22
 90
       18
 90
        3
 90
        2
 90
       18
 90
        3
 90
        3
 90
       21
 90
       19
 90
       22
 90
        3
 90
       22
 90
       19
 90
       18
 90
        3
 90
       28
 90
       23
 90
       27
 90
        3
 90
       27
 90
       23
 90
       26
 90
        3
 90
       29
 90
       15
 90
       30
 90
        3
 90
       30
 90
       15
 90
       14
 90
        3
 90
       33
 90
       11
 90
       34
 90
        3
 90
       34
 90
       11
 90
       10
 94
      240
 90
        0
 90
        1
 90
        1
 90
        3
 90
        0
 90
        3
 90
        1
 90
        2
 90
        2
 90
        3
 90
        2
 90
       17
 90
        2
 90
       14
 90
       14
 90
       17
 90
        1
 90
       14
 90
        1
 90
       11
 90
       11
 90
       14
 90
        1
 90
        6
 90
        6
 90
       11
 90
        6
 90
        7
 90
        7
 90
       11
 90
        1
 90
        4
 90
        4
 90
        6
 90
        4
 90
        5
 90
        5
 90
        6
 90
        7
 90
        8
 90
        8
 90
       11
 90
        8
 90
        9
 90
        9
 90
       11
 90
        9
 90
       10
 90
       10
 90
       11
 90
       12
 90
       13
 90
       11
 90
       13
 90
       11
 90
       12
 90
       13
 90
       14
 90
       15
 90
       16
 90
       14
 90
       16
 90
       14
 90
       15
 90
       16
 90
       17
 90
        3
 90
       18
 90
       18
 90
       20
 90
        3
 90
       20
 90
       18
 90
       19
 90
       19
 90
       20
 90
       16
 90
       21
 90
       17
 90
       21
 90
       21
 90
       22
 90
       17
 90
       22
 90
       24
 90
       25
 90
       23
 90
       25
 90
       23
 90
       24
 90
       25
 90
       26
 90
       23
 90
       26
 90
        8
 90
       27
 90
        9
 90
       27
 90
        8
 90
       28
 90
       27
 90
       28
 90
        7
 90
       23
 90
        7
 90
       24
 90
       23
 90
       28
 90
        7
 90
       28
 90
        3
 90
       30
 90
        0
 90
       30
 90
       30
 90
       33
 90
        0
 90
       33
 90
       33
 90
       35
 90
        0
 90
       35
 90
       24
 90
       33
 90
       24
 90
       35
 90
       25
 90
       33
 90
       33
 90
       34
 90
       25
 90
       34
 90
       20
 90
       30
 90
       20
 90
       29
 90
       29
 90
       30
 90
       31
 90
       32
 90
       30
 90
       32
 90
       30
 90
       31
 90
       32
 90
       33
 90
       36
 90
       37
 90
       35
 90
       37
 90
       35
 90
       36
 90
        0
 90
       37
 90
        7
 90
       35
 90
        6
 90
       35
 90
        4
 90
       39
 90
       38
 90
       39
 90
        4
 90
       38
 90
       39
 90
       40
 90
       38
 90
       40
 90
       40
 90
       41
 90
       38
 90
       41
 90
        4
 90
       37
 90
       37
 90
       39
 90
        1
 90
       37
 90
       41
 90
       42
 90
       38
 90
       42
 90
       42
 90
       44
 90
       38
 90
       44
 90
       42
 90
       43
 90
       43
 90
       44
 90
       36
 90
       39
 90
       36
 90
       45
 90
       39
 90
       45
 90
       19
 90
       21
 90
       20
 90
       21
 90
       16
 90
       20
 90
       15
 90
       20
 90
       15
 90
       29
 90
       10
 90
       34
 90
       10
 90
       25
 90
        9
 90
       25
 90
       25
 90
       27
 90
       26
 90
       27
 90
        5
 90
       36
 90
        5
 90
       45
 90
        5
 90
       46
 90
       45
 90
       46
 90
       46
 90
       51
 90
       45
 90
       51
 90
       46
 90
       50
 90
       50
 90
       51
 90
       46
 90
       49
 90
       49
 90
       50
 90
       46
 90
       47
 90
       47
 90
       49
 90
       47
 90
       48
 90
       48
 90
       49
 90
        6
 90
       36
 90
        5
 90
       38
 90
       38
 90
       46
 90
       52
 90
       59
 90
       32
 90
       59
 90
       32
 90
       52
 90
       59
 90
       60
 90
       32
 90
       60
 90
       60
 90
       61
 90
       32
 90
       61
 90
       53
 90
       55
 90
       52
 90
       55
 90
       52
 90
       53
 90
       55
 90
       56
 90
       52
 90
       56
 90
       56
 90
       57
 90
       52
 90
       57
 90
       53
 90
       54
 90
       54
 90
       55
 90
       57
 90
       58
 90
       52
 90
       58
 90
       58
 90
       59
 90
       33
 90
       61
 90
       12
 90
       61
 90
       12
 90
       33
 90
       11
 90
       33
 90
       31
 90
       52
 90
       31
 90
       62
 90
       52
 90
       62
 90
       42
 90
       49
 90
       43
 90
       49
 90
       43
 90
       48
 90
       43
 90
       47
 90
       44
 90
       47
 90
       44
 90
       46
 90
       42
 90
       50
 90
       41
 90
       50
 90
       40
 90
       50
 90
       40
 90
       45
 90
       40
 90
       51
 90
       63
 90
       67
 90
       54
 90
       67
 90
       54
 90
       63
 90
       67
 90
       68
 90
       54
 90
       68
 90
       68
 90
       69
 90
       54
 90
       69
 90
       63
 90
       64
 90
       64
 90
       67
 90
       64
 90
       66
 90
       66
 90
       67
 90
       64
 90
       65
 90
       65
 90
       66
 90
       55
 90
       69
 90
       53
 90
       63
 90
       53
 90
       70
 90
       63
 90
       70
 90
       64
 90
       70
 90
       70
 90
       71
 90
       64
 90
       71
 90
       65
 90
       71
 90
       71
 90
       72
 90
       65
 90
       72
 90
       66
 90
       72
 90
       72
 90
       73
 90
       66
 90
       73
 90
       67
 90
       73
 90
       73
 90
       74
 90
       67
 90
       74
 90
       68
 90
       74
 90
       74
 90
       75
 90
       68
 90
       75
 90
       53
 90
       62
 90
       62
 90
       75
 90
       53
 90
       75
 90
       53
 90
       74
 90
       72
 90
       74
 90
       71
 90
       74
 90
       70
 90
       74
 90
       56
 90
       69
 90
       69
 90
       76
 90
       56
 90
       76
 90
       57
 90
       76
 90
       76
 90
       77
 90
       57
 90
       77
 90
       58
 90
       77
 90
       77
 90
       78
 90
       58
 90
       78
 90
       78
 90
       79
 90
       58
 90
       79
 90
       59
 90
       79
 90
       60
 90
       79
 90
       79
 90
       80
 90
       60
 90
       80
 90
       61
 90
       80
 90
       80
 90
       81
 90
       61
 90
       81
 90
       12
 90
       81
 90
       13
 90
       81
 90
       31
 90
       78
 90
       62
 90
       78
 90
       62
 90
       77
 90
       62
 90
       76
 90
       30
 90
       81
 90
       31
 90
       81
 90
       31
 90
       80
 90
       31
 90
       79
 90
       13
 90
       30
 90
       14
 90
       30
 90
       62
 90
       69
 90
       69
 90
       75
 90
        2
 90
       22
 90
       18
 90
       22
 90
        2
 90
       18
 90
       19
 90
       22
 90
       23
 90
       27
 90
       15
 90
       30
 90
       11
 90
       34
 95
      240
140
0.0
140
0.0
140
0.0
140
0.0
140
0.0
140
0.0
140
0.0
140
0.0
140
0.0
140
0.0
140
0.0
140
0.0
140
0.0
140
0.0
140
0.0
140
0.0
140
0.0
140
0.0
140
0.0
140
0.0
140
0.0
140
0.0
140
0.0
140
0.0
140
0.0
140
0.0
140
0.0
140
0.0
140
0.0
140
0.0
140
0.0
140
0.0
140
0.0
140
0.0
140
0.0
140
0.0
140
0.0
140
0.0
140
0.0
140
0.0
140
0.0
140
0.0
140
0.0
140
0.0
140
0.0
140
0.0
140
0.0
140
0.0
140
0.0
140
0.0
140
0.0
140
0.0
140
0.0
140
0.0
140
0.0
140
0.0
140
0.0
140
0.0
140
0.0
140
0.0
140
0.0
140
0.0
140
0.0
140
0.0
140
0.0
140
0.0
140
0.0
140
0.0
140
0.0
140
0.0
140
0.0
140
0.0
140
0.0
140
0.0
140
0.0
140
0.0
140
0.0
140
0.0
140
0.0
140
0.0
140
0.0
140
0.0
140
0.0
140
0.0
140
0.0
140
0.0
140
0.0
140
0.0
140
0.0
140
0.0
140
0.0
140
0.0
140
0.0
140
0.0
140
0.0
140
0.0
140
0.0
140
0.0
140
0.0
140
0.0
140
0.0
140
0.0
140
0.0
140
0.0
140
0.0
140
0.0
140
0.0
140
0.0
140
0.0
140
0.0
140
0.0
140
0.0
140
0.0
140
0.0
140
0.0
140
0.0
140
0.0
140
0.0
140
0.0
140
0.0
140
0.0
140
0.0
140
0.0
140
0.0
140
0.0
140
0.0
140
0.0
140
0.0
140
0.0
140
0.0
140
0.0
140
0.0
140
0.0
140
0.0
140
0.0
140
0.0
140
0.0
140
0.0
140
0.0
140
0.0
140
0.0
140
0.0
140
0.0
140
0.0
140
0.0
140
0.0
140
0.0
140
0.0
140
0.0
140
0.0
140
0.0
140
0.0
140
0.0
140
0.0
140
0.0
140
0.0
140
0.0
140
0.0
140
0.0
140
0.0
140
0.0
140
0.0
140
0.0
140
0.0
140
0.0
140
0.0
140
0.0
140
0.0
140
0.0
140
0.0
140
0.0
140
0.0
140
0.0
140
0.0
140
0.0
140
0.0
140
0.0
140
0.0
140
0.0
140
0.0
140
0.0
140
0.0
140
0.0
140
0.0
140
0.0
140
0.0
140
0.0
140
0.0
140
0.0
140
0.0
140
0.0
140
0.0
140
0.0
140
0.0
140
0.0
140
0.0
140
0.0
140
0.0
140
0.0
140
0.0
140
0.0
140
0.0
140
0.0
140
0.0
140
0.0
140
0.0
140
0.0
140
0.0
140
0.0
140
0.0
140
0.0
140
0.0
140
0.0
140
0.0
140
0.0
140
0.0
140
0.0
140
0.0
140
0.0
140
0.0
140
0.0
140
0.0
140
0.0
140
0.0
140
0.0
140
0.0
140
0.0
140
0.0
140
0.0
140
0.0
140
0.0
140
0.0
140
0.0
140
0.0
140
0.0
140
0.0
140
0.0
140
0.0
140
0.0
140
0.0
 90
        0
  0
POLYLINE
  5
FB
330
1F
100
AcDbEntity
  8
0
100
AcDb3dPolyline
 66
     1
 10
0.0
 20
0.0
 30
0.0
 70
     9
  0
VERTEX
  5
FC
330
FB
100
AcDbEntity
  8
0
100
AcDbVertex
100
AcDb3dPolylineVertex
 10
28.26650619506836
 20
-3.47856330871582
 30
48.49506759643555
 70
    32
  0
VERTEX
  5
FD
330
FB
100
AcDbEntity
  8
0
100
AcDbVertex
100
AcDb3dPolylineVertex
 10
28.27275276184082
 20
-3.633052825927734
 30
48.64958190917969
 70
    32
  0
VERTEX
  5
FE
330
FB
100
AcDbEntity
  8
0
100
AcDbVertex
100
AcDb3dPolylineVertex
 10
28.28988647460938
 20
-3.785478591918945
 30
48.80208587646484
 70
    32
  0
VERTEX
  5
FF
330
FB
100
AcDbEntity
  8
0
100
AcDbVertex
100
AcDb3dPolylineVertex
 10
28.31763076782227
 20
-3.935653686523437
 30
48.9523811340332
 70
    32
  0
VERTEX
  5
100
330
FB
100
AcDbEntity
  8
0
100
AcDbVertex
100
AcDb3dPolylineVertex
 10
28.3557243347168
 20
-4.083385467529296
 30
49.10028839111328
 70
    32
  0
VERTEX
  5
101
330
FB
100
AcDbEntity
  8
0
100
AcDbVertex
100
AcDb3dPolylineVertex
 10
28.40389251708984
 20
-4.22848892211914
 30
49.24561309814453
 70
    32
  0
VERTEX
  5
102
330
FB
100
AcDbEntity
  8
0
100
AcDbVertex
100
AcDb3dPolylineVertex
 10
28.46187019348145
 20
-4.370777130126953
 30
49.3881607055664
 70
    32
  0
VERTEX
  5
103
330
FB
100
AcDbEntity
  8
0
100
AcDbVertex
100
AcDb3dPolylineVertex
 10
28.52938461303711
 20
-4.510059356689453
 30
49.52775192260742
 70
    32
  0
VERTEX
  5
104
330
FB
100
AcDbEntity
  8
0
100
AcDbVertex
100
AcDb3dPolylineVertex
 10
28.60617065429688
 20
-4.646148681640625
 30
49.66419219970703
 70
    32
  0
VERTEX
  5
105
330
FB
100
AcDbEntity
  8
0
100
AcDbVertex
100
AcDb3dPolylineVertex
 10
28.69195556640625
 20
-4.778854370117187
 30
49.79728698730468
 70
    32
  0
VERTEX
  5
106
330
FB
100
AcDbEntity
  8
0
100
AcDbVertex
100
AcDb3dPolylineVertex
 10
28.78647232055664
 20
-4.907987594604492
 30
49.9268569946289
 70
    32
  0
VERTEX
  5
107
330
FB
100
AcDbEntity
  8
0
100
AcDbVertex
100
AcDb3dPolylineVertex
 10
28.88945388793946
 20
-5.033361434936523
 30
50.05270385742187
 70
    32
  0
VERTEX
  5
108
330
FB
100
AcDbEntity
  8
0
100
AcDbVertex
100
AcDb3dPolylineVertex
 10
29.00062561035156
 20
-5.154788970947265
 30
50.17463684082031
 70
    32
  0
VERTEX
  5
109
330
FB
100
AcDbEntity
  8
0
100
AcDbVertex
100
AcDb3dPolylineVertex
 10
29.11972045898437
 20
-5.272079467773437
 30
50.29247665405273
 70
    32
  0
VERTEX
  5
10A
330
FB
100
AcDbEntity
  8
0
100
AcDbVertex
100
AcDb3dPolylineVertex
 10
29.24647521972656
 20
-5.385047912597656
 30
50.40602493286133
 70
    32
  0
VERTEX
  5
10B
330
FB
100
AcDbEntity
  8
0
100
AcDbVertex
100
AcDb3dPolylineVertex
 10
29.38061332702637
 20
-5.493501663208007
 30
50.51509475708008
 70
    32
  0
VERTEX
  5
10C
330
FB
100
AcDbEntity
  8
0
100
AcDbVertex
100
AcDb3dPolylineVertex
 10
29.5218677520752
 20
-5.597255706787109
 30
50.61949539184571
 70
    32
  0
VERTEX
  5
10D
330
FB
100
AcDbEntity
  8
0
100
AcDbVertex
100
AcDb3dPolylineVertex
 10
29.66997146606445
 20
-5.696117401123046
 30
50.71903991699219
 70
    32
  0
VERTEX
  5
10E
330
FB
100
AcDbEntity
  8
0
100
AcDbVertex
100
AcDb3dPolylineVertex
 10
29.82465171813965
 20
-5.789901733398437
 30
50.81353378295898
 70
    32
  0
VERTEX
  5
10F
330
FB
100
AcDbEntity
  8
0
100
AcDbVertex
100
AcDb3dPolylineVertex
 10
29.98564338684082
 20
-5.878421783447265
 30
50.90279006958008
 70
    32
  0
VERTEX
  5
110
330
FB
100
AcDbEntity
  8
0
100
AcDbVertex
100
AcDb3dPolylineVertex
 10
30.15267562866211
 20
-5.96148681640625
 30
50.98662185668946
 70
    32
  0
VERTEX
  5
111
330
FB
100
AcDbEntity
  8
0
100
AcDbVertex
100
AcDb3dPolylineVertex
 10
30.32548141479492
 20
-6.038904190063476
 30
51.06483459472656
 70
    32
  0
VERTEX
  5
112
330
FB
100
AcDbEntity
  8
0
100
AcDbVertex
100
AcDb3dPolylineVertex
 10
30.50378799438477
 20
-6.110492706298828
 30
51.13724517822266
 70
    32
  0
VERTEX
  5
113
330
FB
100
AcDbEntity
  8
0
100
AcDbVertex
100
AcDb3dPolylineVertex
 10
30.68732643127442
 20
-6.17605972290039
 30
51.20365524291992
 70
    32
  0
VERTEX
  5
114
330
FB
100
AcDbEntity
  8
0
100
AcDbVertex
100
AcDb3dPolylineVertex
 10
30.87583160400391
 20
-6.235420227050781
 30
51.26388168334961
 70
    32
  0
VERTEX
  5
115
330
FB
100
AcDbEntity
  8
0
100
AcDbVertex
100
AcDb3dPolylineVertex
 10
31.06903266906738
 20
-6.288383483886718
 30
51.31773376464844
 70
    32
  0
VERTEX
  5
116
330
FB
100
AcDbEntity
  8
0
100
AcDbVertex
100
AcDb3dPolylineVertex
 10
31.26665878295899
 20
-6.334760665893554
 30
51.36502075195313
 70
    32
  0
VERTEX
  5
117
330
FB
100
AcDbEntity
  8
0
100
AcDbVertex
100
AcDb3dPolylineVertex
 10
31.46844100952149
 20
-6.374364852905273
 30
51.40555191040039
 70
    32
  0
VERTEX
  5
118
330
FB
100
AcDbEntity
  8
0
100
AcDbVertex
100
AcDb3dPolylineVertex
 10
31.67411422729492
 20
-6.407005310058593
 30
51.43914031982422
 70
    32
  0
VERTEX
  5
119
330
FB
100
AcDbEntity
  8
0
100
AcDbVertex
100
AcDb3dPolylineVertex
 10
31.88340377807617
 20
-6.432497024536132
 30
51.46559143066406
 70
    32
  0
VERTEX
  5
11A
330
FB
100
AcDbEntity
  8
0
100
AcDbVertex
100
AcDb3dPolylineVertex
 10
32.09604644775391
 20
-6.450647354125976
 30
51.48472595214844
 70
    32
  0
VERTEX
  5
11B
330
FB
100
AcDbEntity
  8
0
100
AcDbVertex
100
AcDb3dPolylineVertex
 10
32.311767578125
 20
-6.461271286010742
 30
51.49634170532227
 70
    32
  0
VERTEX
  5
11C
330
FB
100
AcDbEntity
  8
0
100
AcDbVertex
100
AcDb3dPolylineVertex
 10
32.53030014038086
 20
-6.464179992675781
 30
51.50025558471679
 70
    32
  0
VERTEX
  5
11D
330
FB
100
AcDbEntity
  8
0
100
AcDbVertex
100
AcDb3dPolylineVertex
 10
32.74879837036133
 20
-6.459257125854492
 30
51.49634170532227
 70
    32
  0
VERTEX
  5
11E
330
FB
100
AcDbEntity
  8
0
100
AcDbVertex
100
AcDb3dPolylineVertex
 10
32.96440887451172
 20
-6.446647644042968
 30
51.48472595214844
 70
    32
  0
VERTEX
  5
11F
330
FB
100
AcDbEntity
  8
0
100
AcDbVertex
100
AcDb3dPolylineVertex
 10
33.1768798828125
 20
-6.426540374755859
 30
51.46559524536133
 70
    32
  0
VERTEX
  5
120
330
FB
100
AcDbEntity
  8
0
100
AcDbVertex
100
AcDb3dPolylineVertex
 10
33.38592529296875
 20
-6.399122238159179
 30
51.43914031982422
 70
    32
  0
VERTEX
  5
121
330
FB
100
AcDbEntity
  8
0
100
AcDbVertex
100
AcDb3dPolylineVertex
 10
33.59128570556641
 20
-6.364587783813476
 30
51.40555191040039
 70
    32
  0
VERTEX
  5
122
330
FB
100
AcDbEntity
  8
0
100
AcDbVertex
100
AcDb3dPolylineVertex
 10
33.79269790649414
 20
-6.323127746582031
 30
51.36502075195313
 70
    32
  0
VERTEX
  5
123
330
FB
100
AcDbEntity
  8
0
100
AcDbVertex
100
AcDb3dPolylineVertex
 10
33.98988723754883
 20
-6.274930953979492
 30
51.31773376464844
 70
    32
  0
VERTEX
  5
124
330
FB
100
AcDbEntity
  8
0
100
AcDbVertex
100
AcDb3dPolylineVertex
 10
34.18259429931641
 20
-6.220191955566406
 30
51.26388168334961
 70
    32
  0
VERTEX
  5
125
330
FB
100
AcDbEntity
  8
0
100
AcDbVertex
100
AcDb3dPolylineVertex
 10
34.37054443359375
 20
-6.159097671508789
 30
51.20365524291992
 70
    32
  0
VERTEX
  5
126
330
FB
100
AcDbEntity
  8
0
100
AcDbVertex
100
AcDb3dPolylineVertex
 10
34.55347061157227
 20
-6.091842651367187
 30
51.13724517822266
 70
    32
  0
VERTEX
  5
127
330
FB
100
AcDbEntity
  8
0
100
AcDbVertex
100
AcDb3dPolylineVertex
 10
34.73110961914063
 20
-6.01861572265625
 30
51.06483459472656
 70
    32
  0
VERTEX
  5
128
330
FB
100
AcDbEntity
  8
0
100
AcDbVertex
100
AcDb3dPolylineVertex
 10
34.90319061279297
 20
-5.939607620239257
 30
50.98662185668946
 70
    32
  0
VERTEX
  5
129
330
FB
100
AcDbEntity
  8
0
100
AcDbVertex
100
AcDb3dPolylineVertex
 10
35.06945419311524
 20
-5.855007171630859
 30
50.90279388427735
 70
    32
  0
VERTEX
  5
12A
330
FB
100
AcDbEntity
  8
0
100
AcDbVertex
100
AcDb3dPolylineVertex
 10
35.22962188720703
 20
-5.765008926391601
 30
50.81352996826172
 70
    32
  0
VERTEX
  5
12B
330
FB
100
AcDbEntity
  8
0
100
AcDbVertex
100
AcDb3dPolylineVertex
 10
35.3834342956543
 20
-5.669805526733398
 30
50.71903991699219
 70
    32
  0
VERTEX
  5
12C
330
FB
100
AcDbEntity
  8
0
100
AcDbVertex
100
AcDb3dPolylineVertex
 10
35.53062438964844
 20
-5.569581985473632
 30
50.61949539184571
 70
    32
  0
VERTEX
  5
12D
330
FB
100
AcDbEntity
  8
0
100
AcDbVertex
100
AcDb3dPolylineVertex
 10
35.67091369628907
 20
-5.464530944824218
 30
50.51509094238281
 70
    32
  0
VERTEX
  5
12E
330
FB
100
AcDbEntity
  8
0
100
AcDbVertex
100
AcDb3dPolylineVertex
 10
35.80404663085938
 20
-5.354848861694335
 30
50.40602493286133
 70
    32
  0
VERTEX
  5
12F
330
FB
100
AcDbEntity
  8
0
100
AcDbVertex
100
AcDb3dPolylineVertex
 10
35.92975234985352
 20
-5.240718841552734
 30
50.29247665405273
 70
    32
  0
VERTEX
  5
130
330
FB
100
AcDbEntity
  8
0
100
AcDbVertex
100
AcDb3dPolylineVertex
 10
36.04776763916016
 20
-5.122333526611328
 30
50.17463684082031
 70
    32
  0
VERTEX
  5
131
330
FB
100
AcDbEntity
  8
0
100
AcDbVertex
100
AcDb3dPolylineVertex
 10
36.15781402587891
 20
-4.999887466430664
 30
50.05270385742187
 70
    32
  0
VERTEX
  5
132
330
FB
100
AcDbEntity
  8
0
100
AcDbVertex
100
AcDb3dPolylineVertex
 10
36.25963592529297
 20
-4.87356948852539
 30
49.9268569946289
 70
    32
  0
VERTEX
  5
133
330
FB
100
AcDbEntity
  8
0
100
AcDbVertex
100
AcDb3dPolylineVertex
 10
36.35295867919922
 20
-4.743570327758789
 30
49.79728698730468
 70
    32
  0
VERTEX
  5
134
330
FB
100
AcDbEntity
  8
0
100
AcDbVertex
100
AcDb3dPolylineVertex
 10
36.43751907348633
 20
-4.61008071899414
 30
49.66419219970703
 70
    32
  0
VERTEX
  5
135
330
FB
100
AcDbEntity
  8
0
100
AcDbVertex
100
AcDb3dPolylineVertex
 10
36.51304626464844
 20
-4.473291397094726
 30
49.52775192260742
 70
    32
  0
VERTEX
  5
136
330
FB
100
AcDbEntity
  8
0
100
AcDbVertex
100
AcDb3dPolylineVertex
 10
36.57927703857422
 20
-4.333393096923828
 30
49.3881607055664
 70
    32
  0
VERTEX
  5
137
330
FB
100
AcDbEntity
  8
0
100
AcDbVertex
100
AcDb3dPolylineVertex
 10
36.63594055175781
 20
-4.190578460693359
 30
49.24561309814453
 70
    32
  0
VERTEX
  5
138
330
FB
100
AcDbEntity
  8
0
100
AcDbVertex
100
AcDb3dPolylineVertex
 10
36.68276977539063
 20
-4.045036315917968
 30
49.10028839111328
 70
    32
  0
VERTEX
  5
139
330
FB
100
AcDbEntity
  8
0
100
AcDbVertex
100
AcDb3dPolylineVertex
 10
36.71950149536133
 20
-3.896957397460937
 30
48.9523811340332
 70
    32
  0
VERTEX
  5
13A
330
FB
100
AcDbEntity
  8
0
100
AcDbVertex
100
AcDb3dPolylineVertex
 10
36.74586486816406
 20
-3.746536254882812
 30
48.80208587646484
 70
    32
  0
VERTEX
  5
13B
330
FB
100
AcDbEntity
  8
0
100
AcDbVertex
100
AcDb3dPolylineVertex
 10
36.76158905029297
 20
-3.593959808349609
 30
48.64958190917969
 70
    32
  0
VERTEX
  5
13C
330
FB
100
AcDbEntity
  8
0
100
AcDbVertex
100
AcDb3dPolylineVertex
 10
36.76641464233398
 20
-3.439418792724609
 30
48.49506759643555
 70
    32
  0
VERTEX
  5
13D
330
FB
100
AcDbEntity
  8
0
100
AcDbVertex
100
AcDb3dPolylineVertex
 10
36.76016998291016
 20
-3.284931182861328
 30
48.3405532836914
 70
    32
  0
VERTEX
  5
13E
330
FB
100
AcDbEntity
  8
0
100
AcDbVertex
100
AcDb3dPolylineVertex
 10
36.74303436279297
 20
-3.132505416870117
 30
48.18805313110352
 70
    32
  0
VERTEX
  5
13F
330
FB
100
AcDbEntity
  8
0
100
AcDbVertex
100
AcDb3dPolylineVertex
 10
36.71528625488281
 20
-2.982328414916992
 30
48.03775405883789
 70
    32
  0
VERTEX
  5
140
330
FB
100
AcDbEntity
  8
0
100
AcDbVertex
100
AcDb3dPolylineVertex
 10
36.67719650268555
 20
-2.834596633911132
 30
47.88984680175781
 70
    32
  0
VERTEX
  5
141
330
FB
100
AcDbEntity
  8
0
100
AcDbVertex
100
AcDb3dPolylineVertex
 10
36.6290283203125
 20
-2.689491271972656
 30
47.74452209472656
 70
    32
  0
VERTEX
  5
142
330
FB
100
AcDbEntity
  8
0
100
AcDbVertex
100
AcDb3dPolylineVertex
 10
36.57105255126953
 20
-2.547204971313476
 30
47.60197448730468
 70
    32
  0
VERTEX
  5
143
330
FB
100
AcDbEntity
  8
0
100
AcDbVertex
100
AcDb3dPolylineVertex
 10
36.50353240966797
 20
-2.407920837402343
 30
47.46238327026367
 70
    32
  0
VERTEX
  5
144
330
FB
100
AcDbEntity
  8
0
100
AcDbVertex
100
AcDb3dPolylineVertex
 10
36.42675018310547
 20
-2.271833419799804
 30
47.32594299316406
 70
    32
  0
VERTEX
  5
145
330
FB
100
AcDbEntity
  8
0
100
AcDbVertex
100
AcDb3dPolylineVertex
 10
36.34096145629883
 20
-2.139129638671875
 30
47.1928482055664
 70
    32
  0
VERTEX
  5
146
330
FB
100
AcDbEntity
  8
0
100
AcDbVertex
100
AcDb3dPolylineVertex
 10
36.24644470214844
 20
-2.00999641418457
 30
47.06327819824219
 70
    32
  0
VERTEX
  5
147
330
FB
100
AcDbEntity
  8
0
100
AcDbVertex
100
AcDb3dPolylineVertex
 10
36.14346694946289
 20
-1.884620666503906
 30
46.93743515014648
 70
    32
  0
VERTEX
  5
148
330
FB
100
AcDbEntity
  8
0
100
AcDbVertex
100
AcDb3dPolylineVertex
 10
36.03229522705078
 20
-1.763193130493164
 30
46.81549453735351
 70
    32
  0
VERTEX
  5
149
330
FB
100
AcDbEntity
  8
0
100
AcDbVertex
100
AcDb3dPolylineVertex
 10
35.91320037841797
 20
-1.645902633666992
 30
46.69765853881836
 70
    32
  0
VERTEX
  5
14A
330
FB
100
AcDbEntity
  8
0
100
AcDbVertex
100
AcDb3dPolylineVertex
 10
35.78644561767578
 20
-1.532934188842773
 30
46.58411026000976
 70
    32
  0
VERTEX
  5
14B
330
FB
100
AcDbEntity
  8
0
100
AcDbVertex
100
AcDb3dPolylineVertex
 10
35.65230560302734
 20
-1.424480438232421
 30
46.47504043579101
 70
    32
  0
VERTEX
  5
14C
330
FB
100
AcDbEntity
  8
0
100
AcDbVertex
100
AcDb3dPolylineVertex
 10
35.51105499267578
 20
-1.32072639465332
 30
46.37063980102539
 70
    32
  0
VERTEX
  5
14D
330
FB
100
AcDbEntity
  8
0
100
AcDbVertex
100
AcDb3dPolylineVertex
 10
35.36295318603516
 20
-1.221864700317382
 30
46.2710952758789
 70
    32
  0
VERTEX
  5
14E
330
FB
100
AcDbEntity
  8
0
100
AcDbVertex
100
AcDb3dPolylineVertex
 10
35.20826721191407
 20
-1.128080368041992
 30
46.17660140991211
 70
    32
  0
VERTEX
  5
14F
330
FB
100
AcDbEntity
  8
0
100
AcDbVertex
100
AcDb3dPolylineVertex
 10
35.04727935791016
 20
-1.039562225341796
 30
46.08734512329101
 70
    32
  0
VERTEX
  5
150
330
FB
100
AcDbEntity
  8
0
100
AcDbVertex
100
AcDb3dPolylineVertex
 10
34.88024520874024
 20
-0.9564990997314453
 30
46.00351333618164
 70
    32
  0
VERTEX
  5
151
330
FB
100
AcDbEntity
  8
0
100
AcDbVertex
100
AcDb3dPolylineVertex
 10
34.70743942260742
 20
-0.8790779113769531
 30
45.92530059814452
 70
    32
  0
VERTEX
  5
152
330
FB
100
AcDbEntity
  8
0
100
AcDbVertex
100
AcDb3dPolylineVertex
 10
34.52913665771485
 20
-0.8074893951416015
 30
45.85289001464843
 70
    32
  0
VERTEX
  5
153
330
FB
100
AcDbEntity
  8
0
100
AcDbVertex
100
AcDb3dPolylineVertex
 10
34.3455924987793
 20
-0.7419214248657227
 30
45.78647994995117
 70
    32
  0
VERTEX
  5
154
330
FB
100
AcDbEntity
  8
0
100
AcDbVertex
100
AcDb3dPolylineVertex
 10
34.15708923339844
 20
-0.6825618743896485
 30
45.72625350952148
 70
    32
  0
VERTEX
  5
155
330
FB
100
AcDbEntity
  8
0
100
AcDbVertex
100
AcDb3dPolylineVertex
 10
33.96389007568359
 20
-0.6295995712280274
 30
45.67240142822265
 70
    32
  0
VERTEX
  5
156
330
FB
100
AcDbEntity
  8
0
100
AcDbVertex
100
AcDb3dPolylineVertex
 10
33.76626205444336
 20
-0.5832223892211914
 30
45.62511444091796
 70
    32
  0
VERTEX
  5
157
330
FB
100
AcDbEntity
  8
0
100
AcDbVertex
100
AcDb3dPolylineVertex
 10
33.56447982788086
 20
-0.5436191558837891
 30
45.5845832824707
 70
    32
  0
VERTEX
  5
158
330
FB
100
AcDbEntity
  8
0
100
AcDbVertex
100
AcDb3dPolylineVertex
 10
33.35881042480469
 20
-0.510976791381836
 30
45.55099487304687
 70
    32
  0
VERTEX
  5
159
330
FB
100
AcDbEntity
  8
0
100
AcDbVertex
100
AcDb3dPolylineVertex
 10
33.14951705932617
 20
-0.4854869842529297
 30
45.52454376220703
 70
    32
  0
VERTEX
  5
15A
330
FB
100
AcDbEntity
  8
0
100
AcDbVertex
100
AcDb3dPolylineVertex
 10
32.93687438964844
 20
-0.4673357009887696
 30
45.50540924072265
 70
    32
  0
VERTEX
  5
15B
330
FB
100
AcDbEntity
  8
0
100
AcDbVertex
100
AcDb3dPolylineVertex
 10
32.72115325927734
 20
-0.4567108154296875
 30
45.49379348754882
 70
    32
  0
VERTEX
  5
15C
330
FB
100
AcDbEntity
  8
0
100
AcDbVertex
100
AcDb3dPolylineVertex
 10
32.50262069702149
 20
-0.4538030624389649
 30
45.4898796081543
 70
    32
  0
VERTEX
  5
15D
330
FB
100
AcDbEntity
  8
0
100
AcDbVertex
100
AcDb3dPolylineVertex
 10
32.28412628173828
 20
-0.4587249755859375
 30
45.49379348754882
 70
    32
  0
VERTEX
  5
15E
330
FB
100
AcDbEntity
  8
0
100
AcDbVertex
100
AcDb3dPolylineVertex
 10
32.0685043334961
 20
-0.471334457397461
 30
45.50541305541992
 70
    32
  0
VERTEX
  5
15F
330
FB
100
AcDbEntity
  8
0
100
AcDbVertex
100
AcDb3dPolylineVertex
 10
31.85604286193848
 20
-0.4914445877075196
 30
45.52454376220703
 70
    32
  0
VERTEX
  5
160
330
FB
100
AcDbEntity
  8
0
100
AcDbVertex
100
AcDb3dPolylineVertex
 10
31.64699554443359
 20
-0.5188627243041993
 30
45.55099487304687
 70
    32
  0
VERTEX
  5
161
330
FB
100
AcDbEntity
  8
0
100
AcDbVertex
100
AcDb3dPolylineVertex
 10
31.44163322448731
 20
-0.5533943176269532
 30
45.5845832824707
 70
    32
  0
VERTEX
  5
162
330
FB
100
AcDbEntity
  8
0
100
AcDbVertex
100
AcDb3dPolylineVertex
 10
31.24022483825684
 20
-0.5948562622070313
 30
45.62511444091796
 70
    32
  0
VERTEX
  5
163
330
FB
100
AcDbEntity
  8
0
100
AcDbVertex
100
AcDb3dPolylineVertex
 10
31.04303359985352
 20
-0.6430501937866211
 30
45.67240142822265
 70
    32
  0
VERTEX
  5
164
330
FB
100
AcDbEntity
  8
0
100
AcDbVertex
100
AcDb3dPolylineVertex
 10
30.8503303527832
 20
-0.6977901458740235
 30
45.72625350952148
 70
    32
  0
VERTEX
  5
165
330
FB
100
AcDbEntity
  8
0
100
AcDbVertex
100
AcDb3dPolylineVertex
 10
30.66238021850586
 20
-0.7588844299316407
 30
45.78647994995117
 70
    32
  0
VERTEX
  5
166
330
FB
100
AcDbEntity
  8
0
100
AcDbVertex
100
AcDb3dPolylineVertex
 10
30.47945022583008
 20
-0.8261404037475585
 30
45.85289001464843
 70
    32
  0
VERTEX
  5
167
330
FB
100
AcDbEntity
  8
0
100
AcDbVertex
100
AcDb3dPolylineVertex
 10
30.30181121826172
 20
-0.8993682861328125
 30
45.92530059814452
 70
    32
  0
VERTEX
  5
168
330
FB
100
AcDbEntity
  8
0
100
AcDbVertex
100
AcDb3dPolylineVertex
 10
30.12972640991211
 20
-0.9783744812011718
 30
46.00351333618164
 70
    32
  0
VERTEX
  5
169
330
FB
100
AcDbEntity
  8
0
100
AcDbVertex
100
AcDb3dPolylineVertex
 10
29.96346664428711
 20
-1.062973022460937
 30
46.08734512329101
 70
    32
  0
VERTEX
  5
16A
330
FB
100
AcDbEntity
  8
0
100
AcDbVertex
100
AcDb3dPolylineVertex
 10
29.80329895019531
 20
-1.152973175048828
 30
46.17660140991211
 70
    32
  0
VERTEX
  5
16B
330
FB
100
AcDbEntity
  8
0
100
AcDbVertex
100
AcDb3dPolylineVertex
 10
29.64948654174805
 20
-1.248176574707031
 30
46.2710952758789
 70
    32
  0
VERTEX
  5
16C
330
FB
100
AcDbEntity
  8
0
100
AcDbVertex
100
AcDb3dPolylineVertex
 10
29.50230026245117
 20
-1.348400115966796
 30
46.37063980102539
 70
    32
  0
VERTEX
  5
16D
330
FB
100
AcDbEntity
  8
0
100
AcDbVertex
100
AcDb3dPolylineVertex
 10
29.36200714111328
 20
-1.45345115661621
 30
46.47504043579101
 70
    32
  0
VERTEX
  5
16E
330
FB
100
AcDbEntity
  8
0
100
AcDbVertex
100
AcDb3dPolylineVertex
 10
29.22887039184571
 20
-1.563135147094726
 30
46.58411026000976
 70
    32
  0
VERTEX
  5
16F
330
FB
100
AcDbEntity
  8
0
100
AcDbVertex
100
AcDb3dPolylineVertex
 10
29.1031665802002
 20
-1.677263259887695
 30
46.69765853881836
 70
    32
  0
VERTEX
  5
170
330
FB
100
AcDbEntity
  8
0
100
AcDbVertex
100
AcDb3dPolylineVertex
 10
28.98515701293945
 20
-1.795646667480468
 30
46.81549835205077
 70
    32
  0
VERTEX
  5
171
330
FB
100
AcDbEntity
  8
0
100
AcDbVertex
100
AcDb3dPolylineVertex
 10
28.87510681152344
 20
-1.918094635009765
 30
46.93743133544922
 70
    32
  0
VERTEX
  5
172
330
FB
100
AcDbEntity
  8
0
100
AcDbVertex
100
AcDb3dPolylineVertex
 10
28.77328491210938
 20
-2.044414520263671
 30
47.06327819824219
 70
    32
  0
VERTEX
  5
173
330
FB
100
AcDbEntity
  8
0
100
AcDbVertex
100
AcDb3dPolylineVertex
 10
28.67996215820312
 20
-2.17441177368164
 30
47.1928482055664
 70
    32
  0
VERTEX
  5
174
330
FB
100
AcDbEntity
  8
0
100
AcDbVertex
100
AcDb3dPolylineVertex
 10
28.59540176391602
 20
-2.307901382446289
 30
47.32594299316406
 70
    32
  0
VERTEX
  5
175
330
FB
100
AcDbEntity
  8
0
100
AcDbVertex
100
AcDb3dPolylineVertex
 10
28.51987457275391
 20
-2.444690704345703
 30
47.46238327026367
 70
    32
  0
VERTEX
  5
176
330
FB
100
AcDbEntity
  8
0
100
AcDbVertex
100
AcDb3dPolylineVertex
 10
28.45364379882813
 20
-2.584589004516601
 30
47.60197448730468
 70
    32
  0
VERTEX
  5
177
330
FB
100
AcDbEntity
  8
0
100
AcDbVertex
100
AcDb3dPolylineVertex
 10
28.39698028564453
 20
-2.72740364074707
 30
47.74452209472656
 70
    32
  0
VERTEX
  5
178
330
FB
100
AcDbEntity
  8
0
100
AcDbVertex
100
AcDb3dPolylineVertex
 10
28.35014915466309
 20
-2.87294578552246
 30
47.88984680175781
 70
    32
  0
VERTEX
  5
179
330
FB
100
AcDbEntity
  8
0
100
AcDbVertex
100
AcDb3dPolylineVertex
 10
28.31341934204102
 20
-3.021022796630859
 30
48.03775405883789
 70
    32
  0
VERTEX
  5
17A
330
FB
100
AcDbEntity
  8
0
100
AcDbVertex
100
AcDb3dPolylineVertex
 10
28.28705787658691
 20
-3.171445846557617
 30
48.18804931640625
 70
    32
  0
VERTEX
  5
17B
330
FB
100
AcDbEntity
  8
0
100
AcDbVertex
100
AcDb3dPolylineVertex
 10
28.27133178710937
 20
-3.32402229309082
 30
48.3405532836914
 70
    32
  0
SEQEND
  5
2FF
330
FB
100
AcDbEntity
  8
0
  0
POLYLINE
  5
17C
330
1F
100
AcDbEntity
  8
0
100
AcDb3dPolyline
 66
     1
 10
0.0
 20
0.0
 30
0.0
 70
     9
  0
VERTEX
  5
17D
330
17C
100
AcDbEntity
  8
0
100
AcDbVertex
100
AcDb3dPolylineVertex
 10
-3.439418792724609
 20
36.76641464233398
 30
48.49506759643555
 70
    32
  0
VERTEX
  5
17E
330
17C
100
AcDbEntity
  8
0
100
AcDbVertex
100
AcDb3dPolylineVertex
 10
-3.593959808349609
 20
36.76158905029297
 30
48.64958190917969
 70
    32
  0
VERTEX
  5
17F
330
17C
100
AcDbEntity
  8
0
100
AcDbVertex
100
AcDb3dPolylineVertex
 10
-3.746534347534179
 20
36.74586486816406
 30
48.80208587646484
 70
    32
  0
VERTEX
  5
180
330
17C
100
AcDbEntity
  8
0
100
AcDbVertex
100
AcDb3dPolylineVertex
 10
-3.896957397460937
 20
36.71950149536133
 30
48.9523811340332
 70
    32
  0
VERTEX
  5
181
330
17C
100
AcDbEntity
  8
0
100
AcDbVertex
100
AcDb3dPolylineVertex
 10
-4.045036315917968
 20
36.68276977539063
 30
49.10028839111328
 70
    32
  0
VERTEX
  5
182
330
17C
100
AcDbEntity
  8
0
100
AcDbVertex
100
AcDb3dPolylineVertex
 10
-4.190578460693359
 20
36.63594055175781
 30
49.24561309814453
 70
    32
  0
VERTEX
  5
183
330
17C
100
AcDbEntity
  8
0
100
AcDbVertex
100
AcDb3dPolylineVertex
 10
-4.333393096923828
 20
36.57927703857422
 30
49.3881607055664
 70
    32
  0
VERTEX
  5
184
330
17C
100
AcDbEntity
  8
0
100
AcDbVertex
100
AcDb3dPolylineVertex
 10
-4.473289489746093
 20
36.51304626464844
 30
49.52775192260742
 70
    32
  0
VERTEX
  5
185
330
17C
100
AcDbEntity
  8
0
100
AcDbVertex
100
AcDb3dPolylineVertex
 10
-4.61008071899414
 20
36.43751525878907
 30
49.66419219970703
 70
    32
  0
VERTEX
  5
186
330
17C
100
AcDbEntity
  8
0
100
AcDbVertex
100
AcDb3dPolylineVertex
 10
-4.743570327758789
 20
36.35295867919922
 30
49.79728698730468
 70
    32
  0
VERTEX
  5
187
330
17C
100
AcDbEntity
  8
0
100
AcDbVertex
100
AcDb3dPolylineVertex
 10
-4.87356948852539
 20
36.25963592529297
 30
49.9268569946289
 70
    32
  0
VERTEX
  5
188
330
17C
100
AcDbEntity
  8
0
100
AcDbVertex
100
AcDb3dPolylineVertex
 10
-4.999887466430664
 20
36.15781402587891
 30
50.05270385742187
 70
    32
  0
VERTEX
  5
189
330
17C
100
AcDbEntity
  8
0
100
AcDbVertex
100
AcDb3dPolylineVertex
 10
-5.122337341308593
 20
36.04776763916016
 30
50.17463684082031
 70
    32
  0
VERTEX
  5
18A
330
17C
100
AcDbEntity
  8
0
100
AcDbVertex
100
AcDb3dPolylineVertex
 10
-5.240718841552734
 20
35.92975616455078
 30
50.29247665405273
 70
    32
  0
VERTEX
  5
18B
330
17C
100
AcDbEntity
  8
0
100
AcDbVertex
100
AcDb3dPolylineVertex
 10
-5.354846954345703
 20
35.80404663085938
 30
50.40602493286133
 70
    32
  0
VERTEX
  5
18C
330
17C
100
AcDbEntity
  8
0
100
AcDbVertex
100
AcDb3dPolylineVertex
 10
-5.464532852172851
 20
35.67091369628907
 30
50.51509475708008
 70
    32
  0
VERTEX
  5
18D
330
17C
100
AcDbEntity
  8
0
100
AcDbVertex
100
AcDb3dPolylineVertex
 10
-5.569580078125
 20
35.53062438964844
 30
50.61949539184571
 70
    32
  0
VERTEX
  5
18E
330
17C
100
AcDbEntity
  8
0
100
AcDbVertex
100
AcDb3dPolylineVertex
 10
-5.669803619384765
 20
35.3834342956543
 30
50.71903991699219
 70
    32
  0
VERTEX
  5
18F
330
17C
100
AcDbEntity
  8
0
100
AcDbVertex
100
AcDb3dPolylineVertex
 10
-5.765010833740234
 20
35.22962188720703
 30
50.81353378295898
 70
    32
  0
VERTEX
  5
190
330
17C
100
AcDbEntity
  8
0
100
AcDbVertex
100
AcDb3dPolylineVertex
 10
-5.855009078979492
 20
35.06945419311524
 30
50.90279006958008
 70
    32
  0
VERTEX
  5
191
330
17C
100
AcDbEntity
  8
0
100
AcDbVertex
100
AcDb3dPolylineVertex
 10
-5.939605712890625
 20
34.90319442749024
 30
50.98662185668946
 70
    32
  0
VERTEX
  5
192
330
17C
100
AcDbEntity
  8
0
100
AcDbVertex
100
AcDb3dPolylineVertex
 10
-6.01861572265625
 20
34.73110961914063
 30
51.06483459472656
 70
    32
  0
VERTEX
  5
193
330
17C
100
AcDbEntity
  8
0
100
AcDbVertex
100
AcDb3dPolylineVertex
 10
-6.091840744018554
 20
34.55347061157227
 30
51.13724517822266
 70
    32
  0
VERTEX
  5
194
330
17C
100
AcDbEntity
  8
0
100
AcDbVertex
100
AcDb3dPolylineVertex
 10
-6.159097671508789
 20
34.37054061889649
 30
51.20365524291992
 70
    32
  0
VERTEX
  5
195
330
17C
100
AcDbEntity
  8
0
100
AcDbVertex
100
AcDb3dPolylineVertex
 10
-6.220191955566406
 20
34.18259429931641
 30
51.26388168334961
 70
    32
  0
VERTEX
  5
196
330
17C
100
AcDbEntity
  8
0
100
AcDbVertex
100
AcDb3dPolylineVertex
 10
-6.274930953979492
 20
33.98988723754883
 30
51.31773376464844
 70
    32
  0
VERTEX
  5
197
330
17C
100
AcDbEntity
  8
0
100
AcDbVertex
100
AcDb3dPolylineVertex
 10
-6.323125839233398
 20
33.79269409179688
 30
51.36502075195313
 70
    32
  0
VERTEX
  5
198
330
17C
100
AcDbEntity
  8
0
100
AcDbVertex
100
AcDb3dPolylineVertex
 10
-6.364585876464843
 20
33.59128570556641
 30
51.40555191040039
 70
    32
  0
VERTEX
  5
199
330
17C
100
AcDbEntity
  8
0
100
AcDbVertex
100
AcDb3dPolylineVertex
 10
-6.399120330810546
 20
33.38592529296875
 30
51.43914031982422
 70
    32
  0
VERTEX
  5
19A
330
17C
100
AcDbEntity
  8
0
100
AcDbVertex
100
AcDb3dPolylineVertex
 10
-6.426536560058593
 20
33.17687606811523
 30
51.46559143066406
 70
    32
  0
VERTEX
  5
19B
330
17C
100
AcDbEntity
  8
0
100
AcDbVertex
100
AcDb3dPolylineVertex
 10
-6.446645736694335
 20
32.96441268920899
 30
51.48472595214844
 70
    32
  0
VERTEX
  5
19C
330
17C
100
AcDbEntity
  8
0
100
AcDbVertex
100
AcDb3dPolylineVertex
 10
-6.459259033203125
 20
32.74879837036133
 30
51.49634170532227
 70
    32
  0
VERTEX
  5
19D
330
17C
100
AcDbEntity
  8
0
100
AcDbVertex
100
AcDb3dPolylineVertex
 10
-6.464178085327148
 20
32.53030014038086
 30
51.50025558471679
 70
    32
  0
VERTEX
  5
19E
330
17C
100
AcDbEntity
  8
0
100
AcDbVertex
100
AcDb3dPolylineVertex
 10
-6.461267471313476
 20
32.311767578125
 30
51.49634170532227
 70
    32
  0
VERTEX
  5
19F
330
17C
100
AcDbEntity
  8
0
100
AcDbVertex
100
AcDb3dPolylineVertex
 10
-6.450647354125976
 20
32.09604263305664
 30
51.48472595214844
 70
    32
  0
VERTEX
  5
1A0
330
17C
100
AcDbEntity
  8
0
100
AcDbVertex
100
AcDb3dPolylineVertex
 10
-6.4324951171875
 20
31.88340377807617
 30
51.46559524536133
 70
    32
  0
VERTEX
  5
1A1
330
17C
100
AcDbEntity
  8
0
100
AcDbVertex
100
AcDb3dPolylineVertex
 10
-6.407005310058593
 20
31.67411231994629
 30
51.43914031982422
 70
    32
  0
VERTEX
  5
1A2
330
17C
100
AcDbEntity
  8
0
100
AcDbVertex
100
AcDb3dPolylineVertex
 10
-6.374364852905273
 20
31.46844100952149
 30
51.40555191040039
 70
    32
  0
VERTEX
  5
1A3
330
17C
100
AcDbEntity
  8
0
100
AcDbVertex
100
AcDb3dPolylineVertex
 10
-6.334758758544921
 20
31.26665878295899
 30
51.36502075195313
 70
    32
  0
VERTEX
  5
1A4
330
17C
100
AcDbEntity
  8
0
100
AcDbVertex
100
AcDb3dPolylineVertex
 10
-6.288383483886718
 20
31.06903076171875
 30
51.31773376464844
 70
    32
  0
VERTEX
  5
1A5
330
17C
100
AcDbEntity
  8
0
100
AcDbVertex
100
AcDb3dPolylineVertex
 10
-6.235420227050781
 20
30.87583160400391
 30
51.26388168334961
 70
    32
  0
VERTEX
  5
1A6
330
17C
100
AcDbEntity
  8
0
100
AcDbVertex
100
AcDb3dPolylineVertex
 10
-6.17605972290039
 20
30.68732452392578
 30
51.20365524291992
 70
    32
  0
VERTEX
  5
1A7
330
17C
100
AcDbEntity
  8
0
100
AcDbVertex
100
AcDb3dPolylineVertex
 10
-6.110492706298828
 20
30.50378799438477
 30
51.13724517822266
 70
    32
  0
VERTEX
  5
1A8
330
17C
100
AcDbEntity
  8
0
100
AcDbVertex
100
AcDb3dPolylineVertex
 10
-6.038904190063476
 20
30.32547950744629
 30
51.06483459472656
 70
    32
  0
VERTEX
  5
1A9
330
17C
100
AcDbEntity
  8
0
100
AcDbVertex
100
AcDb3dPolylineVertex
 10
-5.961483001708984
 20
30.15267562866211
 30
50.98662185668946
 70
    32
  0
VERTEX
  5
1AA
330
17C
100
AcDbEntity
  8
0
100
AcDbVertex
100
AcDb3dPolylineVertex
 10
-5.878419876098632
 20
29.98564529418946
 30
50.90279388427735
 70
    32
  0
VERTEX
  5
1AB
330
17C
100
AcDbEntity
  8
0
100
AcDbVertex
100
AcDb3dPolylineVertex
 10
-5.789901733398437
 20
29.82465171813965
 30
50.81352996826172
 70
    32
  0
VERTEX
  5
1AC
330
17C
100
AcDbEntity
  8
0
100
AcDbVertex
100
AcDb3dPolylineVertex
 10
-5.696117401123046
 20
29.66997146606445
 30
50.71903991699219
 70
    32
  0
VERTEX
  5
1AD
330
17C
100
AcDbEntity
  8
0
100
AcDbVertex
100
AcDb3dPolylineVertex
 10
-5.597253799438476
 20
29.5218677520752
 30
50.61949539184571
 70
    32
  0
VERTEX
  5
1AE
330
17C
100
AcDbEntity
  8
0
100
AcDbVertex
100
AcDb3dPolylineVertex
 10
-5.493501663208007
 20
29.38061141967774
 30
50.51509094238281
 70
    32
  0
VERTEX
  5
1AF
330
17C
100
AcDbEntity
  8
0
100
AcDbVertex
100
AcDb3dPolylineVertex
 10
-5.385047912597656
 20
29.24647521972656
 30
50.40602493286133
 70
    32
  0
VERTEX
  5
1B0
330
17C
100
AcDbEntity
  8
0
100
AcDbVertex
100
AcDb3dPolylineVertex
 10
-5.272079467773437
 20
29.11972045898437
 30
50.29247665405273
 70
    32
  0
VERTEX
  5
1B1
330
17C
100
AcDbEntity
  8
0
100
AcDbVertex
100
AcDb3dPolylineVertex
 10
-5.154788970947265
 20
29.00062561035156
 30
50.17463684082031
 70
    32
  0
VERTEX
  5
1B2
330
17C
100
AcDbEntity
  8
0
100
AcDbVertex
100
AcDb3dPolylineVertex
 10
-5.033361434936523
 20
28.88945388793946
 30
50.05270385742187
 70
    32
  0
VERTEX
  5
1B3
330
17C
100
AcDbEntity
  8
0
100
AcDbVertex
100
AcDb3dPolylineVertex
 10
-4.907985687255859
 20
28.78647232055664
 30
49.9268569946289
 70
    32
  0
VERTEX
  5
1B4
330
17C
100
AcDbEntity
  8
0
100
AcDbVertex
100
AcDb3dPolylineVertex
 10
-4.778850555419921
 20
28.69195556640625
 30
49.79728698730468
 70
    32
  0
VERTEX
  5
1B5
330
17C
100
AcDbEntity
  8
0
100
AcDbVertex
100
AcDb3dPolylineVertex
 10
-4.646146774291992
 20
28.60617065429688
 30
49.66419219970703
 70
    32
  0
VERTEX
  5
1B6
330
17C
100
AcDbEntity
  8
0
100
AcDbVertex
100
AcDb3dPolylineVertex
 10
-4.510059356689453
 20
28.52938652038574
 30
49.52775192260742
 70
    32
  0
VERTEX
  5
1B7
330
17C
100
AcDbEntity
  8
0
100
AcDbVertex
100
AcDb3dPolylineVertex
 10
-4.370777130126953
 20
28.46187019348145
 30
49.3881607055664
 70
    32
  0
VERTEX
  5
1B8
330
17C
100
AcDbEntity
  8
0
100
AcDbVertex
100
AcDb3dPolylineVertex
 10
-4.22848892211914
 20
28.40389442443848
 30
49.24561309814453
 70
    32
  0
VERTEX
  5
1B9
330
17C
100
AcDbEntity
  8
0
100
AcDbVertex
100
AcDb3dPolylineVertex
 10
-4.083385467529296
 20
28.3557243347168
 30
49.10028839111328
 70
    32
  0
VERTEX
  5
1BA
330
17C
100
AcDbEntity
  8
0
100
AcDbVertex
100
AcDb3dPolylineVertex
 10
-3.935649871826171
 20
28.3176326751709
 30
48.9523811340332
 70
    32
  0
VERTEX
  5
1BB
330
17C
100
AcDbEntity
  8
0
100
AcDbVertex
100
AcDb3dPolylineVertex
 10
-3.785478591918945
 20
28.28988647460938
 30
48.80208587646484
 70
    32
  0
VERTEX
  5
1BC
330
17C
100
AcDbEntity
  8
0
100
AcDbVertex
100
AcDb3dPolylineVertex
 10
-3.633052825927734
 20
28.27275466918946
 30
48.64958190917969
 70
    32
  0
VERTEX
  5
1BD
330
17C
100
AcDbEntity
  8
0
100
AcDbVertex
100
AcDb3dPolylineVertex
 10
-3.47856330871582
 20
28.26650619506836
 30
48.49506759643555
 70
    32
  0
VERTEX
  5
1BE
330
17C
100
AcDbEntity
  8
0
100
AcDbVertex
100
AcDb3dPolylineVertex
 10
-3.32402229309082
 20
28.27132987976074
 30
48.3405532836914
 70
    32
  0
VERTEX
  5
1BF
330
17C
100
AcDbEntity
  8
0
100
AcDbVertex
100
AcDb3dPolylineVertex
 10
-3.171445846557617
 20
28.28705596923828
 30
48.18805313110352
 70
    32
  0
VERTEX
  5
1C0
330
17C
100
AcDbEntity
  8
0
100
AcDbVertex
100
AcDb3dPolylineVertex
 10
-3.021022796630859
 20
28.31341934204102
 30
48.03775405883789
 70
    32
  0
VERTEX
  5
1C1
330
17C
100
AcDbEntity
  8
0
100
AcDbVertex
100
AcDb3dPolylineVertex
 10
-2.87294578552246
 20
28.35015106201172
 30
47.88984680175781
 70
    32
  0
VERTEX
  5
1C2
330
17C
100
AcDbEntity
  8
0
100
AcDbVertex
100
AcDb3dPolylineVertex
 10
-2.72740364074707
 20
28.39698028564453
 30
47.74452209472656
 70
    32
  0
VERTEX
  5
1C3
330
17C
100
AcDbEntity
  8
0
100
AcDbVertex
100
AcDb3dPolylineVertex
 10
-2.584589004516601
 20
28.45364379882813
 30
47.60197448730468
 70
    32
  0
VERTEX
  5
1C4
330
17C
100
AcDbEntity
  8
0
100
AcDbVertex
100
AcDb3dPolylineVertex
 10
-2.444690704345703
 20
28.51987457275391
 30
47.46238327026367
 70
    32
  0
VERTEX
  5
1C5
330
17C
100
AcDbEntity
  8
0
100
AcDbVertex
100
AcDb3dPolylineVertex
 10
-2.307901382446289
 20
28.59540176391602
 30
47.32594299316406
 70
    32
  0
VERTEX
  5
1C6
330
17C
100
AcDbEntity
  8
0
100
AcDbVertex
100
AcDb3dPolylineVertex
 10
-2.17441177368164
 20
28.67996025085449
 30
47.1928482055664
 70
    32
  0
VERTEX
  5
1C7
330
17C
100
AcDbEntity
  8
0
100
AcDbVertex
100
AcDb3dPolylineVertex
 10
-2.044412612915039
 20
28.77328491210938
 30
47.06327819824219
 70
    32
  0
VERTEX
  5
1C8
330
17C
100
AcDbEntity
  8
0
100
AcDbVertex
100
AcDb3dPolylineVertex
 10
-1.918094635009765
 20
28.87510681152344
 30
46.93743515014648
 70
    32
  0
VERTEX
  5
1C9
330
17C
100
AcDbEntity
  8
0
100
AcDbVertex
100
AcDb3dPolylineVertex
 10
-1.795648574829101
 20
28.98515510559082
 30
46.81549453735351
 70
    32
  0
VERTEX
  5
1CA
330
17C
100
AcDbEntity
  8
0
100
AcDbVertex
100
AcDb3dPolylineVertex
 10
-1.677265167236328
 20
29.1031665802002
 30
46.69765853881836
 70
    32
  0
VERTEX
  5
1CB
330
17C
100
AcDbEntity
  8
0
100
AcDbVertex
100
AcDb3dPolylineVertex
 10
-1.563133239746093
 20
29.22887420654297
 30
46.58411026000976
 70
    32
  0
VERTEX
  5
1CC
330
17C
100
AcDbEntity
  8
0
100
AcDbVertex
100
AcDb3dPolylineVertex
 10
-1.453449249267578
 20
29.36200714111328
 30
46.47504043579101
 70
    32
  0
VERTEX
  5
1CD
330
17C
100
AcDbEntity
  8
0
100
AcDbVertex
100
AcDb3dPolylineVertex
 10
-1.348400115966796
 20
29.50230026245117
 30
46.37063980102539
 70
    32
  0
VERTEX
  5
1CE
330
17C
100
AcDbEntity
  8
0
100
AcDbVertex
100
AcDb3dPolylineVertex
 10
-1.248176574707031
 20
29.64948654174805
 30
46.2710952758789
 70
    32
  0
VERTEX
  5
1CF
330
17C
100
AcDbEntity
  8
0
100
AcDbVertex
100
AcDb3dPolylineVertex
 10
-1.152973175048828
 20
29.80329704284668
 30
46.17660140991211
 70
    32
  0
VERTEX
  5
1D0
330
17C
100
AcDbEntity
  8
0
100
AcDbVertex
100
AcDb3dPolylineVertex
 10
-1.06297492980957
 20
29.96346664428711
 30
46.08734512329101
 70
    32
  0
VERTEX
  5
1D1
330
17C
100
AcDbEntity
  8
0
100
AcDbVertex
100
AcDb3dPolylineVertex
 10
-0.9783763885498046
 20
30.12972640991211
 30
46.00351333618164
 70
    32
  0
VERTEX
  5
1D2
330
17C
100
AcDbEntity
  8
0
100
AcDbVertex
100
AcDb3dPolylineVertex
 10
-0.8993682861328125
 20
30.30181121826172
 30
45.92530059814452
 70
    32
  0
VERTEX
  5
1D3
330
17C
100
AcDbEntity
  8
0
100
AcDbVertex
100
AcDb3dPolylineVertex
 10
-0.8261394500732421
 20
30.47945022583008
 30
45.85289001464843
 70
    32
  0
VERTEX
  5
1D4
330
17C
100
AcDbEntity
  8
0
100
AcDbVertex
100
AcDb3dPolylineVertex
 10
-0.7588834762573243
 20
30.66238021850586
 30
45.78647994995117
 70
    32
  0
VERTEX
  5
1D5
330
17C
100
AcDbEntity
  8
0
100
AcDbVertex
100
AcDb3dPolylineVertex
 10
-0.6977901458740235
 20
30.8503303527832
 30
45.72625350952148
 70
    32
  0
VERTEX
  5
1D6
330
17C
100
AcDbEntity
  8
0
100
AcDbVertex
100
AcDb3dPolylineVertex
 10
-0.6430511474609375
 20
31.04303359985352
 30
45.67240142822265
 70
    32
  0
VERTEX
  5
1D7
330
17C
100
AcDbEntity
  8
0
100
AcDbVertex
100
AcDb3dPolylineVertex
 10
-0.5948562622070313
 20
31.24022293090821
 30
45.62511444091796
 70
    32
  0
VERTEX
  5
1D8
330
17C
100
AcDbEntity
  8
0
100
AcDbVertex
100
AcDb3dPolylineVertex
 10
-0.553396224975586
 20
31.44163513183594
 30
45.5845832824707
 70
    32
  0
VERTEX
  5
1D9
330
17C
100
AcDbEntity
  8
0
100
AcDbVertex
100
AcDb3dPolylineVertex
 10
-0.5188608169555664
 20
31.64699554443359
 30
45.55099487304687
 70
    32
  0
VERTEX
  5
1DA
330
17C
100
AcDbEntity
  8
0
100
AcDbVertex
100
AcDb3dPolylineVertex
 10
-0.4914436340332032
 20
31.85604476928711
 30
45.52454376220703
 70
    32
  0
VERTEX
  5
1DB
330
17C
100
AcDbEntity
  8
0
100
AcDbVertex
100
AcDb3dPolylineVertex
 10
-0.471334457397461
 20
32.06850814819336
 30
45.50540924072265
 70
    32
  0
VERTEX
  5
1DC
330
17C
100
AcDbEntity
  8
0
100
AcDbVertex
100
AcDb3dPolylineVertex
 10
-0.4587240219116211
 20
32.28412246704102
 30
45.49379348754882
 70
    32
  0
VERTEX
  5
1DD
330
17C
100
AcDbEntity
  8
0
100
AcDbVertex
100
AcDb3dPolylineVertex
 10
-0.4538030624389649
 20
32.50262069702149
 30
45.4898796081543
 70
    32
  0
VERTEX
  5
1DE
330
17C
100
AcDbEntity
  8
0
100
AcDbVertex
100
AcDb3dPolylineVertex
 10
-0.4567108154296875
 20
32.72115325927734
 30
45.49379348754882
 70
    32
  0
VERTEX
  5
1DF
330
17C
100
AcDbEntity
  8
0
100
AcDbVertex
100
AcDb3dPolylineVertex
 10
-0.4673357009887696
 20
32.93687438964844
 30
45.50541305541992
 70
    32
  0
VERTEX
  5
1E0
330
17C
100
AcDbEntity
  8
0
100
AcDbVertex
100
AcDb3dPolylineVertex
 10
-0.4854850769042969
 20
33.14951324462891
 30
45.52454376220703
 70
    32
  0
VERTEX
  5
1E1
330
17C
100
AcDbEntity
  8
0
100
AcDbVertex
100
AcDb3dPolylineVertex
 10
-0.510976791381836
 20
33.35880661010742
 30
45.55099487304687
 70
    32
  0
VERTEX
  5
1E2
330
17C
100
AcDbEntity
  8
0
100
AcDbVertex
100
AcDb3dPolylineVertex
 10
-0.5436182022094727
 20
33.56447982788086
 30
45.5845832824707
 70
    32
  0
VERTEX
  5
1E3
330
17C
100
AcDbEntity
  8
0
100
AcDbVertex
100
AcDb3dPolylineVertex
 10
-0.5832223892211914
 20
33.76626586914063
 30
45.62511444091796
 70
    32
  0
VERTEX
  5
1E4
330
17C
100
AcDbEntity
  8
0
100
AcDbVertex
100
AcDb3dPolylineVertex
 10
-0.6295995712280274
 20
33.96389007568359
 30
45.67240142822265
 70
    32
  0
VERTEX
  5
1E5
330
17C
100
AcDbEntity
  8
0
100
AcDbVertex
100
AcDb3dPolylineVertex
 10
-0.6825609207153321
 20
34.15708923339844
 30
45.72625350952148
 70
    32
  0
VERTEX
  5
1E6
330
17C
100
AcDbEntity
  8
0
100
AcDbVertex
100
AcDb3dPolylineVertex
 10
-0.7419195175170899
 20
34.3455924987793
 30
45.78647994995117
 70
    32
  0
VERTEX
  5
1E7
330
17C
100
AcDbEntity
  8
0
100
AcDbVertex
100
AcDb3dPolylineVertex
 10
-0.8074903488159179
 20
34.52913284301758
 30
45.85289001464843
 70
    32
  0
VERTEX
  5
1E8
330
17C
100
AcDbEntity
  8
0
100
AcDbVertex
100
AcDb3dPolylineVertex
 10
-0.8790779113769531
 20
34.70744323730469
 30
45.92530059814452
 70
    32
  0
VERTEX
  5
1E9
330
17C
100
AcDbEntity
  8
0
100
AcDbVertex
100
AcDb3dPolylineVertex
 10
-0.9564990997314453
 20
34.88024139404297
 30
46.00351333618164
 70
    32
  0
VERTEX
  5
1EA
330
17C
100
AcDbEntity
  8
0
100
AcDbVertex
100
AcDb3dPolylineVertex
 10
-1.039560317993164
 20
35.04727554321289
 30
46.08734512329101
 70
    32
  0
VERTEX
  5
1EB
330
17C
100
AcDbEntity
  8
0
100
AcDbVertex
100
AcDb3dPolylineVertex
 10
-1.128080368041992
 20
35.20826721191407
 30
46.17660140991211
 70
    32
  0
VERTEX
  5
1EC
330
17C
100
AcDbEntity
  8
0
100
AcDbVertex
100
AcDb3dPolylineVertex
 10
-1.221864700317382
 20
35.36295318603516
 30
46.2710952758789
 70
    32
  0
VERTEX
  5
1ED
330
17C
100
AcDbEntity
  8
0
100
AcDbVertex
100
AcDb3dPolylineVertex
 10
-1.320728302001953
 20
35.51105499267578
 30
46.37063980102539
 70
    32
  0
VERTEX
  5
1EE
330
17C
100
AcDbEntity
  8
0
100
AcDbVertex
100
AcDb3dPolylineVertex
 10
-1.424480438232421
 20
35.65230560302734
 30
46.47504043579101
 70
    32
  0
VERTEX
  5
1EF
330
17C
100
AcDbEntity
  8
0
100
AcDbVertex
100
AcDb3dPolylineVertex
 10
-1.532934188842773
 20
35.78644561767578
 30
46.58411026000976
 70
    32
  0
VERTEX
  5
1F0
330
17C
100
AcDbEntity
  8
0
100
AcDbVertex
100
AcDb3dPolylineVertex
 10
-1.645900726318359
 20
35.9131965637207
 30
46.69765853881836
 70
    32
  0
VERTEX
  5
1F1
330
17C
100
AcDbEntity
  8
0
100
AcDbVertex
100
AcDb3dPolylineVertex
 10
-1.763193130493164
 20
36.03229522705078
 30
46.81549835205077
 70
    32
  0
VERTEX
  5
1F2
330
17C
100
AcDbEntity
  8
0
100
AcDbVertex
100
AcDb3dPolylineVertex
 10
-1.884620666503906
 20
36.14346694946289
 30
46.93743133544922
 70
    32
  0
VERTEX
  5
1F3
330
17C
100
AcDbEntity
  8
0
100
AcDbVertex
100
AcDb3dPolylineVertex
 10
-2.009994506835937
 20
36.2464485168457
 30
47.06327819824219
 70
    32
  0
VERTEX
  5
1F4
330
17C
100
AcDbEntity
  8
0
100
AcDbVertex
100
AcDb3dPolylineVertex
 10
-2.139129638671875
 20
36.3409652709961
 30
47.1928482055664
 70
    32
  0
VERTEX
  5
1F5
330
17C
100
AcDbEntity
  8
0
100
AcDbVertex
100
AcDb3dPolylineVertex
 10
-2.271835327148437
 20
36.42675018310547
 30
47.32594299316406
 70
    32
  0
VERTEX
  5
1F6
330
17C
100
AcDbEntity
  8
0
100
AcDbVertex
100
AcDb3dPolylineVertex
 10
-2.407922744750976
 20
36.50353622436524
 30
47.46238327026367
 70
    32
  0
VERTEX
  5
1F7
330
17C
100
AcDbEntity
  8
0
100
AcDbVertex
100
AcDb3dPolylineVertex
 10
-2.547204971313476
 20
36.57104873657227
 30
47.60197448730468
 70
    32
  0
VERTEX
  5
1F8
330
17C
100
AcDbEntity
  8
0
100
AcDbVertex
100
AcDb3dPolylineVertex
 10
-2.689491271972656
 20
36.6290283203125
 30
47.74452209472656
 70
    32
  0
VERTEX
  5
1F9
330
17C
100
AcDbEntity
  8
0
100
AcDbVertex
100
AcDb3dPolylineVertex
 10
-2.834596633911132
 20
36.67719650268555
 30
47.88984680175781
 70
    32
  0
VERTEX
  5
1FA
330
17C
100
AcDbEntity
  8
0
100
AcDbVertex
100
AcDb3dPolylineVertex
 10
-2.982330322265625
 20
36.71528625488281
 30
48.03775405883789
 70
    32
  0
VERTEX
  5
1FB
330
17C
100
AcDbEntity
  8
0
100
AcDbVertex
100
AcDb3dPolylineVertex
 10
-3.132503509521484
 20
36.74303436279297
 30
48.18804931640625
 70
    32
  0
VERTEX
  5
1FC
330
17C
100
AcDbEntity
  8
0
100
AcDbVertex
100
AcDb3dPolylineVertex
 10
-3.284929275512695
 20
36.76016616821289
 30
48.3405532836914
 70
    32
  0
SEQEND
  5
300
330
17C
100
AcDbEntity
  8
0
  0
POLYLINE
  5
1FD
330
1F
100
AcDbEntity
  8
0
100
AcDb3dPolyline
 66
     1
 10
0.0
 20
0.0
 30
0.0
 70
     9
  0
VERTEX
  5
1FE
330
1FD
100
AcDbEntity
  8
0
100
AcDbVertex
100
AcDb3dPolylineVertex
 10
-6.566768646240234
 20
-0.5563621520996094
 30
68.73832702636718
 70
    32
  0
VERTEX
  5
1FF
330
1FD
100
AcDbEntity
  8
0
100
AcDbVertex
100
AcDb3dPolylineVertex
 10
-6.562854766845703
 20
-0.5602769851684571
 30
68.95684814453125
 70
    32
  0
VERTEX
  5
200
330
1FD
100
AcDbEntity
  8
0
100
AcDbVertex
100
AcDb3dPolylineVertex
 10
-6.551239013671875
 20
-0.5718927383422852
 30
69.17251586914062
 70
    32
  0
VERTEX
  5
201
330
1FD
100
AcDbEntity
  8
0
100
AcDbVertex
100
AcDb3dPolylineVertex
 10
-6.532106399536132
 20
-0.5910253524780274
 30
69.38507080078125
 70
    32
  0
VERTEX
  5
202
330
1FD
100
AcDbEntity
  8
0
100
AcDbVertex
100
AcDb3dPolylineVertex
 10
-6.505651473999023
 20
-0.6174783706665039
 30
69.59423828125
 70
    32
  0
VERTEX
  5
203
330
1FD
100
AcDbEntity
  8
0
100
AcDbVertex
100
AcDb3dPolylineVertex
 10
-6.472063064575195
 20
-0.6510677337646485
 30
69.79975891113281
 70
    32
  0
VERTEX
  5
204
330
1FD
100
AcDbEntity
  8
0
100
AcDbVertex
100
AcDb3dPolylineVertex
 10
-6.431531906127929
 20
-0.6916007995605469
 30
70.00135803222656
 70
    32
  0
VERTEX
  5
205
330
1FD
100
AcDbEntity
  8
0
100
AcDbVertex
100
AcDb3dPolylineVertex
 10
-6.384246826171875
 20
-0.7388849258422852
 30
70.19876861572265
 70
    32
  0
VERTEX
  5
206
330
1FD
100
AcDbEntity
  8
0
100
AcDbVertex
100
AcDb3dPolylineVertex
 10
-6.330392837524414
 20
-0.7927360534667969
 30
70.3917236328125
 70
    32
  0
VERTEX
  5
207
330
1FD
100
AcDbEntity
  8
0
100
AcDbVertex
100
AcDb3dPolylineVertex
 10
-6.270166397094726
 20
-0.8529634475708007
 30
70.5799560546875
 70
    32
  0
VERTEX
  5
208
330
1FD
100
AcDbEntity
  8
0
100
AcDbVertex
100
AcDb3dPolylineVertex
 10
-6.203754425048828
 20
-0.9193763732910156
 30
70.76319122314453
 70
    32
  0
VERTEX
  5
209
330
1FD
100
AcDbEntity
  8
0
100
AcDbVertex
100
AcDb3dPolylineVertex
 10
-6.131345748901367
 20
-0.9917831420898437
 30
70.941162109375
 70
    32
  0
VERTEX
  5
20A
330
1FD
100
AcDbEntity
  8
0
100
AcDbVertex
100
AcDb3dPolylineVertex
 10
-6.053131103515625
 20
-1.069999694824218
 30
71.11360931396484
 70
    32
  0
VERTEX
  5
20B
330
1FD
100
AcDbEntity
  8
0
100
AcDbVertex
100
AcDb3dPolylineVertex
 10
-5.969301223754882
 20
-1.153831481933593
 30
71.28025817871094
 70
    32
  0
VERTEX
  5
20C
330
1FD
100
AcDbEntity
  8
0
100
AcDbVertex
100
AcDb3dPolylineVertex
 10
-5.880041122436523
 20
-1.243087768554687
 30
71.44084167480468
 70
    32
  0
VERTEX
  5
20D
330
1FD
100
AcDbEntity
  8
0
100
AcDbVertex
100
AcDb3dPolylineVertex
 10
-5.785545349121093
 20
-1.337583541870117
 30
71.5950927734375
 70
    32
  0
VERTEX
  5
20E
330
1FD
100
AcDbEntity
  8
0
100
AcDbVertex
100
AcDb3dPolylineVertex
 10
-5.686002731323242
 20
-1.437128067016601
 30
71.74273681640625
 70
    32
  0
VERTEX
  5
20F
330
1FD
100
AcDbEntity
  8
0
100
AcDbVertex
100
AcDb3dPolylineVertex
 10
-5.581600189208984
 20
-1.541528701782226
 30
71.88351440429688
 70
    32
  0
VERTEX
  5
210
330
1FD
100
AcDbEntity
  8
0
100
AcDbVertex
100
AcDb3dPolylineVertex
 10
-5.4725341796875
 20
-1.650600433349609
 30
72.01715087890625
 70
    32
  0
VERTEX
  5
211
330
1FD
100
AcDbEntity
  8
0
100
AcDbVertex
100
AcDb3dPolylineVertex
 10
-5.358980178833007
 20
-1.76414680480957
 30
72.14337921142578
 70
    32
  0
VERTEX
  5
212
330
1FD
100
AcDbEntity
  8
0
100
AcDbVertex
100
AcDb3dPolylineVertex
 10
-5.241144180297851
 20
-1.881986618041992
 30
72.26193237304688
 70
    32
  0
VERTEX
  5
213
330
1FD
100
AcDbEntity
  8
0
100
AcDbVertex
100
AcDb3dPolylineVertex
 10
-5.119207382202148
 20
-2.003923416137695
 30
72.37254333496093
 70
    32
  0
VERTEX
  5
214
330
1FD
100
AcDbEntity
  8
0
100
AcDbVertex
100
AcDb3dPolylineVertex
 10
-4.993358612060546
 20
-2.129772186279296
 30
72.47494506835938
 70
    32
  0
VERTEX
  5
215
330
1FD
100
AcDbEntity
  8
0
100
AcDbVertex
100
AcDb3dPolylineVertex
 10
-4.863792419433593
 20
-2.25933837890625
 30
72.56887054443359
 70
    32
  0
VERTEX
  5
216
330
1FD
100
AcDbEntity
  8
0
100
AcDbVertex
100
AcDb3dPolylineVertex
 10
-4.730693817138671
 20
-2.392436981201171
 30
72.65404510498047
 70
    32
  0
VERTEX
  5
217
330
1FD
100
AcDbEntity
  8
0
100
AcDbVertex
100
AcDb3dPolylineVertex
 10
-4.594255447387695
 20
-2.528875350952148
 30
72.7302017211914
 70
    32
  0
VERTEX
  5
218
330
1FD
100
AcDbEntity
  8
0
100
AcDbVertex
100
AcDb3dPolylineVertex
 10
-4.454664230346679
 20
-2.668466567993164
 30
72.79707336425781
 70
    32
  0
VERTEX
  5
219
330
1FD
100
AcDbEntity
  8
0
100
AcDbVertex
100
AcDb3dPolylineVertex
 10
-4.312110900878906
 20
-2.811017990112304
 30
72.8543930053711
 70
    32
  0
VERTEX
  5
21A
330
1FD
100
AcDbEntity
  8
0
100
AcDbVertex
100
AcDb3dPolylineVertex
 10
-4.166790008544921
 20
-2.956342697143554
 30
72.90189361572266
 70
    32
  0
VERTEX
  5
21B
330
1FD
100
AcDbEntity
  8
0
100
AcDbVertex
100
AcDb3dPolylineVertex
 10
-4.018882751464843
 20
-3.104248046875
 30
72.93930816650391
 70
    32
  0
VERTEX
  5
21C
330
1FD
100
AcDbEntity
  8
0
100
AcDbVertex
100
AcDb3dPolylineVertex
 10
-3.868583679199218
 20
-3.254547119140625
 30
72.96636199951172
 70
    32
  0
VERTEX
  5
21D
330
1FD
100
AcDbEntity
  8
0
100
AcDbVertex
100
AcDb3dPolylineVertex
 10
-3.716081619262695
 20
-3.407051086425781
 30
72.9827880859375
 70
    32
  0
VERTEX
  5
21E
330
1FD
100
AcDbEntity
  8
0
100
AcDbVertex
100
AcDb3dPolylineVertex
 10
-3.561565399169921
 20
-3.561565399169921
 30
72.98832702636719
 70
    32
  0
VERTEX
  5
21F
330
1FD
100
AcDbEntity
  8
0
100
AcDbVertex
100
AcDb3dPolylineVertex
 10
-3.407049179077148
 20
-3.716083526611328
 30
72.98279571533203
 70
    32
  0
VERTEX
  5
220
330
1FD
100
AcDbEntity
  8
0
100
AcDbVertex
100
AcDb3dPolylineVertex
 10
-3.254549026489257
 20
-3.868583679199218
 30
72.96636962890625
 70
    32
  0
VERTEX
  5
221
330
1FD
100
AcDbEntity
  8
0
100
AcDbVertex
100
AcDb3dPolylineVertex
 10
-3.104246139526367
 20
-4.01888084411621
 30
72.93930816650391
 70
    32
  0
VERTEX
  5
222
330
1FD
100
AcDbEntity
  8
0
100
AcDbVertex
100
AcDb3dPolylineVertex
 10
-2.956340789794921
 20
-4.166788101196289
 30
72.90189361572266
 70
    32
  0
VERTEX
  5
223
330
1FD
100
AcDbEntity
  8
0
100
AcDbVertex
100
AcDb3dPolylineVertex
 10
-2.811016082763671
 20
-4.312112808227539
 30
72.85440063476563
 70
    32
  0
VERTEX
  5
224
330
1FD
100
AcDbEntity
  8
0
100
AcDbVertex
100
AcDb3dPolylineVertex
 10
-2.668464660644531
 20
-4.454666137695312
 30
72.79707336425781
 70
    32
  0
VERTEX
  5
225
330
1FD
100
AcDbEntity
  8
0
100
AcDbVertex
100
AcDb3dPolylineVertex
 10
-2.528877258300781
 20
-4.594253540039062
 30
72.73019409179688
 70
    32
  0
VERTEX
  5
226
330
1FD
100
AcDbEntity
  8
0
100
AcDbVertex
100
AcDb3dPolylineVertex
 10
-2.392435073852539
 20
-4.730695724487304
 30
72.65404510498047
 70
    32
  0
VERTEX
  5
227
330
1FD
100
AcDbEntity
  8
0
100
AcDbVertex
100
AcDb3dPolylineVertex
 10
-2.25933837890625
 20
-4.863794326782226
 30
72.56887054443359
 70
    32
  0
VERTEX
  5
228
330
1FD
100
AcDbEntity
  8
0
100
AcDbVertex
100
AcDb3dPolylineVertex
 10
-2.129770278930664
 20
-4.993360519409179
 30
72.47494506835938
 70
    32
  0
VERTEX
  5
229
330
1FD
100
AcDbEntity
  8
0
100
AcDbVertex
100
AcDb3dPolylineVertex
 10
-2.003923416137695
 20
-5.119207382202148
 30
72.37254333496093
 70
    32
  0
VERTEX
  5
22A
330
1FD
100
AcDbEntity
  8
0
100
AcDbVertex
100
AcDb3dPolylineVertex
 10
-1.881986618041992
 20
-5.241146087646484
 30
72.26193237304688
 70
    32
  0
VERTEX
  5
22B
330
1FD
100
AcDbEntity
  8
0
100
AcDbVertex
100
AcDb3dPolylineVertex
 10
-1.764148712158203
 20
-5.35898208618164
 30
72.14337921142578
 70
    32
  0
VERTEX
  5
22C
330
1FD
100
AcDbEntity
  8
0
100
AcDbVertex
100
AcDb3dPolylineVertex
 10
-1.650600433349609
 20
-5.472532272338867
 30
72.01715087890625
 70
    32
  0
VERTEX
  5
22D
330
1FD
100
AcDbEntity
  8
0
100
AcDbVertex
100
AcDb3dPolylineVertex
 10
-1.541530609130859
 20
-5.58160400390625
 30
71.88351440429688
 70
    32
  0
VERTEX
  5
22E
330
1FD
100
AcDbEntity
  8
0
100
AcDbVertex
100
AcDb3dPolylineVertex
 10
-1.437128067016601
 20
-5.686002731323242
 30
71.74273681640625
 70
    32
  0
VERTEX
  5
22F
330
1FD
100
AcDbEntity
  8
0
100
AcDbVertex
100
AcDb3dPolylineVertex
 10
-1.337583541870117
 20
-5.785547256469726
 30
71.5950927734375
 70
    32
  0
VERTEX
  5
230
330
1FD
100
AcDbEntity
  8
0
100
AcDbVertex
100
AcDb3dPolylineVertex
 10
-1.243087768554687
 20
-5.880043029785156
 30
71.44084167480468
 70
    32
  0
VERTEX
  5
231
330
1FD
100
AcDbEntity
  8
0
100
AcDbVertex
100
AcDb3dPolylineVertex
 10
-1.15382957458496
 20
-5.96929931640625
 30
71.28025817871094
 70
    32
  0
VERTEX
  5
232
330
1FD
100
AcDbEntity
  8
0
100
AcDbVertex
100
AcDb3dPolylineVertex
 10
-1.069999694824218
 20
-6.053131103515625
 30
71.11360931396484
 70
    32
  0
VERTEX
  5
233
330
1FD
100
AcDbEntity
  8
0
100
AcDbVertex
100
AcDb3dPolylineVertex
 10
-0.9917850494384765
 20
-6.131345748901367
 30
70.941162109375
 70
    32
  0
VERTEX
  5
234
330
1FD
100
AcDbEntity
  8
0
100
AcDbVertex
100
AcDb3dPolylineVertex
 10
-0.9193763732910156
 20
-6.203754425048828
 30
70.76319122314453
 70
    32
  0
VERTEX
  5
235
330
1FD
100
AcDbEntity
  8
0
100
AcDbVertex
100
AcDb3dPolylineVertex
 10
-0.8529634475708007
 20
-6.270168304443359
 30
70.5799560546875
 70
    32
  0
VERTEX
  5
236
330
1FD
100
AcDbEntity
  8
0
100
AcDbVertex
100
AcDb3dPolylineVertex
 10
-0.7927379608154297
 20
-6.330394744873046
 30
70.3917236328125
 70
    32
  0
VERTEX
  5
237
330
1FD
100
AcDbEntity
  8
0
100
AcDbVertex
100
AcDb3dPolylineVertex
 10
-0.7388858795166016
 20
-6.384246826171875
 30
70.19877624511718
 70
    32
  0
VERTEX
  5
238
330
1FD
100
AcDbEntity
  8
0
100
AcDbVertex
100
AcDb3dPolylineVertex
 10
-0.6915988922119141
 20
-6.431531906127929
 30
70.00135803222656
 70
    32
  0
VERTEX
  5
239
330
1FD
100
AcDbEntity
  8
0
100
AcDbVertex
100
AcDb3dPolylineVertex
 10
-0.6510658264160157
 20
-6.472064971923828
 30
69.79975891113281
 70
    32
  0
VERTEX
  5
23A
330
1FD
100
AcDbEntity
  8
0
100
AcDbVertex
100
AcDb3dPolylineVertex
 10
-0.6174783706665039
 20
-6.505653381347656
 30
69.59423828125
 70
    32
  0
VERTEX
  5
23B
330
1FD
100
AcDbEntity
  8
0
100
AcDbVertex
100
AcDb3dPolylineVertex
 10
-0.591024398803711
 20
-6.532106399536132
 30
69.38507080078125
 70
    32
  0
VERTEX
  5
23C
330
1FD
100
AcDbEntity
  8
0
100
AcDbVertex
100
AcDb3dPolylineVertex
 10
-0.5718936920166016
 20
-6.551237106323242
 30
69.17251586914062
 70
    32
  0
VERTEX
  5
23D
330
1FD
100
AcDbEntity
  8
0
100
AcDbVertex
100
AcDb3dPolylineVertex
 10
-0.5602760314941407
 20
-6.562854766845703
 30
68.95684814453125
 70
    32
  0
VERTEX
  5
23E
330
1FD
100
AcDbEntity
  8
0
100
AcDbVertex
100
AcDb3dPolylineVertex
 10
-0.5563621520996094
 20
-6.566768646240234
 30
68.73832702636718
 70
    32
  0
VERTEX
  5
23F
330
1FD
100
AcDbEntity
  8
0
100
AcDbVertex
100
AcDb3dPolylineVertex
 10
-0.5602769851684571
 20
-6.562854766845703
 30
68.51981353759765
 70
    32
  0
VERTEX
  5
240
330
1FD
100
AcDbEntity
  8
0
100
AcDbVertex
100
AcDb3dPolylineVertex
 10
-0.5718927383422852
 20
-6.551239013671875
 30
68.30413818359375
 70
    32
  0
VERTEX
  5
241
330
1FD
100
AcDbEntity
  8
0
100
AcDbVertex
100
AcDb3dPolylineVertex
 10
-0.5910253524780274
 20
-6.532106399536132
 30
68.09158325195312
 70
    32
  0
VERTEX
  5
242
330
1FD
100
AcDbEntity
  8
0
100
AcDbVertex
100
AcDb3dPolylineVertex
 10
-0.6174783706665039
 20
-6.505651473999023
 30
67.88240814208984
 70
    32
  0
VERTEX
  5
243
330
1FD
100
AcDbEntity
  8
0
100
AcDbVertex
100
AcDb3dPolylineVertex
 10
-0.6510677337646485
 20
-6.472063064575195
 30
67.67689514160156
 70
    32
  0
VERTEX
  5
244
330
1FD
100
AcDbEntity
  8
0
100
AcDbVertex
100
AcDb3dPolylineVertex
 10
-0.6916007995605469
 20
-6.431531906127929
 30
67.47529602050781
 70
    32
  0
VERTEX
  5
245
330
1FD
100
AcDbEntity
  8
0
100
AcDbVertex
100
AcDb3dPolylineVertex
 10
-0.7388849258422852
 20
-6.384246826171875
 30
67.27788543701172
 70
    32
  0
VERTEX
  5
246
330
1FD
100
AcDbEntity
  8
0
100
AcDbVertex
100
AcDb3dPolylineVertex
 10
-0.7927360534667969
 20
-6.330392837524414
 30
67.08493041992188
 70
    32
  0
VERTEX
  5
247
330
1FD
100
AcDbEntity
  8
0
100
AcDbVertex
100
AcDb3dPolylineVertex
 10
-0.8529634475708007
 20
-6.270166397094726
 30
66.89669799804687
 70
    32
  0
VERTEX
  5
248
330
1FD
100
AcDbEntity
  8
0
100
AcDbVertex
100
AcDb3dPolylineVertex
 10
-0.9193763732910156
 20
-6.203754425048828
 30
66.71346282958984
 70
    32
  0
VERTEX
  5
249
330
1FD
100
AcDbEntity
  8
0
100
AcDbVertex
100
AcDb3dPolylineVertex
 10
-0.9917831420898437
 20
-6.131345748901367
 30
66.53549194335937
 70
    32
  0
VERTEX
  5
24A
330
1FD
100
AcDbEntity
  8
0
100
AcDbVertex
100
AcDb3dPolylineVertex
 10
-1.069999694824218
 20
-6.053131103515625
 30
66.36304473876953
 70
    32
  0
VERTEX
  5
24B
330
1FD
100
AcDbEntity
  8
0
100
AcDbVertex
100
AcDb3dPolylineVertex
 10
-1.153831481933593
 20
-5.969301223754882
 30
66.19639587402343
 70
    32
  0
VERTEX
  5
24C
330
1FD
100
AcDbEntity
  8
0
100
AcDbVertex
100
AcDb3dPolylineVertex
 10
-1.243087768554687
 20
-5.880041122436523
 30
66.03581237792969
 70
    32
  0
VERTEX
  5
24D
330
1FD
100
AcDbEntity
  8
0
100
AcDbVertex
100
AcDb3dPolylineVertex
 10
-1.337583541870117
 20
-5.785545349121093
 30
65.88156127929687
 70
    32
  0
VERTEX
  5
24E
330
1FD
100
AcDbEntity
  8
0
100
AcDbVertex
100
AcDb3dPolylineVertex
 10
-1.437128067016601
 20
-5.686002731323242
 30
65.73391723632813
 70
    32
  0
VERTEX
  5
24F
330
1FD
100
AcDbEntity
  8
0
100
AcDbVertex
100
AcDb3dPolylineVertex
 10
-1.541528701782226
 20
-5.581600189208984
 30
65.5931396484375
 70
    32
  0
VERTEX
  5
250
330
1FD
100
AcDbEntity
  8
0
100
AcDbVertex
100
AcDb3dPolylineVertex
 10
-1.650600433349609
 20
-5.4725341796875
 30
65.45950317382812
 70
    32
  0
VERTEX
  5
251
330
1FD
100
AcDbEntity
  8
0
100
AcDbVertex
100
AcDb3dPolylineVertex
 10
-1.76414680480957
 20
-5.358980178833007
 30
65.33327484130859
 70
    32
  0
VERTEX
  5
252
330
1FD
100
AcDbEntity
  8
0
100
AcDbVertex
100
AcDb3dPolylineVertex
 10
-1.881986618041992
 20
-5.241144180297851
 30
65.2147216796875
 70
    32
  0
VERTEX
  5
253
330
1FD
100
AcDbEntity
  8
0
100
AcDbVertex
100
AcDb3dPolylineVertex
 10
-2.003923416137695
 20
-5.119207382202148
 30
65.1041030883789
 70
    32
  0
VERTEX
  5
254
330
1FD
100
AcDbEntity
  8
0
100
AcDbVertex
100
AcDb3dPolylineVertex
 10
-2.129772186279296
 20
-4.993358612060546
 30
65.001708984375
 70
    32
  0
VERTEX
  5
255
330
1FD
100
AcDbEntity
  8
0
100
AcDbVertex
100
AcDb3dPolylineVertex
 10
-2.25933837890625
 20
-4.863792419433593
 30
64.90778350830078
 70
    32
  0
VERTEX
  5
256
330
1FD
100
AcDbEntity
  8
0
100
AcDbVertex
100
AcDb3dPolylineVertex
 10
-2.392436981201171
 20
-4.730693817138671
 30
64.8226089477539
 70
    32
  0
VERTEX
  5
257
330
1FD
100
AcDbEntity
  8
0
100
AcDbVertex
100
AcDb3dPolylineVertex
 10
-2.528875350952148
 20
-4.594255447387695
 30
64.74645233154297
 70
    32
  0
VERTEX
  5
258
330
1FD
100
AcDbEntity
  8
0
100
AcDbVertex
100
AcDb3dPolylineVertex
 10
-2.668466567993164
 20
-4.454664230346679
 30
64.67958068847656
 70
    32
  0
VERTEX
  5
259
330
1FD
100
AcDbEntity
  8
0
100
AcDbVertex
100
AcDb3dPolylineVertex
 10
-2.811017990112304
 20
-4.312110900878906
 30
64.62226104736328
 70
    32
  0
VERTEX
  5
25A
330
1FD
100
AcDbEntity
  8
0
100
AcDbVertex
100
AcDb3dPolylineVertex
 10
-2.956342697143554
 20
-4.166790008544921
 30
64.57476043701172
 70
    32
  0
VERTEX
  5
25B
330
1FD
100
AcDbEntity
  8
0
100
AcDbVertex
100
AcDb3dPolylineVertex
 10
-3.104248046875
 20
-4.018882751464843
 30
64.53734588623047
 70
    32
  0
VERTEX
  5
25C
330
1FD
100
AcDbEntity
  8
0
100
AcDbVertex
100
AcDb3dPolylineVertex
 10
-3.254547119140625
 20
-3.868583679199218
 30
64.51029205322265
 70
    32
  0
VERTEX
  5
25D
330
1FD
100
AcDbEntity
  8
0
100
AcDbVertex
100
AcDb3dPolylineVertex
 10
-3.407051086425781
 20
-3.716081619262695
 30
64.49386596679687
 70
    32
  0
VERTEX
  5
25E
330
1FD
100
AcDbEntity
  8
0
100
AcDbVertex
100
AcDb3dPolylineVertex
 10
-3.561565399169921
 20
-3.561565399169921
 30
64.48832702636718
 70
    32
  0
VERTEX
  5
25F
330
1FD
100
AcDbEntity
  8
0
100
AcDbVertex
100
AcDb3dPolylineVertex
 10
-3.716083526611328
 20
-3.407049179077148
 30
64.49386596679687
 70
    32
  0
VERTEX
  5
260
330
1FD
100
AcDbEntity
  8
0
100
AcDbVertex
100
AcDb3dPolylineVertex
 10
-3.868583679199218
 20
-3.254549026489257
 30
64.51029205322265
 70
    32
  0
VERTEX
  5
261
330
1FD
100
AcDbEntity
  8
0
100
AcDbVertex
100
AcDb3dPolylineVertex
 10
-4.01888084411621
 20
-3.104246139526367
 30
64.53734588623047
 70
    32
  0
VERTEX
  5
262
330
1FD
100
AcDbEntity
  8
0
100
AcDbVertex
100
AcDb3dPolylineVertex
 10
-4.166788101196289
 20
-2.956340789794921
 30
64.57475280761719
 70
    32
  0
VERTEX
  5
263
330
1FD
100
AcDbEntity
  8
0
100
AcDbVertex
100
AcDb3dPolylineVertex
 10
-4.312112808227539
 20
-2.811016082763671
 30
64.62226104736328
 70
    32
  0
VERTEX
  5
264
330
1FD
100
AcDbEntity
  8
0
100
AcDbVertex
100
AcDb3dPolylineVertex
 10
-4.454666137695312
 20
-2.668464660644531
 30
64.67958068847656
 70
    32
  0
VERTEX
  5
265
330
1FD
100
AcDbEntity
  8
0
100
AcDbVertex
100
AcDb3dPolylineVertex
 10
-4.594253540039062
 20
-2.528877258300781
 30
64.74645233154297
 70
    32
  0
VERTEX
  5
266
330
1FD
100
AcDbEntity
  8
0
100
AcDbVertex
100
AcDb3dPolylineVertex
 10
-4.730695724487304
 20
-2.392435073852539
 30
64.8226089477539
 70
    32
  0
VERTEX
  5
267
330
1FD
100
AcDbEntity
  8
0
100
AcDbVertex
100
AcDb3dPolylineVertex
 10
-4.863794326782226
 20
-2.25933837890625
 30
64.90778350830078
 70
    32
  0
VERTEX
  5
268
330
1FD
100
AcDbEntity
  8
0
100
AcDbVertex
100
AcDb3dPolylineVertex
 10
-4.993360519409179
 20
-2.129770278930664
 30
65.001708984375
 70
    32
  0
VERTEX
  5
269
330
1FD
100
AcDbEntity
  8
0
100
AcDbVertex
100
AcDb3dPolylineVertex
 10
-5.119207382202148
 20
-2.003923416137695
 30
65.1041030883789
 70
    32
  0
VERTEX
  5
26A
330
1FD
100
AcDbEntity
  8
0
100
AcDbVertex
100
AcDb3dPolylineVertex
 10
-5.241146087646484
 20
-1.881986618041992
 30
65.2147216796875
 70
    32
  0
VERTEX
  5
26B
330
1FD
100
AcDbEntity
  8
0
100
AcDbVertex
100
AcDb3dPolylineVertex
 10
-5.35898208618164
 20
-1.764148712158203
 30
65.33327484130859
 70
    32
  0
VERTEX
  5
26C
330
1FD
100
AcDbEntity
  8
0
100
AcDbVertex
100
AcDb3dPolylineVertex
 10
-5.472532272338867
 20
-1.650600433349609
 30
65.45950317382812
 70
    32
  0
VERTEX
  5
26D
330
1FD
100
AcDbEntity
  8
0
100
AcDbVertex
100
AcDb3dPolylineVertex
 10
-5.58160400390625
 20
-1.541530609130859
 30
65.5931396484375
 70
    32
  0
VERTEX
  5
26E
330
1FD
100
AcDbEntity
  8
0
100
AcDbVertex
100
AcDb3dPolylineVertex
 10
-5.686002731323242
 20
-1.437128067016601
 30
65.73391723632813
 70
    32
  0
VERTEX
  5
26F
330
1FD
100
AcDbEntity
  8
0
100
AcDbVertex
100
AcDb3dPolylineVertex
 10
-5.785547256469726
 20
-1.337583541870117
 30
65.88156127929687
 70
    32
  0
VERTEX
  5
270
330
1FD
100
AcDbEntity
  8
0
100
AcDbVertex
100
AcDb3dPolylineVertex
 10
-5.880043029785156
 20
-1.243087768554687
 30
66.03581237792969
 70
    32
  0
VERTEX
  5
271
330
1FD
100
AcDbEntity
  8
0
100
AcDbVertex
100
AcDb3dPolylineVertex
 10
-5.96929931640625
 20
-1.15382957458496
 30
66.19639587402343
 70
    32
  0
VERTEX
  5
272
330
1FD
100
AcDbEntity
  8
0
100
AcDbVertex
100
AcDb3dPolylineVertex
 10
-6.053131103515625
 20
-1.069999694824218
 30
66.36304473876953
 70
    32
  0
VERTEX
  5
273
330
1FD
100
AcDbEntity
  8
0
100
AcDbVertex
100
AcDb3dPolylineVertex
 10
-6.131345748901367
 20
-0.9917850494384765
 30
66.53548431396484
 70
    32
  0
VERTEX
  5
274
330
1FD
100
AcDbEntity
  8
0
100
AcDbVertex
100
AcDb3dPolylineVertex
 10
-6.203754425048828
 20
-0.9193763732910156
 30
66.71346282958984
 70
    32
  0
VERTEX
  5
275
330
1FD
100
AcDbEntity
  8
0
100
AcDbVertex
100
AcDb3dPolylineVertex
 10
-6.270168304443359
 20
-0.8529634475708007
 30
66.89669799804687
 70
    32
  0
VERTEX
  5
276
330
1FD
100
AcDbEntity
  8
0
100
AcDbVertex
100
AcDb3dPolylineVertex
 10
-6.330394744873046
 20
-0.7927379608154297
 30
67.08493041992188
 70
    32
  0
VERTEX
  5
277
330
1FD
100
AcDbEntity
  8
0
100
AcDbVertex
100
AcDb3dPolylineVertex
 10
-6.384246826171875
 20
-0.7388858795166016
 30
67.27787780761719
 70
    32
  0
VERTEX
  5
278
330
1FD
100
AcDbEntity
  8
0
100
AcDbVertex
100
AcDb3dPolylineVertex
 10
-6.431531906127929
 20
-0.6915988922119141
 30
67.47529602050781
 70
    32
  0
VERTEX
  5
279
330
1FD
100
AcDbEntity
  8
0
100
AcDbVertex
100
AcDb3dPolylineVertex
 10
-6.472064971923828
 20
-0.6510658264160157
 30
67.67689514160156
 70
    32
  0
VERTEX
  5
27A
330
1FD
100
AcDbEntity
  8
0
100
AcDbVertex
100
AcDb3dPolylineVertex
 10
-6.505653381347656
 20
-0.6174783706665039
 30
67.88241577148437
 70
    32
  0
VERTEX
  5
27B
330
1FD
100
AcDbEntity
  8
0
100
AcDbVertex
100
AcDb3dPolylineVertex
 10
-6.532106399536132
 20
-0.591024398803711
 30
68.09158325195312
 70
    32
  0
VERTEX
  5
27C
330
1FD
100
AcDbEntity
  8
0
100
AcDbVertex
100
AcDb3dPolylineVertex
 10
-6.551237106323242
 20
-0.5718936920166016
 30
68.30413818359375
 70
    32
  0
VERTEX
  5
27D
330
1FD
100
AcDbEntity
  8
0
100
AcDbVertex
100
AcDb3dPolylineVertex
 10
-6.562854766845703
 20
-0.5602760314941407
 30
68.51980590820312
 70
    32
  0
SEQEND
  5
301
330
1FD
100
AcDbEntity
  8
0
  0
POLYLINE
  5
27E
330
1F
100
AcDbEntity
  8
0
100
AcDb3dPolyline
 66
     1
 10
0.0
 20
0.0
 30
0.0
 70
     9
  0
VERTEX
  5
27F
330
27E
100
AcDbEntity
  8
0
100
AcDbVertex
100
AcDb3dPolylineVertex
 10
18.39213562011719
 20
14.14213562011719
 30
3.0
 70
    32
  0
VERTEX
  5
280
330
27E
100
AcDbEntity
  8
0
100
AcDbVertex
100
AcDb3dPolylineVertex
 10
18.38659858703613
 20
14.3606538772583
 30
2.999996185302734
 70
    32
  0
VERTEX
  5
281
330
27E
100
AcDbEntity
  8
0
100
AcDbVertex
100
AcDb3dPolylineVertex
 10
18.37017059326172
 20
14.57632446289062
 30
2.999996185302734
 70
    32
  0
VERTEX
  5
282
330
27E
100
AcDbEntity
  8
0
100
AcDbVertex
100
AcDb3dPolylineVertex
 10
18.34311485290527
 20
14.78887939453125
 30
3.0
 70
    32
  0
VERTEX
  5
283
330
27E
100
AcDbEntity
  8
0
100
AcDbVertex
100
AcDb3dPolylineVertex
 10
18.30570411682129
 20
14.99805068969726
 30
3.000003814697265
 70
    32
  0
VERTEX
  5
284
330
27E
100
AcDbEntity
  8
0
100
AcDbVertex
100
AcDb3dPolylineVertex
 10
18.25820350646973
 20
15.20356941223144
 30
3.0
 70
    32
  0
VERTEX
  5
285
330
27E
100
AcDbEntity
  8
0
100
AcDbVertex
100
AcDb3dPolylineVertex
 10
18.20088195800781
 20
15.40516853332519
 30
3.0
 70
    32
  0
VERTEX
  5
286
330
27E
100
AcDbEntity
  8
0
100
AcDbVertex
100
AcDb3dPolylineVertex
 10
18.13400840759277
 20
15.60257911682129
 30
3.000003814697265
 70
    32
  0
VERTEX
  5
287
330
27E
100
AcDbEntity
  8
0
100
AcDbVertex
100
AcDb3dPolylineVertex
 10
18.05785179138183
 20
15.79553318023681
 30
3.0
 70
    32
  0
VERTEX
  5
288
330
27E
100
AcDbEntity
  8
0
100
AcDbVertex
100
AcDb3dPolylineVertex
 10
17.97267723083496
 20
15.98376274108886
 30
3.0
 70
    32
  0
VERTEX
  5
289
330
27E
100
AcDbEntity
  8
0
100
AcDbVertex
100
AcDb3dPolylineVertex
 10
17.87875747680664
 20
16.16699981689453
 30
3.0
 70
    32
  0
VERTEX
  5
28A
330
27E
100
AcDbEntity
  8
0
100
AcDbVertex
100
AcDb3dPolylineVertex
 10
17.7763557434082
 20
16.34497451782226
 30
2.999996185302734
 70
    32
  0
VERTEX
  5
28B
330
27E
100
AcDbEntity
  8
0
100
AcDbVertex
100
AcDb3dPolylineVertex
 10
17.66574287414551
 20
16.51741981506347
 30
3.0
 70
    32
  0
VERTEX
  5
28C
330
27E
100
AcDbEntity
  8
0
100
AcDbVertex
100
AcDb3dPolylineVertex
 10
17.54718780517578
 20
16.68406867980957
 30
3.0
 70
    32
  0
VERTEX
  5
28D
330
27E
100
AcDbEntity
  8
0
100
AcDbVertex
100
AcDb3dPolylineVertex
 10
17.42095756530761
 20
16.84465026855469
 30
3.0
 70
    32
  0
VERTEX
  5
28E
330
27E
100
AcDbEntity
  8
0
100
AcDbVertex
100
AcDb3dPolylineVertex
 10
17.28732109069824
 20
16.99889755249023
 30
3.000003814697265
 70
    32
  0
VERTEX
  5
28F
330
27E
100
AcDbEntity
  8
0
100
AcDbVertex
100
AcDb3dPolylineVertex
 10
17.14654541015625
 20
17.14654541015625
 30
3.0
 70
    32
  0
VERTEX
  5
290
330
27E
100
AcDbEntity
  8
0
100
AcDbVertex
100
AcDb3dPolylineVertex
 10
16.99889755249023
 20
17.28732109069824
 30
3.0
 70
    32
  0
VERTEX
  5
291
330
27E
100
AcDbEntity
  8
0
100
AcDbVertex
100
AcDb3dPolylineVertex
 10
16.84465026855469
 20
17.42095756530761
 30
3.0
 70
    32
  0
VERTEX
  5
292
330
27E
100
AcDbEntity
  8
0
100
AcDbVertex
100
AcDb3dPolylineVertex
 10
16.68406867980957
 20
17.54718780517578
 30
3.0
 70
    32
  0
VERTEX
  5
293
330
27E
100
AcDbEntity
  8
0
100
AcDbVertex
100
AcDb3dPolylineVertex
 10
16.51741981506347
 20
17.66574287414551
 30
3.0
 70
    32
  0
VERTEX
  5
294
330
27E
100
AcDbEntity
  8
0
100
AcDbVertex
100
AcDb3dPolylineVertex
 10
16.34497451782226
 20
17.7763557434082
 30
3.0
 70
    32
  0
VERTEX
  5
295
330
27E
100
AcDbEntity
  8
0
100
AcDbVertex
100
AcDb3dPolylineVertex
 10
16.16699981689453
 20
17.87875747680664
 30
3.0
 70
    32
  0
VERTEX
  5
296
330
27E
100
AcDbEntity
  8
0
100
AcDbVertex
100
AcDb3dPolylineVertex
 10
15.98376274108886
 20
17.97267723083496
 30
3.0
 70
    32
  0
VERTEX
  5
297
330
27E
100
AcDbEntity
  8
0
100
AcDbVertex
100
AcDb3dPolylineVertex
 10
15.79553318023681
 20
18.05785179138183
 30
3.0
 70
    32
  0
VERTEX
  5
298
330
27E
100
AcDbEntity
  8
0
100
AcDbVertex
100
AcDb3dPolylineVertex
 10
15.60257911682129
 20
18.13400840759277
 30
3.0
 70
    32
  0
VERTEX
  5
299
330
27E
100
AcDbEntity
  8
0
100
AcDbVertex
100
AcDb3dPolylineVertex
 10
15.40516853332519
 20
18.20088195800781
 30
3.0
 70
    32
  0
VERTEX
  5
29A
330
27E
100
AcDbEntity
  8
0
100
AcDbVertex
100
AcDb3dPolylineVertex
 10
15.20356941223144
 20
18.25820350646973
 30
3.0
 70
    32
  0
VERTEX
  5
29B
330
27E
100
AcDbEntity
  8
0
100
AcDbVertex
100
AcDb3dPolylineVertex
 10
14.99805068969726
 20
18.30570411682129
 30
3.0
 70
    32
  0
VERTEX
  5
29C
330
27E
100
AcDbEntity
  8
0
100
AcDbVertex
100
AcDb3dPolylineVertex
 10
14.78887939453125
 20
18.34311485290527
 30
3.0
 70
    32
  0
VERTEX
  5
29D
330
27E
100
AcDbEntity
  8
0
100
AcDbVertex
100
AcDb3dPolylineVertex
 10
14.57632446289062
 20
18.37017059326172
 30
3.0
 70
    32
  0
VERTEX
  5
29E
330
27E
100
AcDbEntity
  8
0
100
AcDbVertex
100
AcDb3dPolylineVertex
 10
14.3606538772583
 20
18.38660049438476
 30
3.0
 70
    32
  0
VERTEX
  5
29F
330
27E
100
AcDbEntity
  8
0
100
AcDbVertex
100
AcDb3dPolylineVertex
 10
14.14213562011719
 20
18.39213562011719
 30
3.0
 70
    32
  0
VERTEX
  5
2A0
330
27E
100
AcDbEntity
  8
0
100
AcDbVertex
100
AcDb3dPolylineVertex
 10
13.92361736297607
 20
18.38659858703613
 30
2.999996185302734
 70
    32
  0
VERTEX
  5
2A1
330
27E
100
AcDbEntity
  8
0
100
AcDbVertex
100
AcDb3dPolylineVertex
 10
13.70794677734375
 20
18.37017059326172
 30
2.999996185302734
 70
    32
  0
VERTEX
  5
2A2
330
27E
100
AcDbEntity
  8
0
100
AcDbVertex
100
AcDb3dPolylineVertex
 10
13.49539184570312
 20
18.34311485290527
 30
3.0
 70
    32
  0
VERTEX
  5
2A3
330
27E
100
AcDbEntity
  8
0
100
AcDbVertex
100
AcDb3dPolylineVertex
 10
13.28622055053711
 20
18.30570411682129
 30
3.000003814697265
 70
    32
  0
VERTEX
  5
2A4
330
27E
100
AcDbEntity
  8
0
100
AcDbVertex
100
AcDb3dPolylineVertex
 10
13.08070182800293
 20
18.25820350646973
 30
3.0
 70
    32
  0
VERTEX
  5
2A5
330
27E
100
AcDbEntity
  8
0
100
AcDbVertex
100
AcDb3dPolylineVertex
 10
12.87910270690918
 20
18.20088195800781
 30
3.0
 70
    32
  0
VERTEX
  5
2A6
330
27E
100
AcDbEntity
  8
0
100
AcDbVertex
100
AcDb3dPolylineVertex
 10
12.68169212341308
 20
18.13400840759277
 30
3.000003814697265
 70
    32
  0
VERTEX
  5
2A7
330
27E
100
AcDbEntity
  8
0
100
AcDbVertex
100
AcDb3dPolylineVertex
 10
12.48873710632324
 20
18.05785179138183
 30
3.0
 70
    32
  0
VERTEX
  5
2A8
330
27E
100
AcDbEntity
  8
0
100
AcDbVertex
100
AcDb3dPolylineVertex
 10
12.30050849914551
 20
17.97267723083496
 30
3.0
 70
    32
  0
VERTEX
  5
2A9
330
27E
100
AcDbEntity
  8
0
100
AcDbVertex
100
AcDb3dPolylineVertex
 10
12.11727142333984
 20
17.87875747680664
 30
3.0
 70
    32
  0
VERTEX
  5
2AA
330
27E
100
AcDbEntity
  8
0
100
AcDbVertex
100
AcDb3dPolylineVertex
 10
11.93929672241211
 20
17.7763557434082
 30
2.999996185302734
 70
    32
  0
VERTEX
  5
2AB
330
27E
100
AcDbEntity
  8
0
100
AcDbVertex
100
AcDb3dPolylineVertex
 10
11.7668514251709
 20
17.66574287414551
 30
3.0
 70
    32
  0
VERTEX
  5
2AC
330
27E
100
AcDbEntity
  8
0
100
AcDbVertex
100
AcDb3dPolylineVertex
 10
11.6002025604248
 20
17.54718780517578
 30
3.0
 70
    32
  0
VERTEX
  5
2AD
330
27E
100
AcDbEntity
  8
0
100
AcDbVertex
100
AcDb3dPolylineVertex
 10
11.43962097167968
 20
17.42095756530761
 30
3.0
 70
    32
  0
VERTEX
  5
2AE
330
27E
100
AcDbEntity
  8
0
100
AcDbVertex
100
AcDb3dPolylineVertex
 10
11.28537178039551
 20
17.28732109069824
 30
3.000003814697265
 70
    32
  0
VERTEX
  5
2AF
330
27E
100
AcDbEntity
  8
0
100
AcDbVertex
100
AcDb3dPolylineVertex
 10
11.13772583007812
 20
17.14654541015625
 30
3.0
 70
    32
  0
VERTEX
  5
2B0
330
27E
100
AcDbEntity
  8
0
100
AcDbVertex
100
AcDb3dPolylineVertex
 10
10.99695014953613
 20
16.99889755249023
 30
3.0
 70
    32
  0
VERTEX
  5
2B1
330
27E
100
AcDbEntity
  8
0
100
AcDbVertex
100
AcDb3dPolylineVertex
 10
10.86331367492675
 20
16.84465026855469
 30
3.0
 70
    32
  0
VERTEX
  5
2B2
330
27E
100
AcDbEntity
  8
0
100
AcDbVertex
100
AcDb3dPolylineVertex
 10
10.73708343505859
 20
16.68406867980957
 30
3.0
 70
    32
  0
VERTEX
  5
2B3
330
27E
100
AcDbEntity
  8
0
100
AcDbVertex
100
AcDb3dPolylineVertex
 10
10.61852741241455
 20
16.51741981506347
 30
3.0
 70
    32
  0
VERTEX
  5
2B4
330
27E
100
AcDbEntity
  8
0
100
AcDbVertex
100
AcDb3dPolylineVertex
 10
10.50791549682617
 20
16.34497451782226
 30
3.0
 70
    32
  0
VERTEX
  5
2B5
330
27E
100
AcDbEntity
  8
0
100
AcDbVertex
100
AcDb3dPolylineVertex
 10
10.40551376342773
 20
16.16699981689453
 30
3.0
 70
    32
  0
VERTEX
  5
2B6
330
27E
100
AcDbEntity
  8
0
100
AcDbVertex
100
AcDb3dPolylineVertex
 10
10.3115930557251
 20
15.98376274108886
 30
3.0
 70
    32
  0
VERTEX
  5
2B7
330
27E
100
AcDbEntity
  8
0
100
AcDbVertex
100
AcDb3dPolylineVertex
 10
10.22641944885254
 20
15.79553318023681
 30
3.0
 70
    32
  0
VERTEX
  5
2B8
330
27E
100
AcDbEntity
  8
0
100
AcDbVertex
100
AcDb3dPolylineVertex
 10
10.15026187896728
 20
15.60257911682129
 30
3.0
 70
    32
  0
VERTEX
  5
2B9
330
27E
100
AcDbEntity
  8
0
100
AcDbVertex
100
AcDb3dPolylineVertex
 10
10.08338832855224
 20
15.40516853332519
 30
3.0
 70
    32
  0
VERTEX
  5
2BA
330
27E
100
AcDbEntity
  8
0
100
AcDbVertex
100
AcDb3dPolylineVertex
 10
10.02606773376465
 20
15.20356941223144
 30
3.0
 70
    32
  0
VERTEX
  5
2BB
330
27E
100
AcDbEntity
  8
0
100
AcDbVertex
100
AcDb3dPolylineVertex
 10
9.978567123413085
 20
14.99805068969726
 30
3.0
 70
    32
  0
VERTEX
  5
2BC
330
27E
100
AcDbEntity
  8
0
100
AcDbVertex
100
AcDb3dPolylineVertex
 10
9.941156387329101
 20
14.78887939453125
 30
3.0
 70
    32
  0
VERTEX
  5
2BD
330
27E
100
AcDbEntity
  8
0
100
AcDbVertex
100
AcDb3dPolylineVertex
 10
9.914100646972656
 20
14.57632446289062
 30
3.0
 70
    32
  0
VERTEX
  5
2BE
330
27E
100
AcDbEntity
  8
0
100
AcDbVertex
100
AcDb3dPolylineVertex
 10
9.897671699523925
 20
14.3606538772583
 30
3.0
 70
    32
  0
VERTEX
  5
2BF
330
27E
100
AcDbEntity
  8
0
100
AcDbVertex
100
AcDb3dPolylineVertex
 10
9.892135620117187
 20
14.14213562011719
 30
3.0
 70
    32
  0
VERTEX
  5
2C0
330
27E
100
AcDbEntity
  8
0
100
AcDbVertex
100
AcDb3dPolylineVertex
 10
9.897672653198242
 20
13.92361736297607
 30
2.999996185302734
 70
    32
  0
VERTEX
  5
2C1
330
27E
100
AcDbEntity
  8
0
100
AcDbVertex
100
AcDb3dPolylineVertex
 10
9.914101600646972
 20
13.70794677734375
 30
2.999996185302734
 70
    32
  0
VERTEX
  5
2C2
330
27E
100
AcDbEntity
  8
0
100
AcDbVertex
100
AcDb3dPolylineVertex
 10
9.941156387329101
 20
13.49539184570312
 30
3.0
 70
    32
  0
VERTEX
  5
2C3
330
27E
100
AcDbEntity
  8
0
100
AcDbVertex
100
AcDb3dPolylineVertex
 10
9.978567123413085
 20
13.28622055053711
 30
3.000003814697265
 70
    32
  0
VERTEX
  5
2C4
330
27E
100
AcDbEntity
  8
0
100
AcDbVertex
100
AcDb3dPolylineVertex
 10
10.02606773376465
 20
13.08070182800293
 30
3.0
 70
    32
  0
VERTEX
  5
2C5
330
27E
100
AcDbEntity
  8
0
100
AcDbVertex
100
AcDb3dPolylineVertex
 10
10.08338928222656
 20
12.87910270690918
 30
3.0
 70
    32
  0
VERTEX
  5
2C6
330
27E
100
AcDbEntity
  8
0
100
AcDbVertex
100
AcDb3dPolylineVertex
 10
10.1502628326416
 20
12.68169212341308
 30
3.000003814697265
 70
    32
  0
VERTEX
  5
2C7
330
27E
100
AcDbEntity
  8
0
100
AcDbVertex
100
AcDb3dPolylineVertex
 10
10.22641944885254
 20
12.48873710632324
 30
3.0
 70
    32
  0
VERTEX
  5
2C8
330
27E
100
AcDbEntity
  8
0
100
AcDbVertex
100
AcDb3dPolylineVertex
 10
10.3115930557251
 20
12.30050849914551
 30
3.0
 70
    32
  0
VERTEX
  5
2C9
330
27E
100
AcDbEntity
  8
0
100
AcDbVertex
100
AcDb3dPolylineVertex
 10
10.40551471710205
 20
12.11727142333984
 30
3.0
 70
    32
  0
VERTEX
  5
2CA
330
27E
100
AcDbEntity
  8
0
100
AcDbVertex
100
AcDb3dPolylineVertex
 10
10.50791549682617
 20
11.93929672241211
 30
2.999996185302734
 70
    32
  0
VERTEX
  5
2CB
330
27E
100
AcDbEntity
  8
0
100
AcDbVertex
100
AcDb3dPolylineVertex
 10
10.61852741241455
 20
11.7668514251709
 30
3.0
 70
    32
  0
VERTEX
  5
2CC
330
27E
100
AcDbEntity
  8
0
100
AcDbVertex
100
AcDb3dPolylineVertex
 10
10.73708343505859
 20
11.6002025604248
 30
3.0
 70
    32
  0
VERTEX
  5
2CD
330
27E
100
AcDbEntity
  8
0
100
AcDbVertex
100
AcDb3dPolylineVertex
 10
10.86331367492675
 20
11.43962097167968
 30
3.0
 70
    32
  0
VERTEX
  5
2CE
330
27E
100
AcDbEntity
  8
0
100
AcDbVertex
100
AcDb3dPolylineVertex
 10
10.99695110321045
 20
11.28537178039551
 30
3.000003814697265
 70
    32
  0
VERTEX
  5
2CF
330
27E
100
AcDbEntity
  8
0
100
AcDbVertex
100
AcDb3dPolylineVertex
 10
11.13772678375244
 20
11.13772583007812
 30
3.0
 70
    32
  0
VERTEX
  5
2D0
330
27E
100
AcDbEntity
  8
0
100
AcDbVertex
100
AcDb3dPolylineVertex
 10
11.28537273406982
 20
10.99695014953613
 30
3.0
 70
    32
  0
VERTEX
  5
2D1
330
27E
100
AcDbEntity
  8
0
100
AcDbVertex
100
AcDb3dPolylineVertex
 10
11.43962097167968
 20
10.86331367492675
 30
3.0
 70
    32
  0
VERTEX
  5
2D2
330
27E
100
AcDbEntity
  8
0
100
AcDbVertex
100
AcDb3dPolylineVertex
 10
11.6002025604248
 20
10.73708343505859
 30
3.0
 70
    32
  0
VERTEX
  5
2D3
330
27E
100
AcDbEntity
  8
0
100
AcDbVertex
100
AcDb3dPolylineVertex
 10
11.7668514251709
 20
10.61852741241455
 30
3.0
 70
    32
  0
VERTEX
  5
2D4
330
27E
100
AcDbEntity
  8
0
100
AcDbVertex
100
AcDb3dPolylineVertex
 10
11.93929767608642
 20
10.50791549682617
 30
3.0
 70
    32
  0
VERTEX
  5
2D5
330
27E
100
AcDbEntity
  8
0
100
AcDbVertex
100
AcDb3dPolylineVertex
 10
12.11727237701416
 20
10.40551376342773
 30
3.0
 70
    32
  0
VERTEX
  5
2D6
330
27E
100
AcDbEntity
  8
0
100
AcDbVertex
100
AcDb3dPolylineVertex
 10
12.30050849914551
 20
10.3115930557251
 30
3.0
 70
    32
  0
VERTEX
  5
2D7
330
27E
100
AcDbEntity
  8
0
100
AcDbVertex
100
AcDb3dPolylineVertex
 10
12.48873805999756
 20
10.22641944885254
 30
3.0
 70
    32
  0
VERTEX
  5
2D8
330
27E
100
AcDbEntity
  8
0
100
AcDbVertex
100
AcDb3dPolylineVertex
 10
12.68169212341308
 20
10.15026187896728
 30
3.0
 70
    32
  0
VERTEX
  5
2D9
330
27E
100
AcDbEntity
  8
0
100
AcDbVertex
100
AcDb3dPolylineVertex
 10
12.87910270690918
 20
10.08338832855224
 30
3.0
 70
    32
  0
VERTEX
  5
2DA
330
27E
100
AcDbEntity
  8
0
100
AcDbVertex
100
AcDb3dPolylineVertex
 10
13.08070182800293
 20
10.02606773376465
 30
3.0
 70
    32
  0
VERTEX
  5
2DB
330
27E
100
AcDbEntity
  8
0
100
AcDbVertex
100
AcDb3dPolylineVertex
 10
13.28622055053711
 20
9.978567123413085
 30
3.0
 70
    32
  0
VERTEX
  5
2DC
330
27E
100
AcDbEntity
  8
0
100
AcDbVertex
100
AcDb3dPolylineVertex
 10
13.49539184570312
 20
9.941156387329101
 30
3.0
 70
    32
  0
VERTEX
  5
2DD
330
27E
100
AcDbEntity
  8
0
100
AcDbVertex
100
AcDb3dPolylineVertex
 10
13.70794677734375
 20
9.914100646972656
 30
3.0
 70
    32
  0
VERTEX
  5
2DE
330
27E
100
AcDbEntity
  8
0
100
AcDbVertex
100
AcDb3dPolylineVertex
 10
13.92361736297607
 20
9.897671699523925
 30
3.0
 70
    32
  0
VERTEX
  5
2DF
330
27E
100
AcDbEntity
  8
0
100
AcDbVertex
100
AcDb3dPolylineVertex
 10
14.14213562011719
 20
9.892135620117187
 30
3.0
 70
    32
  0
VERTEX
  5
2E0
330
27E
100
AcDbEntity
  8
0
100
AcDbVertex
100
AcDb3dPolylineVertex
 10
14.3606538772583
 20
9.897672653198242
 30
2.999996185302734
 70
    32
  0
VERTEX
  5
2E1
330
27E
100
AcDbEntity
  8
0
100
AcDbVertex
100
AcDb3dPolylineVertex
 10
14.57632446289062
 20
9.914101600646972
 30
2.999996185302734
 70
    32
  0
VERTEX
  5
2E2
330
27E
100
AcDbEntity
  8
0
100
AcDbVertex
100
AcDb3dPolylineVertex
 10
14.78887939453125
 20
9.941156387329101
 30
3.0
 70
    32
  0
VERTEX
  5
2E3
330
27E
100
AcDbEntity
  8
0
100
AcDbVertex
100
AcDb3dPolylineVertex
 10
14.99805068969726
 20
9.978567123413085
 30
3.000003814697265
 70
    32
  0
VERTEX
  5
2E4
330
27E
100
AcDbEntity
  8
0
100
AcDbVertex
100
AcDb3dPolylineVertex
 10
15.20356941223144
 20
10.02606773376465
 30
3.0
 70
    32
  0
VERTEX
  5
2E5
330
27E
100
AcDbEntity
  8
0
100
AcDbVertex
100
AcDb3dPolylineVertex
 10
15.40516853332519
 20
10.08338928222656
 30
3.0
 70
    32
  0
VERTEX
  5
2E6
330
27E
100
AcDbEntity
  8
0
100
AcDbVertex
100
AcDb3dPolylineVertex
 10
15.60257911682129
 20
10.1502628326416
 30
3.000003814697265
 70
    32
  0
VERTEX
  5
2E7
330
27E
100
AcDbEntity
  8
0
100
AcDbVertex
100
AcDb3dPolylineVertex
 10
15.79553318023681
 20
10.22641944885254
 30
3.0
 70
    32
  0
VERTEX
  5
2E8
330
27E
100
AcDbEntity
  8
0
100
AcDbVertex
100
AcDb3dPolylineVertex
 10
15.98376274108886
 20
10.3115930557251
 30
3.0
 70
    32
  0
VERTEX
  5
2E9
330
27E
100
AcDbEntity
  8
0
100
AcDbVertex
100
AcDb3dPolylineVertex
 10
16.16699981689453
 20
10.40551471710205
 30
3.0
 70
    32
  0
VERTEX
  5
2EA
330
27E
100
AcDbEntity
  8
0
100
AcDbVertex
100
AcDb3dPolylineVertex
 10
16.34497451782226
 20
10.50791549682617
 30
2.999996185302734
 70
    32
  0
VERTEX
  5
2EB
330
27E
100
AcDbEntity
  8
0
100
AcDbVertex
100
AcDb3dPolylineVertex
 10
16.51741981506347
 20
10.61852741241455
 30
3.0
 70
    32
  0
VERTEX
  5
2EC
330
27E
100
AcDbEntity
  8
0
100
AcDbVertex
100
AcDb3dPolylineVertex
 10
16.68406867980957
 20
10.73708343505859
 30
3.0
 70
    32
  0
VERTEX
  5
2ED
330
27E
100
AcDbEntity
  8
0
100
AcDbVertex
100
AcDb3dPolylineVertex
 10
16.84465026855469
 20
10.86331367492675
 30
3.0
 70
    32
  0
VERTEX
  5
2EE
330
27E
100
AcDbEntity
  8
0
100
AcDbVertex
100
AcDb3dPolylineVertex
 10
16.99889755249023
 20
10.99695110321045
 30
3.000003814697265
 70
    32
  0
VERTEX
  5
2EF
330
27E
100
AcDbEntity
  8
0
100
AcDbVertex
100
AcDb3dPolylineVertex
 10
17.14654541015625
 20
11.13772678375244
 30
3.0
 70
    32
  0
VERTEX
  5
2F0
330
27E
100
AcDbEntity
  8
0
100
AcDbVertex
100
AcDb3dPolylineVertex
 10
17.28732109069824
 20
11.28537273406982
 30
3.0
 70
    32
  0
VERTEX
  5
2F1
330
27E
100
AcDbEntity
  8
0
100
AcDbVertex
100
AcDb3dPolylineVertex
 10
17.42095756530761
 20
11.43962097167968
 30
3.0
 70
    32
  0
VERTEX
  5
2F2
330
27E
100
AcDbEntity
  8
0
100
AcDbVertex
100
AcDb3dPolylineVertex
 10
17.54718780517578
 20
11.6002025604248
 30
3.0
 70
    32
  0
VERTEX
  5
2F3
330
27E
100
AcDbEntity
  8
0
100
AcDbVertex
100
AcDb3dPolylineVertex
 10
17.66574287414551
 20
11.7668514251709
 30
3.0
 70
    32
  0
VERTEX
  5
2F4
330
27E
100
AcDbEntity
  8
0
100
AcDbVertex
100
AcDb3dPolylineVertex
 10
17.7763557434082
 20
11.93929767608642
 30
3.0
 70
    32
  0
VERTEX
  5
2F5
330
27E
100
AcDbEntity
  8
0
100
AcDbVertex
100
AcDb3dPolylineVertex
 10
17.87875747680664
 20
12.11727237701416
 30
3.0
 70
    32
  0
VERTEX
  5
2F6
330
27E
100
AcDbEntity
  8
0
100
AcDbVertex
100
AcDb3dPolylineVertex
 10
17.97267723083496
 20
12.30050849914551
 30
3.0
 70
    32
  0
VERTEX
  5
2F7
330
27E
100
AcDbEntity
  8
0
100
AcDbVertex
100
AcDb3dPolylineVertex
 10
18.05785179138183
 20
12.48873805999756
 30
3.0
 70
    32
  0
VERTEX
  5
2F8
330
27E
100
AcDbEntity
  8
0
100
AcDbVertex
100
AcDb3dPolylineVertex
 10
18.13400840759277
 20
12.68169212341308
 30
3.0
 70
    32
  0
VERTEX
  5
2F9
330
27E
100
AcDbEntity
  8
0
100
AcDbVertex
100
AcDb3dPolylineVertex
 10
18.20088195800781
 20
12.87910270690918
 30
3.0
 70
    32
  0
VERTEX
  5
2FA
330
27E
100
AcDbEntity
  8
0
100
AcDbVertex
100
AcDb3dPolylineVertex
 10
18.25820350646973
 20
13.08070182800293
 30
3.0
 70
    32
  0
VERTEX
  5
2FB
330
27E
100
AcDbEntity
  8
0
100
AcDbVertex
100
AcDb3dPolylineVertex
 10
18.30570411682129
 20
13.28622055053711
 30
3.0
 70
    32
  0
VERTEX
  5
2FC
330
27E
100
AcDbEntity
  8
0
100
AcDbVertex
100
AcDb3dPolylineVertex
 10
18.34311485290527
 20
13.49539184570312
 30
3.0
 70
    32
  0
VERTEX
  5
2FD
330
27E
100
AcDbEntity
  8
0
100
AcDbVertex
100
AcDb3dPolylineVertex
 10
18.37017059326172
 20
13.70794677734375
 30
3.0
 70
    32
  0
VERTEX
  5
2FE
330
27E
100
AcDbEntity
  8
0
100
AcDbVertex
100
AcDb3dPolylineVertex
 10
18.38660049438476
 20
13.92361736297607
 30
3.0
 70
    32
  0
SEQEND
  5
302
330
27E
100
AcDbEntity
  8
0
  0
ENDSEC
  0
SECTION
  2
OBJECTS
  0
DICTIONARY
  5
C
330
0
100
AcDbDictionary
281
     1
  3
ACAD_COLOR
350
DC
  3
ACAD_DETAILVIEWSTYLE
350
F5
  3
ACAD_GROUP
350
D
  3
ACAD_LAYOUT
350
1A
  3
ACAD_MATERIAL
350
AA
  3
ACAD_MLEADERSTYLE
350
F1
  3
ACAD_MLINESTYLE
350
17
  3
ACAD_PLOTSETTINGS
350
19
  3
ACAD_PLOTSTYLENAME
350
E
  3
ACAD_SCALELIST
350
DF
  3
ACAD_SECTIONVIEWSTYLE
350
F3
  3
ACAD_TABLESTYLE
350
DD
  3
ACAD_VISUALSTYLE
350
C3
  3
ACDB_RECOMPOSE_DATA
350
30F
  3
AcDbVariableDictionary
350
303
  0
DICTIONARY
  5
DC
102
{ACAD_REACTORS
330
C
102
}
330
C
100
AcDbDictionary
281
     1
  0
DICTIONARY
  5
F5
102
{ACAD_REACTORS
330
C
102
}
330
C
100
AcDbDictionary
281
     1
  3
Imperial24
350
F6
  0
DICTIONARY
  5
D
102
{ACAD_REACTORS
330
C
102
}
330
C
100
AcDbDictionary
281
     1
  0
DICTIONARY
  5
1A
102
{ACAD_REACTORS
330
C
102
}
330
C
100
AcDbDictionary
281
     1
  3
Layout1
350
1E
  3
Layout2
350
26
  3
Model
350
22
  0
DICTIONARY
  5
AA
102
{ACAD_REACTORS
330
C
102
}
330
C
100
AcDbDictionary
281
     1
  3
ByBlock
350
B3
  3
ByLayer
350
AB
  3
Global
350
BB
  0
DICTIONARY
  5
F1
102
{ACAD_REACTORS
330
C
102
}
330
C
100
AcDbDictionary
281
     1
  3
Standard
350
F2
  0
DICTIONARY
  5
17
102
{ACAD_REACTORS
330
C
102
}
330
C
100
AcDbDictionary
281
     1
  3
Standard
350
18
  0
DICTIONARY
  5
19
102
{ACAD_REACTORS
330
C
102
}
330
C
100
AcDbDictionary
281
     1
  0
ACDBDICTIONARYWDFLT
  5
E
102
{ACAD_REACTORS
330
C
102
}
330
C
100
AcDbDictionary
281
     1
  3
ByLayer
350
2D
  3
Normal
350
F
100
AcDbDictionaryWithDefault
340
F
  0
DICTIONARY
  5
DF
102
{ACAD_REACTORS
330
C
102
}
330
C
100
AcDbDictionary
281
     1
  3
A0
350
E0
  3
A1
350
E1
  3
A2
350
E2
  3
A3
350
E3
  3
A4
350
E4
  3
A5
350
E5
  3
A6
350
E6
  3
A7
350
E7
  3
A8
350
E8
  3
A9
350
E9
  3
B0
350
EA
  3
B1
350
EB
  3
B2
350
EC
  3
B3
350
ED
  3
B4
350
EE
  3
B5
350
EF
  3
B6
350
F0
  0
DICTIONARY
  5
F3
102
{ACAD_REACTORS
330
C
102
}
330
C
100
AcDbDictionary
281
     1
  3
Imperial24
350
F4
  0
DICTIONARY
  5
DD
102
{ACAD_REACTORS
330
C
102
}
330
C
100
AcDbDictionary
281
     1
  3
Standard
350
DE
  0
DICTIONARY
  5
C3
102
{ACAD_REACTORS
330
C
102
}
330
C
100
AcDbDictionary
281
     1
  3
2dWireframe
350
C9
  3
Basic
350
C8
  3
Brighten
350
CF
  3
ColorChange
350
D3
  3
Conceptual
350
CC
  3
Dim
350
CE
  3
EdgeColorOff
350
DB
  3
Facepattern
350
D2
  3
Flat
350
C4
  3
FlatWithEdges
350
C5
  3
Gouraud
350
C6
  3
GouraudWithEdges
350
C7
  3
Hidden
350
CB
  3
JitterOff
350
D9
  3
Linepattern
350
D1
  3
OverhangOff
350
DA
  3
Realistic
350
CD
  3
Shaded
350
D8
  3
Shaded with edges
350
D7
  3
Shades of Gray
350
D4
  3
Sketchy
350
D5
  3
Thicken
350
D0
  3
Wireframe
350
CA
  3
X-Ray
350
D6
  0
XRECORD
  5
30F
102
{ACAD_REACTORS
330
C
102
}
330
C
100
AcDbXrecord
280
     1
 90
        1
330
DE
  0
DICTIONARY
  5
303
102
{ACAD_REACTORS
330
C
102
}
330
C
100
AcDbDictionary
281
     1
  3
CANNOSCALE
350
309
  3
CMLEADERSTYLE
350
305
  3
CTABLESTYLE
350
304
  3
CVIEWDETAILSTYLE
350
306
  3
CVIEWSECTIONSTYLE
350
307
  3
LAYEREVAL
350
30B
  3
LAYERNOTIFY
350
30C
  3
LIGHTINGUNITS
350
30A
  3
MSLTSCALE
350
308
  0
ACDBDETAILVIEWSTYLE
  5
F6
102
{ACAD_XDICTIONARY
360
344
102
}
102
{ACAD_REACTORS
330
F5
102
}
330
F5
100
AcDbModelDocViewStyle
 70
     0
  3
Imperial24
290
     0
100
AcDbDetailViewStyle
 70
     0
 71
     0
 90
        3
 71
     1
340
11
 62
   256
 40
0.24
340
0
 62
   256
 40
0.24
300

 40
0.36
280
     3
 71
     2
340
16
 90
       25
 62
   256
 71
     3
340
11
 62
   256
 40
0.24
 90
        1
 40
0.75
 90
        1
300
%<\AcVar ViewType \f "%tc1">% %<\AcVar ViewDetailId>%\PSCALE %<\AcVar ViewScale \f "%sn">%
 71
     4
340
16
 90
       25
 62
   256
340
16
 90
       25
 62
   256
280
     0
  0
LAYOUT
  5
1E
102
{ACAD_REACTORS
330
1A
102
}
330
1A
100
AcDbPlotSettings
  1

  2
\\KTXNTBDC\CASF2PN1
  4

  6

 40
0.0
 41
0.0
 42
0.0
 43
0.0
 44
0.0
 45
0.0
 46
0.0
 47
0.0
 48
0.0
 49
0.0
140
0.0
141
0.0
142
1.0
143
1.0
 70
   688
 72
     0
 73
     0
 74
     5
  7

 75
    16
147
1.0
 76
     0
 77
     2
 78
   300
148
0.0
149
0.0
100
AcDbLayout
  1
Layout1
 70
     1
 71
     1
 10
0.0
 20
0.0
 11
12.0
 21
9.0
 12
0.0
 22
0.0
 32
0.0
 14
1.000000000000000E+20
 24
1.000000000000000E+20
 34
1.000000000000000E+20
 15
-1.000000000000000E+20
 25
-1.000000000000000E+20
 35
-1.000000000000000E+20
146
0.0
 13
0.0
 23
0.0
 33
0.0
 16
1.0
 26
0.0
 36
0.0
 17
0.0
 27
1.0
 37
0.0
 76
     0
330
1B
  0
LAYOUT
  5
26
102
{ACAD_REACTORS
330
1A
102
}
330
1A
100
AcDbPlotSettings
  1

  2
\\KTXNTBDC\CASF2PN1
  4

  6

 40
0.0
 41
0.0
 42
0.0
 43
0.0
 44
0.0
 45
0.0
 46
0.0
 47
0.0
 48
0.0
 49
0.0
140
0.0
141
0.0
142
1.0
143
1.0
 70
   688
 72
     0
 73
     0
 74
     5
  7

 75
    16
147
1.0
 76
     0
 77
     2
 78
   300
148
0.0
149
0.0
100
AcDbLayout
  1
Layout2
 70
     1
 71
     2
 10
0.0
 20
0.0
 11
12.0
 21
9.0
 12
0.0
 22
0.0
 32
0.0
 14
0.0
 24
0.0
 34
0.0
 15
0.0
 25
0.0
 35
0.0
146
0.0
 13
0.0
 23
0.0
 33
0.0
 16
1.0
 26
0.0
 36
0.0
 17
0.0
 27
1.0
 37
0.0
 76
     0
330
23
  0
LAYOUT
  5
22
102
{ACAD_REACTORS
330
1A
102
}
330
1A
100
AcDbPlotSettings
  1

  2
\\KTXNTBDC\CASF2PN1
  4

  6

 40
0.0
 41
0.0
 42
0.0
 43
0.0
 44
0.0
 45
0.0
 46
0.0
 47
0.0
 48
0.0
 49
0.0
140
0.0
141
0.0
142
1.0
143
1.0
 70
  1712
 72
     0
 73
     0
 74
     0
  7

 75
     0
147
1.0
 76
     0
 77
     2
 78
   300
148
0.0
149
0.0
100
AcDbLayout
  1
Model
 70
     1
 71
     0
 10
0.0
 20
0.0
 11
12.0
 21
9.0
 12
0.0
 22
0.0
 32
0.0
 14
0.0
 24
0.0
 34
0.0
 15
0.0
 25
0.0
 35
0.0
146
0.0
 13
0.0
 23
0.0
 33
0.0
 16
1.0
 26
0.0
 36
0.0
 17
0.0
 27
1.0
 37
0.0
 76
     0
330
1F
  0
MATERIAL
  5
B3
102
{ACAD_XDICTIONARY
360
B4
102
}
102
{ACAD_REACTORS
330
AA
102
}
330
AA
100
AcDbMaterial
  1
ByBlock
 72
     0
 43
0.0208333333333333
 43
0.0
 43
0.0
 43
0.0
 43
0.0
 43
0.0208333333333333
 43
0.0
 43
0.0
 43
0.0
 43
0.0
 43
1.0
 43
0.0
 43
0.0
 43
0.0
 43
0.0
 43
1.0
 77
     0
 47
0.0208333333333333
 47
0.0
 47
0.0
 47
0.0
 47
0.0
 47
0.0208333333333333
 47
0.0
 47
0.0
 47
0.0
 47
0.0
 47
1.0
 47
0.0
 47
0.0
 47
0.0
 47
0.0
 47
1.0
171
     0
 49
0.0208333333333333
 49
0.0
 49
0.0
 49
0.0
 49
0.0
 49
0.0208333333333333
 49
0.0
 49
0.0
 49
0.0
 49
0.0
 49
1.0
 49
0.0
 49
0.0
 49
0.0
 49
0.0
 49
1.0
175
     0
142
0.0208333333333333
142
0.0
142
0.0
142
0.0
142
0.0
142
0.0208333333333333
142
0.0
142
0.0
142
0.0
142
0.0
142
1.0
142
0.0
142
0.0
142
0.0
142
0.0
142
1.0
179
     0
144
0.0208333333333333
144
0.0
144
0.0
144
0.0
144
0.0
144
0.0208333333333333
144
0.0
144
0.0
144
0.0
144
0.0
144
1.0
144
0.0
144
0.0
144
0.0
144
0.0
144
1.0
147
0.0208333333333333
147
0.0
147
0.0
147
0.0
147
0.0
147
0.0208333333333333
147
0.0
147
0.0
147
0.0
147
0.0
147
1.0
147
0.0
147
0.0
147
0.0
147
0.0
147
1.0
  0
MATERIAL
  5
AB
102
{ACAD_XDICTIONARY
360
AC
102
}
102
{ACAD_REACTORS
330
AA
102
}
330
AA
100
AcDbMaterial
  1
ByLayer
 72
     0
 43
0.0208333333333333
 43
0.0
 43
0.0
 43
0.0
 43
0.0
 43
0.0208333333333333
 43
0.0
 43
0.0
 43
0.0
 43
0.0
 43
1.0
 43
0.0
 43
0.0
 43
0.0
 43
0.0
 43
1.0
 77
     0
 47
0.0208333333333333
 47
0.0
 47
0.0
 47
0.0
 47
0.0
 47
0.0208333333333333
 47
0.0
 47
0.0
 47
0.0
 47
0.0
 47
1.0
 47
0.0
 47
0.0
 47
0.0
 47
0.0
 47
1.0
171
     0
 49
0.0208333333333333
 49
0.0
 49
0.0
 49
0.0
 49
0.0
 49
0.0208333333333333
 49
0.0
 49
0.0
 49
0.0
 49
0.0
 49
1.0
 49
0.0
 49
0.0
 49
0.0
 49
0.0
 49
1.0
175
     0
142
0.0208333333333333
142
0.0
142
0.0
142
0.0
142
0.0
142
0.0208333333333333
142
0.0
142
0.0
142
0.0
142
0.0
142
1.0
142
0.0
142
0.0
142
0.0
142
0.0
142
1.0
179
     0
144
0.0208333333333333
144
0.0
144
0.0
144
0.0
144
0.0
144
0.0208333333333333
144
0.0
144
0.0
144
0.0
144
0.0
144
1.0
144
0.0
144
0.0
144
0.0
144
0.0
144
1.0
147
0.0208333333333333
147
0.0
147
0.0
147
0.0
147
0.0
147
0.0208333333333333
147
0.0
147
0.0
147
0.0
147
0.0
147
1.0
147
0.0
147
0.0
147
0.0
147
0.0
147
1.0
  0
MATERIAL
  5
BB
102
{ACAD_XDICTIONARY
360
BC
102
}
102
{ACAD_REACTORS
330
AA
102
}
330
AA
100
AcDbMaterial
  1
Global
 72
     0
 43
0.0208333333333333
 43
0.0
 43
0.0
 43
0.0
 43
0.0
 43
0.0208333333333333
 43
0.0
 43
0.0
 43
0.0
 43
0.0
 43
1.0
 43
0.0
 43
0.0
 43
0.0
 43
0.0
 43
1.0
 77
     0
 47
0.0208333333333333
 47
0.0
 47
0.0
 47
0.0
 47
0.0
 47
0.0208333333333333
 47
0.0
 47
0.0
 47
0.0
 47
0.0
 47
1.0
 47
0.0
 47
0.0
 47
0.0
 47
0.0
 47
1.0
171
     0
 49
0.0208333333333333
 49
0.0
 49
0.0
 49
0.0
 49
0.0
 49
0.0208333333333333
 49
0.0
 49
0.0
 49
0.0
 49
0.0
 49
1.0
 49
0.0
 49
0.0
 49
0.0
 49
0.0
 49
1.0
175
     0
142
0.0208333333333333
142
0.0
142
0.0
142
0.0
142
0.0
142
0.0208333333333333
142
0.0
142
0.0
142
0.0
142
0.0
142
1.0
142
0.0
142
0.0
142
0.0
142
0.0
142
1.0
179
     0
144
0.0208333333333333
144
0.0
144
0.0
144
0.0
144
0.0
144
0.0208333333333333
144
0.0
144
0.0
144
0.0
144
0.0
144
1.0
144
0.0
144
0.0
144
0.0
144
0.0
144
1.0
147
0.0208333333333333
147
0.0
147
0.0
147
0.0
147
0.0
147
0.0208333333333333
147
0.0
147
0.0
147
0.0
147
0.0
147
1.0
147
0.0
147
0.0
147
0.0
147
0.0
147
1.0
  0
MLEADERSTYLE
  5
F2
102
{ACAD_XDICTIONARY
360
340
102
}
102
{ACAD_REACTORS
330
F1
102
}
330
F1
100
AcDbMLeaderStyle
179
     2
170
     2
171
     1
172
     0
 90
        2
 40
0.0
 41
0.0
173
     1
 91
-1056964608
340
14
 92
       -2
290
     1
 42
0.09
291
     1
 43
0.36
  3
Standard
 44
0.18
300

342
11
174
     1
178
     6
175
     1
176
     0
 93
-1056964608
 45
0.18
292
     0
297
     0
 46
0.18
 94
-1056964608
 47
1.0
 49
1.0
140
1.0
293
     1
141
0.0
294
     1
177
     0
142
1.0
295
     0
296
     0
143
0.125
271
     0
272
     9
273
     9
  0
MLINESTYLE
  5
18
102
{ACAD_REACTORS
330
17
102
}
330
17
100
AcDbMlineStyle
  2
STANDARD
 70
     0
  3

 62
   256
 51
90.0
 52
90.0
 71
     2
 49
0.5
 62
   256
  6
BYLAYER
 49
-0.5
 62
   256
  6
BYLAYER
  0
ACDBPLACEHOLDER
  5
2D
102
{ACAD_REACTORS
330
E
102
}
330
E
  0
ACDBPLACEHOLDER
  5
F
102
{ACAD_REACTORS
330
E
102
}
330
E
  0
SCALE
  5
E0
102
{ACAD_REACTORS
330
DF
102
}
330
DF
100
AcDbScale
 70
     0
300
1:1
140
1.0
141
1.0
290
     1
  0
SCALE
  5
E1
102
{ACAD_REACTORS
330
DF
102
}
330
DF
100
AcDbScale
 70
     0
300
1/128" = 1'-0"
140
0.0078125
141
12.0
290
     0
  0
SCALE
  5
E2
102
{ACAD_REACTORS
330
DF
102
}
330
DF
100
AcDbScale
 70
     0
300
1/64" = 1'-0"
140
0.015625
141
12.0
290
     0
  0
SCALE
  5
E3
102
{ACAD_REACTORS
330
DF
102
}
330
DF
100
AcDbScale
 70
     0
300
1/32" = 1'-0"
140
0.03125
141
12.0
290
     0
  0
SCALE
  5
E4
102
{ACAD_REACTORS
330
DF
102
}
330
DF
100
AcDbScale
 70
     0
300
1/16" = 1'-0"
140
0.0625
141
12.0
290
     0
  0
SCALE
  5
E5
102
{ACAD_REACTORS
330
DF
102
}
330
DF
100
AcDbScale
 70
     0
300
3/32" = 1'-0"
140
0.09375
141
12.0
290
     0
  0
SCALE
  5
E6
102
{ACAD_REACTORS
330
DF
102
}
330
DF
100
AcDbScale
 70
     0
300
1/8" = 1'-0"
140
0.125
141
12.0
290
     0
  0
SCALE
  5
E7
102
{ACAD_REACTORS
330
DF
102
}
330
DF
100
AcDbScale
 70
     0
300
3/16" = 1'-0"
140
0.1875
141
12.0
290
     0
  0
SCALE
  5
E8
102
{ACAD_REACTORS
330
DF
102
}
330
DF
100
AcDbScale
 70
     0
300
1/4" = 1'-0"
140
0.25
141
12.0
290
     0
  0
SCALE
  5
E9
102
{ACAD_REACTORS
330
DF
102
}
330
DF
100
AcDbScale
 70
     0
300
3/8" = 1'-0"
140
0.375
141
12.0
290
     0
  0
SCALE
  5
EA
102
{ACAD_REACTORS
330
DF
102
}
330
DF
100
AcDbScale
 70
     0
300
1/2" = 1'-0"
140
0.5
141
12.0
290
     0
  0
SCALE
  5
EB
102
{ACAD_REACTORS
330
DF
102
}
330
DF
100
AcDbScale
 70
     0
300
3/4" = 1'-0"
140
0.75
141
12.0
290
     0
  0
SCALE
  5
EC
102
{ACAD_REACTORS
330
DF
102
}
330
DF
100
AcDbScale
 70
     0
300
1" = 1'-0"
140
1.0
141
12.0
290
     0
  0
SCALE
  5
ED
102
{ACAD_REACTORS
330
DF
102
}
330
DF
100
AcDbScale
 70
     0
300
1-1/2" = 1'-0"
140
1.5
141
12.0
290
     0
  0
SCALE
  5
EE
102
{ACAD_REACTORS
330
DF
102
}
330
DF
100
AcDbScale
 70
     0
300
3" = 1'-0"
140
3.0
141
12.0
290
     0
  0
SCALE
  5
EF
102
{ACAD_REACTORS
330
DF
102
}
330
DF
100
AcDbScale
 70
     0
300
6" = 1'-0"
140
6.0
141
12.0
290
     0
  0
SCALE
  5
F0
102
{ACAD_REACTORS
330
DF
102
}
330
DF
100
AcDbScale
 70
     0
300
1'-0" = 1'-0"
140
12.0
141
12.0
290
     0
  0
ACDBSECTIONVIEWSTYLE
  5
F4
102
{ACAD_XDICTIONARY
360
342
102
}
102
{ACAD_REACTORS
330
F3
102
}
330
F3
100
AcDbModelDocViewStyle
 70
     0
  3
Imperial24
290
     0
100
AcDbSectionViewStyle
 70
     0
 71
     0
 90
       78
 71
     1
340
11
 62
   256
 40
0.24
340
0
340
0
 62
   256
 40
0.24
300
I, O, Q, S, X, Z
 40
0.48
 90
        3
 40
0.18
 90
        1
 71
     2
340
16
 90
       25
 62
   256
340
16
 90
       50
 62
   256
 40
0.24
 40
0.0
 40
0.24
 71
     3
340
11
 62
   256
 40
0.24
 90
        1
 40
0.75
 90
        1
300
%<\AcVar ViewType \f "%tc1">% %<\AcVar ViewSectionStartId>%-%<\AcVar ViewSectionEndId>%\PSCALE %<\AcVar ViewScale \f "%sn">%
 71
     4
 62
   256
 62
   257
300
ANSI31
 40
1.0
 90
        0
290
     0
290
     0
 90
        6
 40
0.0
 40
1.570796326794896
 40
0.2617993877991494
 40
1.308996938995747
 40
-0.2617993877991494
 40
1.832595714594046
  0
TABLESTYLE
  5
DE
102
{ACAD_XDICTIONARY
360
30D
102
}
102
{ACAD_REACTORS
330
DD
102
}
330
DD
100
AcDbTableStyle
280
     0
  3
Standard
 70
     0
 71
     0
 40
0.06
 41
0.06
280
     0
281
     0
  7
Standard
140
0.18
170
     2
 62
     0
 63
     7
283
     0
 90
      512
 91
        0
  1

274
    -2
284
     1
 64
     0
275
    -2
285
     1
 65
     0
276
    -2
286
     1
 66
     0
277
    -2
287
     1
 67
     0
278
    -2
288
     1
 68
     0
279
    -2
289
     1
 69
     0
  7
Standard
140
0.25
170
     5
 62
     0
 63
     7
283
     0
 90
      512
 91
        0
  1

274
    -2
284
     1
 64
     0
275
    -2
285
     1
 65
     0
276
    -2
286
     1
 66
     0
277
    -2
287
     1
 67
     0
278
    -2
288
     1
 68
     0
279
    -2
289
     1
 69
     0
  7
Standard
140
0.18
170
     5
 62
     0
 63
     7
283
     0
 90
      512
 91
        0
  1

274
    -2
284
     1
 64
     0
275
    -2
285
     1
 65
     0
276
    -2
286
     1
 66
     0
277
    -2
287
     1
 67
     0
278
    -2
288
     1
 68
     0
279
    -2
289
     1
 69
     0
  0
VISUALSTYLE
  5
C9
102
{ACAD_XDICTIONARY
360
31A
102
}
102
{ACAD_REACTORS
330
C3
102
}
330
C3
100
AcDbVisualStyle
  2
2dWireframe
 70
     4
177
     2
291
     0
 71
     0
176
     1
 72
     2
176
     1
 73
     0
176
     1
 90
        0
176
     1
 40
0.6
176
     1
 41
30.0
176
     1
 63
     7
421
 16777215
176
     1
 74
     1
176
     1
 91
        4
176
     1
 64
     7
176
     1
 65
   257
176
     1
 75
     1
176
     1
175
     1
176
     1
 42
1.0
176
     1
 92
        0
176
     1
 66
   257
176
     1
 43
1.0
176
     1
 76
     1
176
     1
 77
     6
176
     1
 78
     2
176
     1
 67
     7
176
     1
 79
     5
176
     1
170
     0
176
     1
171
     0
176
     1
290
     0
176
     1
 93
        1
176
     1
 44
0.0
176
     1
173
     0
176
     1
1001
ACAD
1000
AcDbSavedByObjectVersion
1070
     0
  0
VISUALSTYLE
  5
C8
102
{ACAD_XDICTIONARY
360
318
102
}
102
{ACAD_REACTORS
330
C3
102
}
330
C3
100
AcDbVisualStyle
  2
Basic
 70
     7
177
     2
291
     1
 71
     1
176
     1
 72
     0
176
     1
 73
     1
176
     1
 90
        0
176
     1
 40
0.6
176
     1
 41
30.0
176
     1
 63
     7
421
 16777215
176
     1
 74
     0
176
     1
 91
        4
176
     1
 64
     7
176
     1
 65
   257
176
     1
 75
     1
176
     1
175
     1
176
     1
 42
1.0
176
     1
 92
        8
176
     1
 66
     7
176
     1
 43
1.0
176
     1
 76
     1
176
     1
 77
     6
176
     1
 78
     2
176
     1
 67
     7
176
     1
 79
     5
176
     1
170
     0
176
     1
171
     0
176
     1
290
     0
176
     1
 93
        1
176
     1
 44
0.0
176
     1
173
     0
176
     1
1001
ACAD
1000
AcDbSavedByObjectVersion
1070
     0
  0
VISUALSTYLE
  5
CF
102
{ACAD_XDICTIONARY
360
326
102
}
102
{ACAD_REACTORS
330
C3
102
}
330
C3
100
AcDbVisualStyle
  2
Brighten
 70
    12
177
     2
291
     1
 71
     2
176
     1
 72
     2
176
     1
 73
     0
176
     1
 90
        0
176
     1
 40
0.6
176
     1
 41
30.0
176
     1
 63
     7
421
 16777215
176
     1
 74
     1
176
     1
 91
        4
176
     1
 64
     7
176
     1
 65
   257
176
     1
 75
     1
176
     1
175
     1
176
     1
 42
1.0
176
     1
 92
        8
176
     1
 66
     7
176
     1
 43
1.0
176
     1
 76
     1
176
     1
 77
     6
176
     1
 78
     2
176
     1
 67
     7
176
     1
 79
     5
176
     1
170
     0
176
     1
171
     0
176
     1
290
     0
176
     1
 93
        1
176
     1
 44
50.0
176
     1
173
     0
176
     1
1001
ACAD
1000
AcDbSavedByObjectVersion
1070
     0
  0
VISUALSTYLE
  5
D3
102
{ACAD_XDICTIONARY
360
32E
102
}
102
{ACAD_REACTORS
330
C3
102
}
330
C3
100
AcDbVisualStyle
  2
ColorChange
 70
    16
177
     2
291
     1
 71
     2
176
     1
 72
     2
176
     1
 73
     3
176
     1
 90
        0
176
     1
 40
0.6
176
     1
 41
30.0
176
     1
 63
     8
421
  8421504
176
     1
 74
     1
176
     1
 91
        4
176
     1
 64
     7
176
     1
 65
   257
176
     1
 75
     1
176
     1
175
     1
176
     1
 42
1.0
176
     1
 92
        8
176
     1
 66
     8
424
  8421504
176
     1
 43
1.0
176
     1
 76
     1
176
     1
 77
     6
176
     1
 78
     2
176
     1
 67
     7
176
     1
 79
     5
176
     1
170
     0
176
     1
171
     0
176
     1
290
     0
176
     1
 93
        1
176
     1
 44
0.0
176
     1
173
     0
176
     1
1001
ACAD
1000
AcDbSavedByObjectVersion
1070
     0
  0
VISUALSTYLE
  5
CC
102
{ACAD_XDICTIONARY
360
320
102
}
102
{ACAD_REACTORS
330
C3
102
}
330
C3
100
AcDbVisualStyle
  2
Conceptual
 70
     9
177
     2
291
     0
 71
     3
176
     1
 72
     2
176
     1
 73
     0
176
     1
 90
        0
176
     1
 40
0.6
176
     1
 41
30.0
176
     1
 63
     7
421
 16777215
176
     1
 74
     2
176
     1
 91
        2
176
     1
 64
     7
176
     1
 65
   257
176
     1
 75
     1
176
     1
175
     1
176
     1
 42
179.0
176
     1
 92
        8
176
     1
 66
     7
176
     1
 43
1.0
176
     1
 76
     1
176
     1
 77
     6
176
     1
 78
     2
176
     1
 67
     7
176
     1
 79
     3
176
     1
170
     0
176
     1
171
     0
176
     1
290
     0
176
     1
 93
        1
176
     1
 44
0.0
176
     1
173
     0
176
     1
1001
ACAD
1000
AcDbSavedByObjectVersion
1070
     0
  0
VISUALSTYLE
  5
CE
102
{ACAD_XDICTIONARY
360
324
102
}
102
{ACAD_REACTORS
330
C3
102
}
330
C3
100
AcDbVisualStyle
  2
Dim
 70
    11
177
     2
291
     1
 71
     2
176
     1
 72
     2
176
     1
 73
     0
176
     1
 90
        0
176
     1
 40
0.6
176
     1
 41
30.0
176
     1
 63
     7
421
 16777215
176
     1
 74
     1
176
     1
 91
        4
176
     1
 64
     7
176
     1
 65
   257
176
     1
 75
     1
176
     1
175
     1
176
     1
 42
1.0
176
     1
 92
        8
176
     1
 66
     7
176
     1
 43
1.0
176
     1
 76
     1
176
     1
 77
     6
176
     1
 78
     2
176
     1
 67
     7
176
     1
 79
     5
176
     1
170
     0
176
     1
171
     0
176
     1
290
     0
176
     1
 93
        1
176
     1
 44
-50.0
176
     1
173
     0
176
     1
1001
ACAD
1000
AcDbSavedByObjectVersion
1070
     0
  0
VISUALSTYLE
  5
DB
102
{ACAD_XDICTIONARY
360
33E
102
}
102
{ACAD_REACTORS
330
C3
102
}
330
C3
100
AcDbVisualStyle
  2
EdgeColorOff
 70
    22
177
     2
291
     1
 71
     2
176
     0
 72
     2
176
     0
 73
     0
176
     0
 90
        0
176
     0
 40
0.6
176
     0
 41
30.0
176
     0
 63
     7
421
 16777215
176
     0
 74
     1
176
     0
 91
        4
176
     0
 64
     7
176
     0
 65
   257
176
     0
 75
     1
176
     0
175
     1
176
     0
 42
1.0
176
     0
 92
        8
176
     2
 66
     7
176
     0
 43
1.0
176
     0
 76
     1
176
     0
 77
     6
176
     0
 78
     2
176
     0
 67
     7
176
     0
 79
     5
176
     0
170
     0
176
     0
171
     0
176
     0
290
     0
176
     0
 93
        1
176
     0
 44
0.0
176
     0
173
     0
176
     0
1001
ACAD
1000
AcDbSavedByObjectVersion
1070
     0
  0
VISUALSTYLE
  5
D2
102
{ACAD_XDICTIONARY
360
32C
102
}
102
{ACAD_REACTORS
330
C3
102
}
330
C3
100
AcDbVisualStyle
  2
Facepattern
 70
    15
177
     2
291
     1
 71
     2
176
     1
 72
     2
176
     1
 73
     0
176
     1
 90
        0
176
     1
 40
0.6
176
     1
 41
30.0
176
     1
 63
     7
421
 16777215
176
     1
 74
     1
176
     1
 91
        4
176
     1
 64
     7
176
     1
 65
   257
176
     1
 75
     1
176
     1
175
     1
176
     1
 42
1.0
176
     1
 92
        8
176
     1
 66
     7
176
     1
 43
1.0
176
     1
 76
     1
176
     1
 77
     6
176
     1
 78
     2
176
     1
 67
     7
176
     1
 79
     5
176
     1
170
     0
176
     1
171
     0
176
     1
290
     0
176
     1
 93
        1
176
     1
 44
0.0
176
     1
173
     0
176
     1
1001
ACAD
1000
AcDbSavedByObjectVersion
1070
     0
  0
VISUALSTYLE
  5
C4
102
{ACAD_XDICTIONARY
360
310
102
}
102
{ACAD_REACTORS
330
C3
102
}
330
C3
100
AcDbVisualStyle
  2
Flat
 70
     0
177
     2
291
     1
 71
     2
176
     1
 72
     1
176
     1
 73
     1
176
     1
 90
        2
176
     1
 40
0.6
176
     1
 41
30.0
176
     1
 63
     7
421
 16777215
176
     1
 74
     0
176
     1
 91
        0
176
     1
 64
     7
176
     1
 65
   257
176
     1
 75
     1
176
     1
175
     1
176
     1
 42
1.0
176
     1
 92
        8
176
     1
 66
     7
176
     1
 43
1.0
176
     1
 76
     1
176
     1
 77
     6
176
     1
 78
     2
176
     1
 67
     7
176
     1
 79
     5
176
     1
170
     0
176
     1
171
     0
176
     1
290
     0
176
     1
 93
       13
176
     1
 44
0.0
176
     1
173
     0
176
     1
1001
ACAD
1000
AcDbSavedByObjectVersion
1070
     0
  0
VISUALSTYLE
  5
C5
102
{ACAD_XDICTIONARY
360
312
102
}
102
{ACAD_REACTORS
330
C3
102
}
330
C3
100
AcDbVisualStyle
  2
FlatWithEdges
 70
     1
177
     2
291
     1
 71
     2
176
     1
 72
     1
176
     1
 73
     1
176
     1
 90
        2
176
     1
 40
0.6
176
     1
 41
30.0
176
     1
 63
     7
421
 16777215
176
     1
 74
     1
176
     1
 91
        0
176
     1
 64
     7
176
     1
 65
   257
176
     1
 75
     1
176
     1
175
     1
176
     1
 42
1.0
176
     1
 92
        0
176
     1
 66
   257
176
     1
 43
1.0
176
     1
 76
     1
176
     1
 77
     6
176
     1
 78
     2
176
     1
 67
     7
176
     1
 79
     5
176
     1
170
     0
176
     1
171
     0
176
     1
290
     0
176
     1
 93
       13
176
     1
 44
0.0
176
     1
173
     0
176
     1
1001
ACAD
1000
AcDbSavedByObjectVersion
1070
     0
  0
VISUALSTYLE
  5
C6
102
{ACAD_XDICTIONARY
360
314
102
}
102
{ACAD_REACTORS
330
C3
102
}
330
C3
100
AcDbVisualStyle
  2
Gouraud
 70
     2
177
     2
291
     1
 71
     2
176
     1
 72
     2
176
     1
 73
     1
176
     1
 90
        2
176
     1
 40
0.6
176
     1
 41
30.0
176
     1
 63
     7
421
 16777215
176
     1
 74
     0
176
     1
 91
        0
176
     1
 64
     7
176
     1
 65
   257
176
     1
 75
     1
176
     1
175
     1
176
     1
 42
1.0
176
     1
 92
        0
176
     1
 66
     7
176
     1
 43
1.0
176
     1
 76
     1
176
     1
 77
     6
176
     1
 78
     2
176
     1
 67
     7
176
     1
 79
     5
176
     1
170
     0
176
     1
171
     0
176
     1
290
     0
176
     1
 93
       13
176
     1
 44
0.0
176
     1
173
     0
176
     1
1001
ACAD
1000
AcDbSavedByObjectVersion
1070
     0
  0
VISUALSTYLE
  5
C7
102
{ACAD_XDICTIONARY
360
316
102
}
102
{ACAD_REACTORS
330
C3
102
}
330
C3
100
AcDbVisualStyle
  2
GouraudWithEdges
 70
     3
177
     2
291
     1
 71
     2
176
     1
 72
     2
176
     1
 73
     1
176
     1
 90
        2
176
     1
 40
0.6
176
     1
 41
30.0
176
     1
 63
     7
421
 16777215
176
     1
 74
     1
176
     1
 91
        0
176
     1
 64
     7
176
     1
 65
   257
176
     1
 75
     1
176
     1
175
     1
176
     1
 42
1.0
176
     1
 92
        0
176
     1
 66
   257
176
     1
 43
1.0
176
     1
 76
     1
176
     1
 77
     6
176
     1
 78
     2
176
     1
 67
     7
176
     1
 79
     5
176
     1
170
     0
176
     1
171
     0
176
     1
290
     0
176
     1
 93
       13
176
     1
 44
0.0
176
     1
173
     0
176
     1
1001
ACAD
1000
AcDbSavedByObjectVersion
1070
     0
  0
VISUALSTYLE
  5
CB
102
{ACAD_XDICTIONARY
360
31E
102
}
102
{ACAD_REACTORS
330
C3
102
}
330
C3
100
AcDbVisualStyle
  2
Hidden
 70
     6
177
     2
291
     0
 71
     1
176
     1
 72
     2
176
     1
 73
     2
176
     1
 90
        0
176
     1
 40
0.6
176
     1
 41
30.0
176
     1
 63
     7
421
 16777215
176
     1
 74
     2
176
     1
 91
        2
176
     1
 64
     7
176
     1
 65
   257
176
     1
 75
     2
176
     1
175
     1
176
     1
 42
40.0
176
     1
 92
        0
176
     1
 66
   257
176
     1
 43
1.0
176
     1
 76
     1
176
     1
 77
     6
176
     1
 78
     2
176
     1
 67
     7
176
     1
 79
     3
176
     1
170
     0
176
     1
171
     0
176
     1
290
     0
176
     1
 93
        1
176
     1
 44
0.0
176
     1
173
     0
176
     1
1001
ACAD
1000
AcDbSavedByObjectVersion
1070
     0
  0
VISUALSTYLE
  5
D9
102
{ACAD_XDICTIONARY
360
33A
102
}
102
{ACAD_REACTORS
330
C3
102
}
330
C3
100
AcDbVisualStyle
  2
JitterOff
 70
    20
177
     2
291
     1
 71
     2
176
     0
 72
     2
176
     0
 73
     0
176
     0
 90
        0
176
     0
 40
0.6
176
     0
 41
30.0
176
     0
 63
     7
421
 16777215
176
     0
 74
     1
176
     0
 91
        4
176
     0
 64
     7
176
     0
 65
   257
176
     0
 75
     1
176
     0
175
     1
176
     0
 42
1.0
176
     0
 92
       10
176
     2
 66
     7
176
     0
 43
1.0
176
     0
 76
     1
176
     0
 77
     6
176
     0
 78
     2
176
     0
 67
     7
176
     0
 79
     5
176
     0
170
     0
176
     0
171
     0
176
     0
290
     0
176
     0
 93
        1
176
     0
 44
0.0
176
     0
173
     0
176
     0
1001
ACAD
1000
AcDbSavedByObjectVersion
1070
     0
  0
VISUALSTYLE
  5
D1
102
{ACAD_XDICTIONARY
360
32A
102
}
102
{ACAD_REACTORS
330
C3
102
}
330
C3
100
AcDbVisualStyle
  2
Linepattern
 70
    14
177
     2
291
     1
 71
     2
176
     1
 72
     2
176
     1
 73
     0
176
     1
 90
        0
176
     1
 40
0.6
176
     1
 41
30.0
176
     1
 63
     7
421
 16777215
176
     1
 74
     1
176
     1
 91
        4
176
     1
 64
     7
176
     1
 65
   257
176
     1
 75
     7
176
     1
175
     7
176
     1
 42
1.0
176
     1
 92
        8
176
     1
 66
     7
176
     1
 43
1.0
176
     1
 76
     1
176
     1
 77
     6
176
     1
 78
     2
176
     1
 67
     7
176
     1
 79
     5
176
     1
170
     0
176
     1
171
     0
176
     1
290
     0
176
     1
 93
        1
176
     1
 44
0.0
176
     1
173
     0
176
     1
1001
ACAD
1000
AcDbSavedByObjectVersion
1070
     0
  0
VISUALSTYLE
  5
DA
102
{ACAD_XDICTIONARY
360
33C
102
}
102
{ACAD_REACTORS
330
C3
102
}
330
C3
100
AcDbVisualStyle
  2
OverhangOff
 70
    21
177
     2
291
     1
 71
     2
176
     0
 72
     2
176
     0
 73
     0
176
     0
 90
        0
176
     0
 40
0.6
176
     0
 41
30.0
176
     0
 63
     7
421
 16777215
176
     0
 74
     1
176
     0
 91
        4
176
     0
 64
     7
176
     0
 65
   257
176
     0
 75
     1
176
     0
175
     1
176
     0
 42
1.0
176
     0
 92
        9
176
     2
 66
     7
176
     0
 43
1.0
176
     0
 76
     1
176
     0
 77
     6
176
     0
 78
     2
176
     0
 67
     7
176
     0
 79
     5
176
     0
170
     0
176
     0
171
     0
176
     0
290
     0
176
     0
 93
        1
176
     0
 44
0.0
176
     0
173
     0
176
     0
1001
ACAD
1000
AcDbSavedByObjectVersion
1070
     0
  0
VISUALSTYLE
  5
CD
102
{ACAD_XDICTIONARY
360
322
102
}
102
{ACAD_REACTORS
330
C3
102
}
330
C3
100
AcDbVisualStyle
  2
Realistic
 70
     8
177
     2
291
     0
 71
     2
176
     1
 72
     3
176
     1
 73
     0
176
     1
 90
        2
176
     1
 40
0.6
176
     1
 41
30.0
176
     1
 63
     7
421
 16777215
176
     1
 74
     0
176
     1
 91
        0
176
     1
 64
     7
176
     1
 65
   257
176
     1
 75
     1
176
     1
175
     1
176
     1
 42
1.0
176
     1
 92
        8
176
     1
 66
   257
176
     1
 43
1.0
176
     1
 76
     1
176
     1
 77
     6
176
     1
 78
     2
176
     1
 67
     7
176
     1
 79
     3
176
     1
170
     0
176
     1
171
     0
176
     1
290
     0
176
     1
 93
       13
176
     1
 44
0.0
176
     1
173
     0
176
     1
1001
ACAD
1000
AcDbSavedByObjectVersion
1070
     0
  0
VISUALSTYLE
  5
D8
102
{ACAD_XDICTIONARY
360
338
102
}
102
{ACAD_REACTORS
330
C3
102
}
330
C3
100
AcDbVisualStyle
  2
Shaded
 70
    27
177
     2
291
     0
 71
     2
176
     1
 72
     2
176
     1
 73
     1
176
     1
 90
        2
176
     1
 40
0.6
176
     1
 41
30.0
176
     1
 63
     7
421
 16777215
176
     1
 74
     0
176
     1
 91
        4
176
     1
 64
     7
176
     1
 65
   257
176
     1
 75
     1
176
     1
175
     1
176
     1
 42
1.0
176
     1
 92
        8
176
     1
 66
   257
176
     1
 43
1.0
176
     1
 76
     1
176
     1
 77
     6
176
     1
 78
     2
176
     1
 67
     8
425
  7895160
176
     1
 79
     3
176
     1
170
     0
176
     1
171
     0
176
     1
290
     0
176
     1
 93
        5
176
     1
 44
0.0
176
     1
173
     0
176
     1
1001
ACAD
1000
AcDbSavedByObjectVersion
1070
     0
  0
VISUALSTYLE
  5
D7
102
{ACAD_XDICTIONARY
360
336
102
}
102
{ACAD_REACTORS
330
C3
102
}
330
C3
100
AcDbVisualStyle
  2
Shaded with edges
 70
    26
177
     2
291
     0
 71
     2
176
     1
 72
     2
176
     1
 73
     1
176
     1
 90
        2
176
     1
 40
0.6
176
     1
 41
30.0
176
     1
 63
     7
421
 16777215
176
     1
 74
     1
176
     1
 91
        2
176
     1
 64
     7
176
     1
 65
   257
176
     1
 75
     2
176
     1
175
     1
176
     1
 42
1.0
176
     1
 92
        8
176
     1
 66
   257
176
     1
 43
1.0
176
     1
 76
     1
176
     1
 77
     6
176
     1
 78
     2
176
     1
 67
     7
176
     1
 79
     3
176
     1
170
     0
176
     1
171
     0
176
     1
290
     0
176
     1
 93
        5
176
     1
 44
0.0
176
     1
173
     0
176
     1
1001
ACAD
1000
AcDbSavedByObjectVersion
1070
     0
  0
VISUALSTYLE
  5
D4
102
{ACAD_XDICTIONARY
360
330
102
}
102
{ACAD_REACTORS
330
C3
102
}
330
C3
100
AcDbVisualStyle
  2
Shades of Gray
 70
    23
177
     2
291
     0
 71
     2
176
     1
 72
     2
176
     1
 73
     3
176
     1
 90
        0
176
     1
 40
0.6
176
     1
 41
30.0
176
     1
 63
     7
421
 16777215
176
     1
 74
     2
176
     1
 91
        2
176
     1
 64
     7
176
     1
 65
     7
176
     1
 75
     1
176
     1
175
     1
176
     1
 42
40.0
176
     1
 92
        8
176
     1
 66
     7
176
     1
 43
1.0
176
     1
 76
     1
176
     1
 77
     6
176
     1
 78
     2
176
     1
 67
     7
176
     1
 79
     3
176
     1
170
     0
176
     1
171
     0
176
     1
290
     0
176
     1
 93
        1
176
     1
 44
0.0
176
     1
173
     0
176
     1
1001
ACAD
1000
AcDbSavedByObjectVersion
1070
     0
  0
VISUALSTYLE
  5
D5
102
{ACAD_XDICTIONARY
360
332
102
}
102
{ACAD_REACTORS
330
C3
102
}
330
C3
100
AcDbVisualStyle
  2
Sketchy
 70
    24
177
     2
291
     0
 71
     1
176
     1
 72
     2
176
     1
 73
     2
176
     1
 90
        0
176
     1
 40
0.6
176
     1
 41
30.0
176
     1
 63
     7
421
 16777215
176
     1
 74
     2
176
     1
 91
        2
176
     1
 64
     7
176
     1
 65
     7
176
     1
 75
     1
176
     1
175
     1
176
     1
 42
40.0
176
     1
 92
       11
176
     1
 66
     7
176
     1
 43
1.0
176
     1
 76
     1
176
     1
 77
     6
176
     1
 78
     2
176
     1
 67
     7
176
     1
 79
     6
176
     1
170
     0
176
     1
171
     0
176
     1
290
     0
176
     1
 93
        1
176
     1
 44
0.0
176
     1
173
     0
176
     1
1001
ACAD
1000
AcDbSavedByObjectVersion
1070
     0
  0
VISUALSTYLE
  5
D0
102
{ACAD_XDICTIONARY
360
328
102
}
102
{ACAD_REACTORS
330
C3
102
}
330
C3
100
AcDbVisualStyle
  2
Thicken
 70
    13
177
     2
291
     1
 71
     2
176
     1
 72
     2
176
     1
 73
     0
176
     1
 90
        0
176
     1
 40
0.6
176
     1
 41
30.0
176
     1
 63
     7
421
 16777215
176
     1
 74
     1
176
     1
 91
        4
176
     1
 64
     7
176
     1
 65
   257
176
     1
 75
     1
176
     1
175
     1
176
     1
 42
1.0
176
     1
 92
       12
176
     1
 66
     7
176
     1
 43
1.0
176
     1
 76
     1
176
     1
 77
     6
176
     1
 78
     2
176
     1
 67
     7
176
     1
 79
     5
176
     1
170
     0
176
     1
171
     0
176
     1
290
     0
176
     1
 93
        1
176
     1
 44
0.0
176
     1
173
     0
176
     1
1001
ACAD
1000
AcDbSavedByObjectVersion
1070
     0
  0
VISUALSTYLE
  5
CA
102
{ACAD_XDICTIONARY
360
31C
102
}
102
{ACAD_REACTORS
330
C3
102
}
330
C3
100
AcDbVisualStyle
  2
Wireframe
 70
     5
177
     2
291
     0
 71
     0
176
     1
 72
     2
176
     1
 73
     0
176
     1
 90
        0
176
     1
 40
0.6
176
     1
 41
30.0
176
     1
 63
     7
421
 16777215
176
     1
 74
     1
176
     1
 91
        4
176
     1
 64
     7
176
     1
 65
   257
176
     1
 75
     1
176
     1
175
     1
176
     1
 42
1.0
176
     1
 92
        0
176
     1
 66
   257
176
     1
 43
1.0
176
     1
 76
     1
176
     1
 77
     6
176
     1
 78
     2
176
     1
 67
     7
176
     1
 79
     3
176
     1
170
     0
176
     1
171
     0
176
     1
290
     0
176
     1
 93
        1
176
     1
 44
0.0
176
     1
173
     0
176
     1
1001
ACAD
1000
AcDbSavedByObjectVersion
1070
     0
  0
VISUALSTYLE
  5
D6
102
{ACAD_XDICTIONARY
360
334
102
}
102
{ACAD_REACTORS
330
C3
102
}
330
C3
100
AcDbVisualStyle
  2
X-Ray
 70
    25
177
     2
291
     0
 71
     2
176
     1
 72
     2
176
     1
 73
     1
176
     1
 90
        1
176
     1
 40
0.5
176
     1
 41
30.0
176
     1
 63
     7
421
 16777215
176
     1
 74
     1
176
     1
 91
        0
176
     1
 64
     7
176
     1
 65
   257
176
     1
 75
     1
176
     1
175
     1
176
     1
 42
1.0
176
     1
 92
        8
176
     1
 66
     7
176
     1
 43
1.0
176
     1
 76
     1
176
     1
 77
     6
176
     1
 78
     2
176
     1
 67
     7
176
     1
 79
     3
176
     1
170
     0
176
     1
171
     0
176
     1
290
     0
176
     1
 93
       13
176
     1
 44
0.0
176
     1
173
     0
176
     1
1001
ACAD
1000
AcDbSavedByObjectVersion
1070
     0
  0
DICTIONARYVAR
  5
309
102
{ACAD_REACTORS
330
303
102
}
330
303
100
DictionaryVariables
280
     0
  1
1:1
  0
DICTIONARYVAR
  5
305
102
{ACAD_REACTORS
330
303
102
}
330
303
100
DictionaryVariables
280
     0
  1
STANDARD
  0
DICTIONARYVAR
  5
304
102
{ACAD_REACTORS
330
303
102
}
330
303
100
DictionaryVariables
280
     0
  1
STANDARD
  0
DICTIONARYVAR
  5
306
102
{ACAD_REACTORS
330
303
102
}
330
303
100
DictionaryVariables
280
     0
  1
Imperial24
  0
DICTIONARYVAR
  5
307
102
{ACAD_REACTORS
330
303
102
}
330
303
100
DictionaryVariables
280
     0
  1
Imperial24
  0
DICTIONARYVAR
  5
30B
102
{ACAD_REACTORS
330
303
102
}
330
303
100
DictionaryVariables
280
     0
  1
1
  0
DICTIONARYVAR
  5
30C
102
{ACAD_REACTORS
330
303
102
}
330
303
100
DictionaryVariables
280
     0
  1
15
  0
DICTIONARYVAR
  5
30A
102
{ACAD_REACTORS
330
303
102
}
330
303
100
DictionaryVariables
280
     0
  1
0
  0
DICTIONARYVAR
  5
308
102
{ACAD_REACTORS
330
303
102
}
330
303
100
DictionaryVariables
280
     0
  1
0
  0
DICTIONARY
  5
344
330
F6
100
AcDbDictionary
280
     1
281
     1
  3
ACAD_XREC_ROUNDTRIP
360
345
  0
DICTIONARY
  5
B4
330
B3
100
AcDbDictionary
280
     1
281
     1
  3
BUMPTILE
360
B6
  3
DIFFUSETILE
360
B5
  3
OPACITYTILE
360
B9
  3
REFLECTIONTILE
360
B8
  3
REFRACTIONTILE
360
BA
  3
SPECULARTILE
360
B7
  0
DICTIONARY
  5
AC
330
AB
100
AcDbDictionary
280
     1
281
     1
  3
BUMPTILE
360
AE
  3
DIFFUSETILE
360
AD
  3
OPACITYTILE
360
B1
  3
REFLECTIONTILE
360
B0
  3
REFRACTIONTILE
360
B2
  3
SPECULARTILE
360
AF
  0
DICTIONARY
  5
BC
330
BB
100
AcDbDictionary
280
     1
281
     1
  3
BUMPTILE
360
BE
  3
DIFFUSETILE
360
BD
  3
OPACITYTILE
360
C1
  3
REFLECTIONTILE
360
C0
  3
REFRACTIONTILE
360
C2
  3
SPECULARTILE
360
BF
  0
DICTIONARY
  5
340
330
F2
100
AcDbDictionary
280
     1
281
     1
  3
ACAD_XREC_ROUNDTRIP
360
341
  0
DICTIONARY
  5
342
330
F4
100
AcDbDictionary
280
     1
281
     1
  3
ACAD_XREC_ROUNDTRIP
360
343
  0
DICTIONARY
  5
30D
330
DE
100
AcDbDictionary
280
     1
281
     1
  3
ACAD_ROUNDTRIP_2008_TABLESTYLE_CELLSTYLEMAP
360
30E
  0
DICTIONARY
  5
31A
330
C9
100
AcDbDictionary
280
     1
281
     1
  3
ACAD_XREC_ROUNDTRIP
360
31B
  0
DICTIONARY
  5
318
330
C8
100
AcDbDictionary
280
     1
281
     1
  3
ACAD_XREC_ROUNDTRIP
360
319
  0
DICTIONARY
  5
326
330
CF
100
AcDbDictionary
280
     1
281
     1
  3
ACAD_XREC_ROUNDTRIP
360
327
  0
DICTIONARY
  5
32E
330
D3
100
AcDbDictionary
280
     1
281
     1
  3
ACAD_XREC_ROUNDTRIP
360
32F
  0
DICTIONARY
  5
320
330
CC
100
AcDbDictionary
280
     1
281
     1
  3
ACAD_XREC_ROUNDTRIP
360
321
  0
DICTIONARY
  5
324
330
CE
100
AcDbDictionary
280
     1
281
     1
  3
ACAD_XREC_ROUNDTRIP
360
325
  0
DICTIONARY
  5
33E
330
DB
100
AcDbDictionary
280
     1
281
     1
  3
ACAD_XREC_ROUNDTRIP
360
33F
  0
DICTIONARY
  5
32C
330
D2
100
AcDbDictionary
280
     1
281
     1
  3
ACAD_XREC_ROUNDTRIP
360
32D
  0
DICTIONARY
  5
310
330
C4
100
AcDbDictionary
280
     1
281
     1
  3
ACAD_XREC_ROUNDTRIP
360
311
  0
DICTIONARY
  5
312
330
C5
100
AcDbDictionary
280
     1
281
     1
  3
ACAD_XREC_ROUNDTRIP
360
313
  0
DICTIONARY
  5
314
330
C6
100
AcDbDictionary
280
     1
281
     1
  3
ACAD_XREC_ROUNDTRIP
360
315
  0
DICTIONARY
  5
316
330
C7
100
AcDbDictionary
280
     1
281
     1
  3
ACAD_XREC_ROUNDTRIP
360
317
  0
DICTIONARY
  5
31E
330
CB
100
AcDbDictionary
280
     1
281
     1
  3
ACAD_XREC_ROUNDTRIP
360
31F
  0
DICTIONARY
  5
33A
330
D9
100
AcDbDictionary
280
     1
281
     1
  3
ACAD_XREC_ROUNDTRIP
360
33B
  0
DICTIONARY
  5
32A
330
D1
100
AcDbDictionary
280
     1
281
     1
  3
ACAD_XREC_ROUNDTRIP
360
32B
  0
DICTIONARY
  5
33C
330
DA
100
AcDbDictionary
280
     1
281
     1
  3
ACAD_XREC_ROUNDTRIP
360
33D
  0
DICTIONARY
  5
322
330
CD
100
AcDbDictionary
280
     1
281
     1
  3
ACAD_XREC_ROUNDTRIP
360
323
  0
DICTIONARY
  5
338
330
D8
100
AcDbDictionary
280
     1
281
     1
  3
ACAD_XREC_ROUNDTRIP
360
339
  0
DICTIONARY
  5
336
330
D7
100
AcDbDictionary
280
     1
281
     1
  3
ACAD_XREC_ROUNDTRIP
360
337
  0
DICTIONARY
  5
330
330
D4
100
AcDbDictionary
280
     1
281
     1
  3
ACAD_XREC_ROUNDTRIP
360
331
  0
DICTIONARY
  5
332
330
D5
100
AcDbDictionary
280
     1
281
     1
  3
ACAD_XREC_ROUNDTRIP
360
333
  0
DICTIONARY
  5
328
330
D0
100
AcDbDictionary
280
     1
281
     1
  3
ACAD_XREC_ROUNDTRIP
360
329
  0
DICTIONARY
  5
31C
330
CA
100
AcDbDictionary
280
     1
281
     1
  3
ACAD_XREC_ROUNDTRIP
360
31D
  0
DICTIONARY
  5
334
330
D6
100
AcDbDictionary
280
     1
281
     1
  3
ACAD_XREC_ROUNDTRIP
360
335
  0
XRECORD
  5
345
102
{ACAD_REACTORS
330
344
102
}
330
344
100
AcDbXrecord
280
     1
102
DISPLAYNAME
  1
Imperial24
102
FLAGS
 90
        0
  0
XRECORD
  5
B6
102
{ACAD_REACTORS
330
B4
102
}
330
B4
100
AcDbXrecord
280
     1
270
     1
271
     1
  0
XRECORD
  5
B5
102
{ACAD_REACTORS
330
B4
102
}
330
B4
100
AcDbXrecord
280
     1
270
     1
271
     1
  0
XRECORD
  5
B9
102
{ACAD_REACTORS
330
B4
102
}
330
B4
100
AcDbXrecord
280
     1
270
     1
271
     1
  0
XRECORD
  5
B8
102
{ACAD_REACTORS
330
B4
102
}
330
B4
100
AcDbXrecord
280
     1
270
     1
271
     1
  0
XRECORD
  5
BA
102
{ACAD_REACTORS
330
B4
102
}
330
B4
100
AcDbXrecord
280
     1
270
     1
271
     1
  0
XRECORD
  5
B7
102
{ACAD_REACTORS
330
B4
102
}
330
B4
100
AcDbXrecord
280
     1
270
     1
271
     1
  0
XRECORD
  5
AE
102
{ACAD_REACTORS
330
AC
102
}
330
AC
100
AcDbXrecord
280
     1
270
     1
271
     1
  0
XRECORD
  5
AD
102
{ACAD_REACTORS
330
AC
102
}
330
AC
100
AcDbXrecord
280
     1
270
     1
271
     1
  0
XRECORD
  5
B1
102
{ACAD_REACTORS
330
AC
102
}
330
AC
100
AcDbXrecord
280
     1
270
     1
271
     1
  0
XRECORD
  5
B0
102
{ACAD_REACTORS
330
AC
102
}
330
AC
100
AcDbXrecord
280
     1
270
     1
271
     1
  0
XRECORD
  5
B2
102
{ACAD_REACTORS
330
AC
102
}
330
AC
100
AcDbXrecord
280
     1
270
     1
271
     1
  0
XRECORD
  5
AF
102
{ACAD_REACTORS
330
AC
102
}
330
AC
100
AcDbXrecord
280
     1
270
     1
271
     1
  0
XRECORD
  5
BE
102
{ACAD_REACTORS
330
BC
102
}
330
BC
100
AcDbXrecord
280
     1
270
     1
271
     1
  0
XRECORD
  5
BD
102
{ACAD_REACTORS
330
BC
102
}
330
BC
100
AcDbXrecord
280
     1
270
     1
271
     1
  0
XRECORD
  5
C1
102
{ACAD_REACTORS
330
BC
102
}
330
BC
100
AcDbXrecord
280
     1
270
     1
271
     1
  0
XRECORD
  5
C0
102
{ACAD_REACTORS
330
BC
102
}
330
BC
100
AcDbXrecord
280
     1
270
     1
271
     1
  0
XRECORD
  5
C2
102
{ACAD_REACTORS
330
BC
102
}
330
BC
100
AcDbXrecord
280
     1
270
     1
271
     1
  0
XRECORD
  5
BF
102
{ACAD_REACTORS
330
BC
102
}
330
BC
100
AcDbXrecord
280
     1
270
     1
271
     1
  0
XRECORD
  5
341
102
{ACAD_REACTORS
330
340
102
}
330
340
100
AcDbXrecord
280
     1
102
ACAD_ROUNDTRIP_2012_MLEADER_STYLE
298
     1
  0
XRECORD
  5
343
102
{ACAD_REACTORS
330
342
102
}
330
342
100
AcDbXrecord
280
     1
102
DISPLAYNAME
  1
Imperial24
102
FLAGS
 90
        0
  0
CELLSTYLEMAP
  5
30E
102
{ACAD_REACTORS
330
30D
102
}
330
30D
100
AcDbCellStyleMap
 90
        3
300
CELLSTYLE
  1
TABLEFORMAT_BEGIN
 90
        5
170
     1
 91
        0
 92
    32768
 62
   257
 93
        1
300
CONTENTFORMAT
  1
CONTENTFORMAT_BEGIN
 90
        0
 91
        0
 92
      512
 93
        0
300

 40
0.0
140
1.0
 94
        5
 62
     0
340
11
144
0.25
309
CONTENTFORMAT_END
171
     0
 94
        0
309
TABLEFORMAT_END
  1
CELLSTYLE_BEGIN
 90
        1
 91
        1
300
_TITLE
309
CELLSTYLE_END
300
CELLSTYLE
  1
TABLEFORMAT_BEGIN
 90
        5
170
     1
 91
        0
 92
        0
 62
   257
 93
        1
300
CONTENTFORMAT
  1
CONTENTFORMAT_BEGIN
 90
        0
 91
        0
 92
      512
 93
        0
300

 40
0.0
140
1.0
 94
        5
 62
     0
340
11
144
0.18
309
CONTENTFORMAT_END
171
     0
 94
        0
309
TABLEFORMAT_END
  1
CELLSTYLE_BEGIN
 90
        2
 91
        1
300
_HEADER
309
CELLSTYLE_END
300
CELLSTYLE
  1
TABLEFORMAT_BEGIN
 90
        5
170
     1
 91
        0
 92
        0
 62
   257
 93
        1
300
CONTENTFORMAT
  1
CONTENTFORMAT_BEGIN
 90
        0
 91
        0
 92
      512
 93
        0
300

 40
0.0
140
1.0
 94
        2
 62
     0
340
11
144
0.18
309
CONTENTFORMAT_END
171
     0
 94
        0
309
TABLEFORMAT_END
  1
CELLSTYLE_BEGIN
 90
        3
 91
        2
300
_DATA
309
CELLSTYLE_END
  0
XRECORD
  5
31B
102
{ACAD_REACTORS
330
31A
102
}
330
31A
100
AcDbXrecord
280
     1
102
RTVSPost2010Prop28
280
     1
102
RTVSPost2010PropOp28
 70
     1
102
RTVSPost2010Prop29
280
     1
102
RTVSPost2010PropOp29
 70
     1
102
RTVSPost2010Prop30
280
     0
102
RTVSPost2010PropOp30
 70
     1
102
RTVSPost2010Prop31
280
     0
102
RTVSPost2010PropOp31
 70
     1
102
RTVSPost2010Prop32
280
     0
102
RTVSPost2010PropOp32
 70
     1
102
RTVSPost2010Prop33
280
     0
102
RTVSPost2010PropOp33
 70
     1
102
RTVSPost2010Prop34
280
     0
102
RTVSPost2010PropOp34
 70
     1
102
RTVSPost2010Prop35
280
     0
102
RTVSPost2010PropOp35
 70
     1
102
RTVSPost2010Prop36
280
     0
102
RTVSPost2010PropOp36
 70
     1
102
RTVSPost2010Prop37
 90
       50
102
RTVSPost2010PropOp37
 70
     1
102
RTVSPost2010Prop38
140
0.0
102
RTVSPost2010PropOp38
 70
     1
102
RTVSPost2010Prop39
140
1.0
102
RTVSPost2010PropOp39
 70
     1
102
RTVSPost2010Prop40
 90
        0
102
RTVSPost2010PropOp40
 70
     1
102
RTVSPost2010Prop41ColorIndex
 90
       18
102
RTVSPost2010Prop41ColorRGB
 90
        0
102
RTVSPost2010PropOp41
 70
     1
102
RTVSPost2010Prop42
 90
       50
102
RTVSPost2010PropOp42
 70
     1
102
RTVSPost2010Prop43
 90
        3
102
RTVSPost2010PropOp43
 70
     1
102
RTVSPost2010Prop44ColorIndex
 90
        5
102
RTVSPost2010Prop44ColorRGB
 90
      255
102
RTVSPost2010PropOp44
 70
     1
102
RTVSPost2010Prop45
280
     0
102
RTVSPost2010PropOp45
 70
     1
102
RTVSPost2010Prop46
 90
       50
102
RTVSPost2010PropOp46
 70
     1
102
RTVSPost2010Prop47
 90
       50
102
RTVSPost2010PropOp47
 70
     1
102
RTVSPost2010Prop48
 90
       50
102
RTVSPost2010PropOp48
 70
     1
102
RTVSPost2010Prop49
280
     0
102
RTVSPost2010PropOp49
 70
     1
102
RTVSPost2010Prop50
 90
       50
102
RTVSPost2010PropOp50
 70
     1
102
RTVSPost2010Prop51ColorIndex
 90
      256
102
RTVSPost2010Prop51ColorRGB
 90
-16777216
102
RTVSPost2010PropOp51
 70
     0
102
RTVSPost2010Prop52
140
1.0
102
RTVSPost2010PropOp52
 70
     0
102
RTVSPost2010Prop53
 90
        2
102
RTVSPost2010PropOp53
 70
     1
102
RTVSPost2010Prop54
  1
strokes_ogs.tif
102
RTVSPost2010PropOp54
 70
     1
102
RTVSPost2010Prop55
280
     0
102
RTVSPost2010PropOp55
 70
     1
102
RTVSPost2010Prop56
140
1.0
102
RTVSPost2010PropOp56
 70
     1
102
RTVSPost2010Prop57
140
1.0
102
RTVSPost2010PropOp57
 70
     1
  0
XRECORD
  5
319
102
{ACAD_REACTORS
330
318
102
}
330
318
100
AcDbXrecord
280
     1
102
RTVSPost2010Prop28
280
     0
102
RTVSPost2010PropOp28
 70
     1
102
RTVSPost2010Prop29
280
     1
102
RTVSPost2010PropOp29
 70
     1
102
RTVSPost2010Prop30
280
     1
102
RTVSPost2010PropOp30
 70
     1
102
RTVSPost2010Prop31
280
     0
102
RTVSPost2010PropOp31
 70
     1
102
RTVSPost2010Prop32
280
     0
102
RTVSPost2010PropOp32
 70
     1
102
RTVSPost2010Prop33
280
     0
102
RTVSPost2010PropOp33
 70
     1
102
RTVSPost2010Prop34
280
     0
102
RTVSPost2010PropOp34
 70
     1
102
RTVSPost2010Prop35
280
     0
102
RTVSPost2010PropOp35
 70
     1
102
RTVSPost2010Prop36
280
     0
102
RTVSPost2010PropOp36
 70
     1
102
RTVSPost2010Prop37
 90
       50
102
RTVSPost2010PropOp37
 70
     1
102
RTVSPost2010Prop38
140
0.0
102
RTVSPost2010PropOp38
 70
     1
102
RTVSPost2010Prop39
140
1.0
102
RTVSPost2010PropOp39
 70
     1
102
RTVSPost2010Prop40
 90
        0
102
RTVSPost2010PropOp40
 70
     1
102
RTVSPost2010Prop41ColorIndex
 90
       18
102
RTVSPost2010Prop41ColorRGB
 90
        0
102
RTVSPost2010PropOp41
 70
     1
102
RTVSPost2010Prop42
 90
       50
102
RTVSPost2010PropOp42
 70
     1
102
RTVSPost2010Prop43
 90
        3
102
RTVSPost2010PropOp43
 70
     1
102
RTVSPost2010Prop44ColorIndex
 90
        5
102
RTVSPost2010Prop44ColorRGB
 90
      255
102
RTVSPost2010PropOp44
 70
     1
102
RTVSPost2010Prop45
280
     0
102
RTVSPost2010PropOp45
 70
     1
102
RTVSPost2010Prop46
 90
       50
102
RTVSPost2010PropOp46
 70
     1
102
RTVSPost2010Prop47
 90
       50
102
RTVSPost2010PropOp47
 70
     1
102
RTVSPost2010Prop48
 90
       50
102
RTVSPost2010PropOp48
 70
     1
102
RTVSPost2010Prop49
280
     0
102
RTVSPost2010PropOp49
 70
     1
102
RTVSPost2010Prop50
 90
       50
102
RTVSPost2010PropOp50
 70
     1
102
RTVSPost2010Prop51ColorIndex
 90
      256
102
RTVSPost2010Prop51ColorRGB
 90
-16777216
102
RTVSPost2010PropOp51
 70
     0
102
RTVSPost2010Prop52
140
1.0
102
RTVSPost2010PropOp52
 70
     0
102
RTVSPost2010Prop53
 90
        2
102
RTVSPost2010PropOp53
 70
     1
102
RTVSPost2010Prop54
  1
strokes_ogs.tif
102
RTVSPost2010PropOp54
 70
     1
102
RTVSPost2010Prop55
280
     0
102
RTVSPost2010PropOp55
 70
     1
102
RTVSPost2010Prop56
140
1.0
102
RTVSPost2010PropOp56
 70
     1
102
RTVSPost2010Prop57
140
1.0
102
RTVSPost2010PropOp57
 70
     1
  0
XRECORD
  5
327
102
{ACAD_REACTORS
330
326
102
}
330
326
100
AcDbXrecord
280
     1
102
RTVSPost2010Prop28
280
     0
102
RTVSPost2010PropOp28
 70
     1
102
RTVSPost2010Prop29
280
     1
102
RTVSPost2010PropOp29
 70
     1
102
RTVSPost2010Prop30
280
     1
102
RTVSPost2010PropOp30
 70
     1
102
RTVSPost2010Prop31
280
     0
102
RTVSPost2010PropOp31
 70
     1
102
RTVSPost2010Prop32
280
     0
102
RTVSPost2010PropOp32
 70
     1
102
RTVSPost2010Prop33
280
     0
102
RTVSPost2010PropOp33
 70
     1
102
RTVSPost2010Prop34
280
     0
102
RTVSPost2010PropOp34
 70
     1
102
RTVSPost2010Prop35
280
     0
102
RTVSPost2010PropOp35
 70
     1
102
RTVSPost2010Prop36
280
     0
102
RTVSPost2010PropOp36
 70
     1
102
RTVSPost2010Prop37
 90
       50
102
RTVSPost2010PropOp37
 70
     1
102
RTVSPost2010Prop38
140
0.0
102
RTVSPost2010PropOp38
 70
     1
102
RTVSPost2010Prop39
140
1.0
102
RTVSPost2010PropOp39
 70
     1
102
RTVSPost2010Prop40
 90
        0
102
RTVSPost2010PropOp40
 70
     1
102
RTVSPost2010Prop41ColorIndex
 90
       18
102
RTVSPost2010Prop41ColorRGB
 90
        0
102
RTVSPost2010PropOp41
 70
     1
102
RTVSPost2010Prop42
 90
       50
102
RTVSPost2010PropOp42
 70
     1
102
RTVSPost2010Prop43
 90
        3
102
RTVSPost2010PropOp43
 70
     1
102
RTVSPost2010Prop44ColorIndex
 90
        5
102
RTVSPost2010Prop44ColorRGB
 90
      255
102
RTVSPost2010PropOp44
 70
     1
102
RTVSPost2010Prop45
280
     0
102
RTVSPost2010PropOp45
 70
     1
102
RTVSPost2010Prop46
 90
       50
102
RTVSPost2010PropOp46
 70
     1
102
RTVSPost2010Prop47
 90
       50
102
RTVSPost2010PropOp47
 70
     1
102
RTVSPost2010Prop48
 90
       50
102
RTVSPost2010PropOp48
 70
     1
102
RTVSPost2010Prop49
280
     0
102
RTVSPost2010PropOp49
 70
     1
102
RTVSPost2010Prop50
 90
       50
102
RTVSPost2010PropOp50
 70
     1
102
RTVSPost2010Prop51ColorIndex
 90
      256
102
RTVSPost2010Prop51ColorRGB
 90
-16777216
102
RTVSPost2010PropOp51
 70
     0
102
RTVSPost2010Prop52
140
1.0
102
RTVSPost2010PropOp52
 70
     0
102
RTVSPost2010Prop53
 90
        2
102
RTVSPost2010PropOp53
 70
     1
102
RTVSPost2010Prop54
  1
strokes_ogs.tif
102
RTVSPost2010PropOp54
 70
     1
102
RTVSPost2010Prop55
280
     0
102
RTVSPost2010PropOp55
 70
     1
102
RTVSPost2010Prop56
140
1.0
102
RTVSPost2010PropOp56
 70
     1
102
RTVSPost2010Prop57
140
1.0
102
RTVSPost2010PropOp57
 70
     1
  0
XRECORD
  5
32F
102
{ACAD_REACTORS
330
32E
102
}
330
32E
100
AcDbXrecord
280
     1
102
RTVSPost2010Prop28
280
     0
102
RTVSPost2010PropOp28
 70
     1
102
RTVSPost2010Prop29
280
     1
102
RTVSPost2010PropOp29
 70
     1
102
RTVSPost2010Prop30
280
     1
102
RTVSPost2010PropOp30
 70
     1
102
RTVSPost2010Prop31
280
     0
102
RTVSPost2010PropOp31
 70
     1
102
RTVSPost2010Prop32
280
     0
102
RTVSPost2010PropOp32
 70
     1
102
RTVSPost2010Prop33
280
     0
102
RTVSPost2010PropOp33
 70
     1
102
RTVSPost2010Prop34
280
     0
102
RTVSPost2010PropOp34
 70
     1
102
RTVSPost2010Prop35
280
     0
102
RTVSPost2010PropOp35
 70
     1
102
RTVSPost2010Prop36
280
     0
102
RTVSPost2010PropOp36
 70
     1
102
RTVSPost2010Prop37
 90
       50
102
RTVSPost2010PropOp37
 70
     1
102
RTVSPost2010Prop38
140
0.0
102
RTVSPost2010PropOp38
 70
     1
102
RTVSPost2010Prop39
140
1.0
102
RTVSPost2010PropOp39
 70
     1
102
RTVSPost2010Prop40
 90
        0
102
RTVSPost2010PropOp40
 70
     1
102
RTVSPost2010Prop41ColorIndex
 90
       18
102
RTVSPost2010Prop41ColorRGB
 90
        0
102
RTVSPost2010PropOp41
 70
     1
102
RTVSPost2010Prop42
 90
       50
102
RTVSPost2010PropOp42
 70
     1
102
RTVSPost2010Prop43
 90
        3
102
RTVSPost2010PropOp43
 70
     1
102
RTVSPost2010Prop44ColorIndex
 90
        5
102
RTVSPost2010Prop44ColorRGB
 90
      255
102
RTVSPost2010PropOp44
 70
     1
102
RTVSPost2010Prop45
280
     0
102
RTVSPost2010PropOp45
 70
     1
102
RTVSPost2010Prop46
 90
       50
102
RTVSPost2010PropOp46
 70
     1
102
RTVSPost2010Prop47
 90
       50
102
RTVSPost2010PropOp47
 70
     1
102
RTVSPost2010Prop48
 90
       50
102
RTVSPost2010PropOp48
 70
     1
102
RTVSPost2010Prop49
280
     0
102
RTVSPost2010PropOp49
 70
     1
102
RTVSPost2010Prop50
 90
       50
102
RTVSPost2010PropOp50
 70
     1
102
RTVSPost2010Prop51ColorIndex
 90
      256
102
RTVSPost2010Prop51ColorRGB
 90
-16777216
102
RTVSPost2010PropOp51
 70
     0
102
RTVSPost2010Prop52
140
1.0
102
RTVSPost2010PropOp52
 70
     0
102
RTVSPost2010Prop53
 90
        2
102
RTVSPost2010PropOp53
 70
     1
102
RTVSPost2010Prop54
  1
strokes_ogs.tif
102
RTVSPost2010PropOp54
 70
     1
102
RTVSPost2010Prop55
280
     0
102
RTVSPost2010PropOp55
 70
     1
102
RTVSPost2010Prop56
140
1.0
102
RTVSPost2010PropOp56
 70
     1
102
RTVSPost2010Prop57
140
1.0
102
RTVSPost2010PropOp57
 70
     1
  0
XRECORD
  5
321
102
{ACAD_REACTORS
330
320
102
}
330
320
100
AcDbXrecord
280
     1
102
RTVSPost2010Prop28
280
     0
102
RTVSPost2010PropOp28
 70
     1
102
RTVSPost2010Prop29
280
     1
102
RTVSPost2010PropOp29
 70
     1
102
RTVSPost2010Prop30
280
     1
102
RTVSPost2010PropOp30
 70
     1
102
RTVSPost2010Prop31
280
     0
102
RTVSPost2010PropOp31
 70
     1
102
RTVSPost2010Prop32
280
     0
102
RTVSPost2010PropOp32
 70
     1
102
RTVSPost2010Prop33
280
     0
102
RTVSPost2010PropOp33
 70
     1
102
RTVSPost2010Prop34
280
     0
102
RTVSPost2010PropOp34
 70
     1
102
RTVSPost2010Prop35
280
     0
102
RTVSPost2010PropOp35
 70
     1
102
RTVSPost2010Prop36
280
     0
102
RTVSPost2010PropOp36
 70
     1
102
RTVSPost2010Prop37
 90
       50
102
RTVSPost2010PropOp37
 70
     1
102
RTVSPost2010Prop38
140
0.0
102
RTVSPost2010PropOp38
 70
     1
102
RTVSPost2010Prop39
140
1.0
102
RTVSPost2010PropOp39
 70
     1
102
RTVSPost2010Prop40
 90
        0
102
RTVSPost2010PropOp40
 70
     1
102
RTVSPost2010Prop41ColorIndex
 90
       18
102
RTVSPost2010Prop41ColorRGB
 90
        0
102
RTVSPost2010PropOp41
 70
     1
102
RTVSPost2010Prop42
 90
       50
102
RTVSPost2010PropOp42
 70
     1
102
RTVSPost2010Prop43
 90
        3
102
RTVSPost2010PropOp43
 70
     1
102
RTVSPost2010Prop44ColorIndex
 90
        5
102
RTVSPost2010Prop44ColorRGB
 90
      255
102
RTVSPost2010PropOp44
 70
     1
102
RTVSPost2010Prop45
280
     0
102
RTVSPost2010PropOp45
 70
     1
102
RTVSPost2010Prop46
 90
       50
102
RTVSPost2010PropOp46
 70
     1
102
RTVSPost2010Prop47
 90
       50
102
RTVSPost2010PropOp47
 70
     1
102
RTVSPost2010Prop48
 90
       50
102
RTVSPost2010PropOp48
 70
     1
102
RTVSPost2010Prop49
280
     0
102
RTVSPost2010PropOp49
 70
     1
102
RTVSPost2010Prop50
 90
       50
102
RTVSPost2010PropOp50
 70
     1
102
RTVSPost2010Prop51ColorIndex
 90
      256
102
RTVSPost2010Prop51ColorRGB
 90
-16777216
102
RTVSPost2010PropOp51
 70
     0
102
RTVSPost2010Prop52
140
1.0
102
RTVSPost2010PropOp52
 70
     0
102
RTVSPost2010Prop53
 90
        2
102
RTVSPost2010PropOp53
 70
     1
102
RTVSPost2010Prop54
  1
strokes_ogs.tif
102
RTVSPost2010PropOp54
 70
     1
102
RTVSPost2010Prop55
280
     0
102
RTVSPost2010PropOp55
 70
     1
102
RTVSPost2010Prop56
140
1.0
102
RTVSPost2010PropOp56
 70
     1
102
RTVSPost2010Prop57
140
1.0
102
RTVSPost2010PropOp57
 70
     1
  0
XRECORD
  5
325
102
{ACAD_REACTORS
330
324
102
}
330
324
100
AcDbXrecord
280
     1
102
RTVSPost2010Prop28
280
     0
102
RTVSPost2010PropOp28
 70
     1
102
RTVSPost2010Prop29
280
     1
102
RTVSPost2010PropOp29
 70
     1
102
RTVSPost2010Prop30
280
     1
102
RTVSPost2010PropOp30
 70
     1
102
RTVSPost2010Prop31
280
     0
102
RTVSPost2010PropOp31
 70
     1
102
RTVSPost2010Prop32
280
     0
102
RTVSPost2010PropOp32
 70
     1
102
RTVSPost2010Prop33
280
     0
102
RTVSPost2010PropOp33
 70
     1
102
RTVSPost2010Prop34
280
     0
102
RTVSPost2010PropOp34
 70
     1
102
RTVSPost2010Prop35
280
     0
102
RTVSPost2010PropOp35
 70
     1
102
RTVSPost2010Prop36
280
     0
102
RTVSPost2010PropOp36
 70
     1
102
RTVSPost2010Prop37
 90
       50
102
RTVSPost2010PropOp37
 70
     1
102
RTVSPost2010Prop38
140
0.0
102
RTVSPost2010PropOp38
 70
     1
102
RTVSPost2010Prop39
140
1.0
102
RTVSPost2010PropOp39
 70
     1
102
RTVSPost2010Prop40
 90
        0
102
RTVSPost2010PropOp40
 70
     1
102
RTVSPost2010Prop41ColorIndex
 90
       18
102
RTVSPost2010Prop41ColorRGB
 90
        0
102
RTVSPost2010PropOp41
 70
     1
102
RTVSPost2010Prop42
 90
       50
102
RTVSPost2010PropOp42
 70
     1
102
RTVSPost2010Prop43
 90
        3
102
RTVSPost2010PropOp43
 70
     1
102
RTVSPost2010Prop44ColorIndex
 90
        5
102
RTVSPost2010Prop44ColorRGB
 90
      255
102
RTVSPost2010PropOp44
 70
     1
102
RTVSPost2010Prop45
280
     0
102
RTVSPost2010PropOp45
 70
     1
102
RTVSPost2010Prop46
 90
       50
102
RTVSPost2010PropOp46
 70
     1
102
RTVSPost2010Prop47
 90
       50
102
RTVSPost2010PropOp47
 70
     1
102
RTVSPost2010Prop48
 90
       50
102
RTVSPost2010PropOp48
 70
     1
102
RTVSPost2010Prop49
280
     0
102
RTVSPost2010PropOp49
 70
     1
102
RTVSPost2010Prop50
 90
       50
102
RTVSPost2010PropOp50
 70
     1
102
RTVSPost2010Prop51ColorIndex
 90
      256
102
RTVSPost2010Prop51ColorRGB
 90
-16777216
102
RTVSPost2010PropOp51
 70
     0
102
RTVSPost2010Prop52
140
1.0
102
RTVSPost2010PropOp52
 70
     0
102
RTVSPost2010Prop53
 90
        2
102
RTVSPost2010PropOp53
 70
     1
102
RTVSPost2010Prop54
  1
strokes_ogs.tif
102
RTVSPost2010PropOp54
 70
     1
102
RTVSPost2010Prop55
280
     0
102
RTVSPost2010PropOp55
 70
     1
102
RTVSPost2010Prop56
140
1.0
102
RTVSPost2010PropOp56
 70
     1
102
RTVSPost2010Prop57
140
1.0
102
RTVSPost2010PropOp57
 70
     1
  0
XRECORD
  5
33F
102
{ACAD_REACTORS
330
33E
102
}
330
33E
100
AcDbXrecord
280
     1
102
RTVSPost2010Prop28
280
     0
102
RTVSPost2010PropOp28
 70
     0
102
RTVSPost2010Prop29
280
     1
102
RTVSPost2010PropOp29
 70
     0
102
RTVSPost2010Prop30
280
     1
102
RTVSPost2010PropOp30
 70
     0
102
RTVSPost2010Prop31
280
     0
102
RTVSPost2010PropOp31
 70
     0
102
RTVSPost2010Prop32
280
     0
102
RTVSPost2010PropOp32
 70
     0
102
RTVSPost2010Prop33
280
     0
102
RTVSPost2010PropOp33
 70
     0
102
RTVSPost2010Prop34
280
     0
102
RTVSPost2010PropOp34
 70
     0
102
RTVSPost2010Prop35
280
     0
102
RTVSPost2010PropOp35
 70
     0
102
RTVSPost2010Prop36
280
     0
102
RTVSPost2010PropOp36
 70
     0
102
RTVSPost2010Prop37
 90
       50
102
RTVSPost2010PropOp37
 70
     0
102
RTVSPost2010Prop38
140
0.0
102
RTVSPost2010PropOp38
 70
     0
102
RTVSPost2010Prop39
140
1.0
102
RTVSPost2010PropOp39
 70
     0
102
RTVSPost2010Prop40
 90
        0
102
RTVSPost2010PropOp40
 70
     0
102
RTVSPost2010Prop41ColorIndex
 90
       18
102
RTVSPost2010Prop41ColorRGB
 90
        0
102
RTVSPost2010PropOp41
 70
     0
102
RTVSPost2010Prop42
 90
       50
102
RTVSPost2010PropOp42
 70
     0
102
RTVSPost2010Prop43
 90
        3
102
RTVSPost2010PropOp43
 70
     0
102
RTVSPost2010Prop44ColorIndex
 90
        5
102
RTVSPost2010Prop44ColorRGB
 90
      255
102
RTVSPost2010PropOp44
 70
     0
102
RTVSPost2010Prop45
280
     0
102
RTVSPost2010PropOp45
 70
     0
102
RTVSPost2010Prop46
 90
       50
102
RTVSPost2010PropOp46
 70
     0
102
RTVSPost2010Prop47
 90
       50
102
RTVSPost2010PropOp47
 70
     0
102
RTVSPost2010Prop48
 90
       50
102
RTVSPost2010PropOp48
 70
     0
102
RTVSPost2010Prop49
280
     0
102
RTVSPost2010PropOp49
 70
     0
102
RTVSPost2010Prop50
 90
       50
102
RTVSPost2010PropOp50
 70
     0
102
RTVSPost2010Prop51ColorIndex
 90
      256
102
RTVSPost2010Prop51ColorRGB
 90
-16777216
102
RTVSPost2010PropOp51
 70
     0
102
RTVSPost2010Prop52
140
1.0
102
RTVSPost2010PropOp52
 70
     0
102
RTVSPost2010Prop53
 90
        2
102
RTVSPost2010PropOp53
 70
     0
102
RTVSPost2010Prop54
  1
strokes_ogs.tif
102
RTVSPost2010PropOp54
 70
     0
102
RTVSPost2010Prop55
280
     0
102
RTVSPost2010PropOp55
 70
     0
102
RTVSPost2010Prop56
140
1.0
102
RTVSPost2010PropOp56
 70
     0
102
RTVSPost2010Prop57
140
1.0
102
RTVSPost2010PropOp57
 70
     0
  0
XRECORD
  5
32D
102
{ACAD_REACTORS
330
32C
102
}
330
32C
100
AcDbXrecord
280
     1
102
RTVSPost2010Prop28
280
     0
102
RTVSPost2010PropOp28
 70
     1
102
RTVSPost2010Prop29
280
     1
102
RTVSPost2010PropOp29
 70
     1
102
RTVSPost2010Prop30
280
     1
102
RTVSPost2010PropOp30
 70
     1
102
RTVSPost2010Prop31
280
     0
102
RTVSPost2010PropOp31
 70
     1
102
RTVSPost2010Prop32
280
     0
102
RTVSPost2010PropOp32
 70
     1
102
RTVSPost2010Prop33
280
     0
102
RTVSPost2010PropOp33
 70
     1
102
RTVSPost2010Prop34
280
     0
102
RTVSPost2010PropOp34
 70
     1
102
RTVSPost2010Prop35
280
     0
102
RTVSPost2010PropOp35
 70
     1
102
RTVSPost2010Prop36
280
     0
102
RTVSPost2010PropOp36
 70
     1
102
RTVSPost2010Prop37
 90
       50
102
RTVSPost2010PropOp37
 70
     1
102
RTVSPost2010Prop38
140
0.0
102
RTVSPost2010PropOp38
 70
     1
102
RTVSPost2010Prop39
140
1.0
102
RTVSPost2010PropOp39
 70
     1
102
RTVSPost2010Prop40
 90
        0
102
RTVSPost2010PropOp40
 70
     1
102
RTVSPost2010Prop41ColorIndex
 90
       18
102
RTVSPost2010Prop41ColorRGB
 90
        0
102
RTVSPost2010PropOp41
 70
     1
102
RTVSPost2010Prop42
 90
       50
102
RTVSPost2010PropOp42
 70
     1
102
RTVSPost2010Prop43
 90
        3
102
RTVSPost2010PropOp43
 70
     1
102
RTVSPost2010Prop44ColorIndex
 90
        5
102
RTVSPost2010Prop44ColorRGB
 90
      255
102
RTVSPost2010PropOp44
 70
     1
102
RTVSPost2010Prop45
280
     0
102
RTVSPost2010PropOp45
 70
     1
102
RTVSPost2010Prop46
 90
       50
102
RTVSPost2010PropOp46
 70
     1
102
RTVSPost2010Prop47
 90
       50
102
RTVSPost2010PropOp47
 70
     1
102
RTVSPost2010Prop48
 90
       50
102
RTVSPost2010PropOp48
 70
     1
102
RTVSPost2010Prop49
280
     0
102
RTVSPost2010PropOp49
 70
     1
102
RTVSPost2010Prop50
 90
       50
102
RTVSPost2010PropOp50
 70
     1
102
RTVSPost2010Prop51ColorIndex
 90
      256
102
RTVSPost2010Prop51ColorRGB
 90
-16777216
102
RTVSPost2010PropOp51
 70
     0
102
RTVSPost2010Prop52
140
1.0
102
RTVSPost2010PropOp52
 70
     0
102
RTVSPost2010Prop53
 90
        2
102
RTVSPost2010PropOp53
 70
     1
102
RTVSPost2010Prop54
  1
strokes_ogs.tif
102
RTVSPost2010PropOp54
 70
     1
102
RTVSPost2010Prop55
280
     0
102
RTVSPost2010PropOp55
 70
     1
102
RTVSPost2010Prop56
140
1.0
102
RTVSPost2010PropOp56
 70
     1
102
RTVSPost2010Prop57
140
1.0
102
RTVSPost2010PropOp57
 70
     1
  0
XRECORD
  5
311
102
{ACAD_REACTORS
330
310
102
}
330
310
100
AcDbXrecord
280
     1
102
RTVSPost2010Prop28
280
     0
102
RTVSPost2010PropOp28
 70
     1
102
RTVSPost2010Prop29
280
     1
102
RTVSPost2010PropOp29
 70
     1
102
RTVSPost2010Prop30
280
     1
102
RTVSPost2010PropOp30
 70
     1
102
RTVSPost2010Prop31
280
     0
102
RTVSPost2010PropOp31
 70
     1
102
RTVSPost2010Prop32
280
     0
102
RTVSPost2010PropOp32
 70
     1
102
RTVSPost2010Prop33
280
     0
102
RTVSPost2010PropOp33
 70
     1
102
RTVSPost2010Prop34
280
     0
102
RTVSPost2010PropOp34
 70
     1
102
RTVSPost2010Prop35
280
     0
102
RTVSPost2010PropOp35
 70
     1
102
RTVSPost2010Prop36
280
     0
102
RTVSPost2010PropOp36
 70
     1
102
RTVSPost2010Prop37
 90
       50
102
RTVSPost2010PropOp37
 70
     1
102
RTVSPost2010Prop38
140
0.0
102
RTVSPost2010PropOp38
 70
     1
102
RTVSPost2010Prop39
140
1.0
102
RTVSPost2010PropOp39
 70
     1
102
RTVSPost2010Prop40
 90
        0
102
RTVSPost2010PropOp40
 70
     1
102
RTVSPost2010Prop41ColorIndex
 90
       18
102
RTVSPost2010Prop41ColorRGB
 90
        0
102
RTVSPost2010PropOp41
 70
     1
102
RTVSPost2010Prop42
 90
       50
102
RTVSPost2010PropOp42
 70
     1
102
RTVSPost2010Prop43
 90
        3
102
RTVSPost2010PropOp43
 70
     1
102
RTVSPost2010Prop44ColorIndex
 90
        5
102
RTVSPost2010Prop44ColorRGB
 90
      255
102
RTVSPost2010PropOp44
 70
     1
102
RTVSPost2010Prop45
280
     0
102
RTVSPost2010PropOp45
 70
     1
102
RTVSPost2010Prop46
 90
       50
102
RTVSPost2010PropOp46
 70
     1
102
RTVSPost2010Prop47
 90
       50
102
RTVSPost2010PropOp47
 70
     1
102
RTVSPost2010Prop48
 90
       50
102
RTVSPost2010PropOp48
 70
     1
102
RTVSPost2010Prop49
280
     0
102
RTVSPost2010PropOp49
 70
     1
102
RTVSPost2010Prop50
 90
       50
102
RTVSPost2010PropOp50
 70
     1
102
RTVSPost2010Prop51ColorIndex
 90
      256
102
RTVSPost2010Prop51ColorRGB
 90
-16777216
102
RTVSPost2010PropOp51
 70
     0
102
RTVSPost2010Prop52
140
1.0
102
RTVSPost2010PropOp52
 70
     0
102
RTVSPost2010Prop53
 90
        2
102
RTVSPost2010PropOp53
 70
     1
102
RTVSPost2010Prop54
  1
strokes_ogs.tif
102
RTVSPost2010PropOp54
 70
     1
102
RTVSPost2010Prop55
280
     0
102
RTVSPost2010PropOp55
 70
     1
102
RTVSPost2010Prop56
140
1.0
102
RTVSPost2010PropOp56
 70
     1
102
RTVSPost2010Prop57
140
1.0
102
RTVSPost2010PropOp57
 70
     1
  0
XRECORD
  5
313
102
{ACAD_REACTORS
330
312
102
}
330
312
100
AcDbXrecord
280
     1
102
RTVSPost2010Prop28
280
     0
102
RTVSPost2010PropOp28
 70
     1
102
RTVSPost2010Prop29
280
     1
102
RTVSPost2010PropOp29
 70
     1
102
RTVSPost2010Prop30
280
     1
102
RTVSPost2010PropOp30
 70
     1
102
RTVSPost2010Prop31
280
     0
102
RTVSPost2010PropOp31
 70
     1
102
RTVSPost2010Prop32
280
     0
102
RTVSPost2010PropOp32
 70
     1
102
RTVSPost2010Prop33
280
     0
102
RTVSPost2010PropOp33
 70
     1
102
RTVSPost2010Prop34
280
     0
102
RTVSPost2010PropOp34
 70
     1
102
RTVSPost2010Prop35
280
     0
102
RTVSPost2010PropOp35
 70
     1
102
RTVSPost2010Prop36
280
     0
102
RTVSPost2010PropOp36
 70
     1
102
RTVSPost2010Prop37
 90
       50
102
RTVSPost2010PropOp37
 70
     1
102
RTVSPost2010Prop38
140
0.0
102
RTVSPost2010PropOp38
 70
     1
102
RTVSPost2010Prop39
140
1.0
102
RTVSPost2010PropOp39
 70
     1
102
RTVSPost2010Prop40
 90
        0
102
RTVSPost2010PropOp40
 70
     1
102
RTVSPost2010Prop41ColorIndex
 90
       18
102
RTVSPost2010Prop41ColorRGB
 90
        0
102
RTVSPost2010PropOp41
 70
     1
102
RTVSPost2010Prop42
 90
       50
102
RTVSPost2010PropOp42
 70
     1
102
RTVSPost2010Prop43
 90
        3
102
RTVSPost2010PropOp43
 70
     1
102
RTVSPost2010Prop44ColorIndex
 90
        5
102
RTVSPost2010Prop44ColorRGB
 90
      255
102
RTVSPost2010PropOp44
 70
     1
102
RTVSPost2010Prop45
280
     0
102
RTVSPost2010PropOp45
 70
     1
102
RTVSPost2010Prop46
 90
       50
102
RTVSPost2010PropOp46
 70
     1
102
RTVSPost2010Prop47
 90
       50
102
RTVSPost2010PropOp47
 70
     1
102
RTVSPost2010Prop48
 90
       50
102
RTVSPost2010PropOp48
 70
     1
102
RTVSPost2010Prop49
280
     0
102
RTVSPost2010PropOp49
 70
     1
102
RTVSPost2010Prop50
 90
       50
102
RTVSPost2010PropOp50
 70
     1
102
RTVSPost2010Prop51ColorIndex
 90
      256
102
RTVSPost2010Prop51ColorRGB
 90
-16777216
102
RTVSPost2010PropOp51
 70
     0
102
RTVSPost2010Prop52
140
1.0
102
RTVSPost2010PropOp52
 70
     0
102
RTVSPost2010Prop53
 90
        2
102
RTVSPost2010PropOp53
 70
     1
102
RTVSPost2010Prop54
  1
strokes_ogs.tif
102
RTVSPost2010PropOp54
 70
     1
102
RTVSPost2010Prop55
280
     0
102
RTVSPost2010PropOp55
 70
     1
102
RTVSPost2010Prop56
140
1.0
102
RTVSPost2010PropOp56
 70
     1
102
RTVSPost2010Prop57
140
1.0
102
RTVSPost2010PropOp57
 70
     1
  0
XRECORD
  5
315
102
{ACAD_REACTORS
330
314
102
}
330
314
100
AcDbXrecord
280
     1
102
RTVSPost2010Prop28
280
     0
102
RTVSPost2010PropOp28
 70
     1
102
RTVSPost2010Prop29
280
     1
102
RTVSPost2010PropOp29
 70
     1
102
RTVSPost2010Prop30
280
     1
102
RTVSPost2010PropOp30
 70
     1
102
RTVSPost2010Prop31
280
     0
102
RTVSPost2010PropOp31
 70
     1
102
RTVSPost2010Prop32
280
     0
102
RTVSPost2010PropOp32
 70
     1
102
RTVSPost2010Prop33
280
     0
102
RTVSPost2010PropOp33
 70
     1
102
RTVSPost2010Prop34
280
     0
102
RTVSPost2010PropOp34
 70
     1
102
RTVSPost2010Prop35
280
     0
102
RTVSPost2010PropOp35
 70
     1
102
RTVSPost2010Prop36
280
     0
102
RTVSPost2010PropOp36
 70
     1
102
RTVSPost2010Prop37
 90
       50
102
RTVSPost2010PropOp37
 70
     1
102
RTVSPost2010Prop38
140
0.0
102
RTVSPost2010PropOp38
 70
     1
102
RTVSPost2010Prop39
140
1.0
102
RTVSPost2010PropOp39
 70
     1
102
RTVSPost2010Prop40
 90
        0
102
RTVSPost2010PropOp40
 70
     1
102
RTVSPost2010Prop41ColorIndex
 90
       18
102
RTVSPost2010Prop41ColorRGB
 90
        0
102
RTVSPost2010PropOp41
 70
     1
102
RTVSPost2010Prop42
 90
       50
102
RTVSPost2010PropOp42
 70
     1
102
RTVSPost2010Prop43
 90
        3
102
RTVSPost2010PropOp43
 70
     1
102
RTVSPost2010Prop44ColorIndex
 90
        5
102
RTVSPost2010Prop44ColorRGB
 90
      255
102
RTVSPost2010PropOp44
 70
     1
102
RTVSPost2010Prop45
280
     0
102
RTVSPost2010PropOp45
 70
     1
102
RTVSPost2010Prop46
 90
       50
102
RTVSPost2010PropOp46
 70
     1
102
RTVSPost2010Prop47
 90
       50
102
RTVSPost2010PropOp47
 70
     1
102
RTVSPost2010Prop48
 90
       50
102
RTVSPost2010PropOp48
 70
     1
102
RTVSPost2010Prop49
280
     0
102
RTVSPost2010PropOp49
 70
     1
102
RTVSPost2010Prop50
 90
       50
102
RTVSPost2010PropOp50
 70
     1
102
RTVSPost2010Prop51ColorIndex
 90
      256
102
RTVSPost2010Prop51ColorRGB
 90
-16777216
102
RTVSPost2010PropOp51
 70
     0
102
RTVSPost2010Prop52
140
1.0
102
RTVSPost2010PropOp52
 70
     0
102
RTVSPost2010Prop53
 90
        2
102
RTVSPost2010PropOp53
 70
     1
102
RTVSPost2010Prop54
  1
strokes_ogs.tif
102
RTVSPost2010PropOp54
 70
     1
102
RTVSPost2010Prop55
280
     0
102
RTVSPost2010PropOp55
 70
     1
102
RTVSPost2010Prop56
140
1.0
102
RTVSPost2010PropOp56
 70
     1
102
RTVSPost2010Prop57
140
1.0
102
RTVSPost2010PropOp57
 70
     1
  0
XRECORD
  5
317
102
{ACAD_REACTORS
330
316
102
}
330
316
100
AcDbXrecord
280
     1
102
RTVSPost2010Prop28
280
     0
102
RTVSPost2010PropOp28
 70
     1
102
RTVSPost2010Prop29
280
     1
102
RTVSPost2010PropOp29
 70
     1
102
RTVSPost2010Prop30
280
     1
102
RTVSPost2010PropOp30
 70
     1
102
RTVSPost2010Prop31
280
     0
102
RTVSPost2010PropOp31
 70
     1
102
RTVSPost2010Prop32
280
     0
102
RTVSPost2010PropOp32
 70
     1
102
RTVSPost2010Prop33
280
     0
102
RTVSPost2010PropOp33
 70
     1
102
RTVSPost2010Prop34
280
     0
102
RTVSPost2010PropOp34
 70
     1
102
RTVSPost2010Prop35
280
     0
102
RTVSPost2010PropOp35
 70
     1
102
RTVSPost2010Prop36
280
     0
102
RTVSPost2010PropOp36
 70
     1
102
RTVSPost2010Prop37
 90
       50
102
RTVSPost2010PropOp37
 70
     1
102
RTVSPost2010Prop38
140
0.0
102
RTVSPost2010PropOp38
 70
     1
102
RTVSPost2010Prop39
140
1.0
102
RTVSPost2010PropOp39
 70
     1
102
RTVSPost2010Prop40
 90
        0
102
RTVSPost2010PropOp40
 70
     1
102
RTVSPost2010Prop41ColorIndex
 90
       18
102
RTVSPost2010Prop41ColorRGB
 90
        0
102
RTVSPost2010PropOp41
 70
     1
102
RTVSPost2010Prop42
 90
       50
102
RTVSPost2010PropOp42
 70
     1
102
RTVSPost2010Prop43
 90
        3
102
RTVSPost2010PropOp43
 70
     1
102
RTVSPost2010Prop44ColorIndex
 90
        5
102
RTVSPost2010Prop44ColorRGB
 90
      255
102
RTVSPost2010PropOp44
 70
     1
102
RTVSPost2010Prop45
280
     0
102
RTVSPost2010PropOp45
 70
     1
102
RTVSPost2010Prop46
 90
       50
102
RTVSPost2010PropOp46
 70
     1
102
RTVSPost2010Prop47
 90
       50
102
RTVSPost2010PropOp47
 70
     1
102
RTVSPost2010Prop48
 90
       50
102
RTVSPost2010PropOp48
 70
     1
102
RTVSPost2010Prop49
280
     0
102
RTVSPost2010PropOp49
 70
     1
102
RTVSPost2010Prop50
 90
       50
102
RTVSPost2010PropOp50
 70
     1
102
RTVSPost2010Prop51ColorIndex
 90
      256
102
RTVSPost2010Prop51ColorRGB
 90
-16777216
102
RTVSPost2010PropOp51
 70
     0
102
RTVSPost2010Prop52
140
1.0
102
RTVSPost2010PropOp52
 70
     0
102
RTVSPost2010Prop53
 90
        2
102
RTVSPost2010PropOp53
 70
     1
102
RTVSPost2010Prop54
  1
strokes_ogs.tif
102
RTVSPost2010PropOp54
 70
     1
102
RTVSPost2010Prop55
280
     0
102
RTVSPost2010PropOp55
 70
     1
102
RTVSPost2010Prop56
140
1.0
102
RTVSPost2010PropOp56
 70
     1
102
RTVSPost2010Prop57
140
1.0
102
RTVSPost2010PropOp57
 70
     1
  0
XRECORD
  5
31F
102
{ACAD_REACTORS
330
31E
102
}
330
31E
100
AcDbXrecord
280
     1
102
RTVSPost2010Prop28
280
     0
102
RTVSPost2010PropOp28
 70
     1
102
RTVSPost2010Prop29
280
     1
102
RTVSPost2010PropOp29
 70
     1
102
RTVSPost2010Prop30
280
     1
102
RTVSPost2010PropOp30
 70
     1
102
RTVSPost2010Prop31
280
     0
102
RTVSPost2010PropOp31
 70
     1
102
RTVSPost2010Prop32
280
     0
102
RTVSPost2010PropOp32
 70
     1
102
RTVSPost2010Prop33
280
     0
102
RTVSPost2010PropOp33
 70
     1
102
RTVSPost2010Prop34
280
     0
102
RTVSPost2010PropOp34
 70
     1
102
RTVSPost2010Prop35
280
     0
102
RTVSPost2010PropOp35
 70
     1
102
RTVSPost2010Prop36
280
     0
102
RTVSPost2010PropOp36
 70
     1
102
RTVSPost2010Prop37
 90
       50
102
RTVSPost2010PropOp37
 70
     1
102
RTVSPost2010Prop38
140
0.0
102
RTVSPost2010PropOp38
 70
     1
102
RTVSPost2010Prop39
140
1.0
102
RTVSPost2010PropOp39
 70
     1
102
RTVSPost2010Prop40
 90
        0
102
RTVSPost2010PropOp40
 70
     1
102
RTVSPost2010Prop41ColorIndex
 90
       18
102
RTVSPost2010Prop41ColorRGB
 90
        0
102
RTVSPost2010PropOp41
 70
     1
102
RTVSPost2010Prop42
 90
       50
102
RTVSPost2010PropOp42
 70
     1
102
RTVSPost2010Prop43
 90
        3
102
RTVSPost2010PropOp43
 70
     1
102
RTVSPost2010Prop44ColorIndex
 90
        5
102
RTVSPost2010Prop44ColorRGB
 90
      255
102
RTVSPost2010PropOp44
 70
     1
102
RTVSPost2010Prop45
280
     0
102
RTVSPost2010PropOp45
 70
     1
102
RTVSPost2010Prop46
 90
       50
102
RTVSPost2010PropOp46
 70
     1
102
RTVSPost2010Prop47
 90
       50
102
RTVSPost2010PropOp47
 70
     1
102
RTVSPost2010Prop48
 90
       50
102
RTVSPost2010PropOp48
 70
     1
102
RTVSPost2010Prop49
280
     0
102
RTVSPost2010PropOp49
 70
     1
102
RTVSPost2010Prop50
 90
       50
102
RTVSPost2010PropOp50
 70
     1
102
RTVSPost2010Prop51ColorIndex
 90
      256
102
RTVSPost2010Prop51ColorRGB
 90
-16777216
102
RTVSPost2010PropOp51
 70
     0
102
RTVSPost2010Prop52
140
1.0
102
RTVSPost2010PropOp52
 70
     0
102
RTVSPost2010Prop53
 90
        2
102
RTVSPost2010PropOp53
 70
     1
102
RTVSPost2010Prop54
  1
strokes_ogs.tif
102
RTVSPost2010PropOp54
 70
     1
102
RTVSPost2010Prop55
280
     0
102
RTVSPost2010PropOp55
 70
     1
102
RTVSPost2010Prop56
140
1.0
102
RTVSPost2010PropOp56
 70
     1
102
RTVSPost2010Prop57
140
1.0
102
RTVSPost2010PropOp57
 70
     1
  0
XRECORD
  5
33B
102
{ACAD_REACTORS
330
33A
102
}
330
33A
100
AcDbXrecord
280
     1
102
RTVSPost2010Prop28
280
     0
102
RTVSPost2010PropOp28
 70
     0
102
RTVSPost2010Prop29
280
     1
102
RTVSPost2010PropOp29
 70
     0
102
RTVSPost2010Prop30
280
     1
102
RTVSPost2010PropOp30
 70
     0
102
RTVSPost2010Prop31
280
     0
102
RTVSPost2010PropOp31
 70
     0
102
RTVSPost2010Prop32
280
     0
102
RTVSPost2010PropOp32
 70
     0
102
RTVSPost2010Prop33
280
     0
102
RTVSPost2010PropOp33
 70
     0
102
RTVSPost2010Prop34
280
     0
102
RTVSPost2010PropOp34
 70
     0
102
RTVSPost2010Prop35
280
     0
102
RTVSPost2010PropOp35
 70
     0
102
RTVSPost2010Prop36
280
     0
102
RTVSPost2010PropOp36
 70
     0
102
RTVSPost2010Prop37
 90
       50
102
RTVSPost2010PropOp37
 70
     0
102
RTVSPost2010Prop38
140
0.0
102
RTVSPost2010PropOp38
 70
     0
102
RTVSPost2010Prop39
140
1.0
102
RTVSPost2010PropOp39
 70
     0
102
RTVSPost2010Prop40
 90
        0
102
RTVSPost2010PropOp40
 70
     0
102
RTVSPost2010Prop41ColorIndex
 90
       18
102
RTVSPost2010Prop41ColorRGB
 90
        0
102
RTVSPost2010PropOp41
 70
     0
102
RTVSPost2010Prop42
 90
       50
102
RTVSPost2010PropOp42
 70
     0
102
RTVSPost2010Prop43
 90
        3
102
RTVSPost2010PropOp43
 70
     0
102
RTVSPost2010Prop44ColorIndex
 90
        5
102
RTVSPost2010Prop44ColorRGB
 90
      255
102
RTVSPost2010PropOp44
 70
     0
102
RTVSPost2010Prop45
280
     0
102
RTVSPost2010PropOp45
 70
     0
102
RTVSPost2010Prop46
 90
       50
102
RTVSPost2010PropOp46
 70
     0
102
RTVSPost2010Prop47
 90
       50
102
RTVSPost2010PropOp47
 70
     0
102
RTVSPost2010Prop48
 90
       50
102
RTVSPost2010PropOp48
 70
     0
102
RTVSPost2010Prop49
280
     0
102
RTVSPost2010PropOp49
 70
     0
102
RTVSPost2010Prop50
 90
       50
102
RTVSPost2010PropOp50
 70
     0
102
RTVSPost2010Prop51ColorIndex
 90
      256
102
RTVSPost2010Prop51ColorRGB
 90
-16777216
102
RTVSPost2010PropOp51
 70
     0
102
RTVSPost2010Prop52
140
1.0
102
RTVSPost2010PropOp52
 70
     0
102
RTVSPost2010Prop53
 90
        2
102
RTVSPost2010PropOp53
 70
     0
102
RTVSPost2010Prop54
  1
strokes_ogs.tif
102
RTVSPost2010PropOp54
 70
     0
102
RTVSPost2010Prop55
280
     0
102
RTVSPost2010PropOp55
 70
     0
102
RTVSPost2010Prop56
140
1.0
102
RTVSPost2010PropOp56
 70
     0
102
RTVSPost2010Prop57
140
1.0
102
RTVSPost2010PropOp57
 70
     0
  0
XRECORD
  5
32B
102
{ACAD_REACTORS
330
32A
102
}
330
32A
100
AcDbXrecord
280
     1
102
RTVSPost2010Prop28
280
     0
102
RTVSPost2010PropOp28
 70
     1
102
RTVSPost2010Prop29
280
     1
102
RTVSPost2010PropOp29
 70
     1
102
RTVSPost2010Prop30
280
     1
102
RTVSPost2010PropOp30
 70
     1
102
RTVSPost2010Prop31
280
     0
102
RTVSPost2010PropOp31
 70
     1
102
RTVSPost2010Prop32
280
     0
102
RTVSPost2010PropOp32
 70
     1
102
RTVSPost2010Prop33
280
     0
102
RTVSPost2010PropOp33
 70
     1
102
RTVSPost2010Prop34
280
     0
102
RTVSPost2010PropOp34
 70
     1
102
RTVSPost2010Prop35
280
     0
102
RTVSPost2010PropOp35
 70
     1
102
RTVSPost2010Prop36
280
     0
102
RTVSPost2010PropOp36
 70
     1
102
RTVSPost2010Prop37
 90
       50
102
RTVSPost2010PropOp37
 70
     1
102
RTVSPost2010Prop38
140
0.0
102
RTVSPost2010PropOp38
 70
     1
102
RTVSPost2010Prop39
140
1.0
102
RTVSPost2010PropOp39
 70
     1
102
RTVSPost2010Prop40
 90
        0
102
RTVSPost2010PropOp40
 70
     1
102
RTVSPost2010Prop41ColorIndex
 90
       18
102
RTVSPost2010Prop41ColorRGB
 90
        0
102
RTVSPost2010PropOp41
 70
     1
102
RTVSPost2010Prop42
 90
       50
102
RTVSPost2010PropOp42
 70
     1
102
RTVSPost2010Prop43
 90
        3
102
RTVSPost2010PropOp43
 70
     1
102
RTVSPost2010Prop44ColorIndex
 90
        5
102
RTVSPost2010Prop44ColorRGB
 90
      255
102
RTVSPost2010PropOp44
 70
     1
102
RTVSPost2010Prop45
280
     0
102
RTVSPost2010PropOp45
 70
     1
102
RTVSPost2010Prop46
 90
       50
102
RTVSPost2010PropOp46
 70
     1
102
RTVSPost2010Prop47
 90
       50
102
RTVSPost2010PropOp47
 70
     1
102
RTVSPost2010Prop48
 90
       50
102
RTVSPost2010PropOp48
 70
     1
102
RTVSPost2010Prop49
280
     0
102
RTVSPost2010PropOp49
 70
     1
102
RTVSPost2010Prop50
 90
       50
102
RTVSPost2010PropOp50
 70
     1
102
RTVSPost2010Prop51ColorIndex
 90
      256
102
RTVSPost2010Prop51ColorRGB
 90
-16777216
102
RTVSPost2010PropOp51
 70
     0
102
RTVSPost2010Prop52
140
1.0
102
RTVSPost2010PropOp52
 70
     0
102
RTVSPost2010Prop53
 90
        2
102
RTVSPost2010PropOp53
 70
     1
102
RTVSPost2010Prop54
  1
strokes_ogs.tif
102
RTVSPost2010PropOp54
 70
     1
102
RTVSPost2010Prop55
280
     0
102
RTVSPost2010PropOp55
 70
     1
102
RTVSPost2010Prop56
140
1.0
102
RTVSPost2010PropOp56
 70
     1
102
RTVSPost2010Prop57
140
1.0
102
RTVSPost2010PropOp57
 70
     1
  0
XRECORD
  5
33D
102
{ACAD_REACTORS
330
33C
102
}
330
33C
100
AcDbXrecord
280
     1
102
RTVSPost2010Prop28
280
     0
102
RTVSPost2010PropOp28
 70
     0
102
RTVSPost2010Prop29
280
     1
102
RTVSPost2010PropOp29
 70
     0
102
RTVSPost2010Prop30
280
     1
102
RTVSPost2010PropOp30
 70
     0
102
RTVSPost2010Prop31
280
     0
102
RTVSPost2010PropOp31
 70
     0
102
RTVSPost2010Prop32
280
     0
102
RTVSPost2010PropOp32
 70
     0
102
RTVSPost2010Prop33
280
     0
102
RTVSPost2010PropOp33
 70
     0
102
RTVSPost2010Prop34
280
     0
102
RTVSPost2010PropOp34
 70
     0
102
RTVSPost2010Prop35
280
     0
102
RTVSPost2010PropOp35
 70
     0
102
RTVSPost2010Prop36
280
     0
102
RTVSPost2010PropOp36
 70
     0
102
RTVSPost2010Prop37
 90
       50
102
RTVSPost2010PropOp37
 70
     0
102
RTVSPost2010Prop38
140
0.0
102
RTVSPost2010PropOp38
 70
     0
102
RTVSPost2010Prop39
140
1.0
102
RTVSPost2010PropOp39
 70
     0
102
RTVSPost2010Prop40
 90
        0
102
RTVSPost2010PropOp40
 70
     0
102
RTVSPost2010Prop41ColorIndex
 90
       18
102
RTVSPost2010Prop41ColorRGB
 90
        0
102
RTVSPost2010PropOp41
 70
     0
102
RTVSPost2010Prop42
 90
       50
102
RTVSPost2010PropOp42
 70
     0
102
RTVSPost2010Prop43
 90
        3
102
RTVSPost2010PropOp43
 70
     0
102
RTVSPost2010Prop44ColorIndex
 90
        5
102
RTVSPost2010Prop44ColorRGB
 90
      255
102
RTVSPost2010PropOp44
 70
     0
102
RTVSPost2010Prop45
280
     0
102
RTVSPost2010PropOp45
 70
     0
102
RTVSPost2010Prop46
 90
       50
102
RTVSPost2010PropOp46
 70
     0
102
RTVSPost2010Prop47
 90
       50
102
RTVSPost2010PropOp47
 70
     0
102
RTVSPost2010Prop48
 90
       50
102
RTVSPost2010PropOp48
 70
     0
102
RTVSPost2010Prop49
280
     0
102
RTVSPost2010PropOp49
 70
     0
102
RTVSPost2010Prop50
 90
       50
102
RTVSPost2010PropOp50
 70
     0
102
RTVSPost2010Prop51ColorIndex
 90
      256
102
RTVSPost2010Prop51ColorRGB
 90
-16777216
102
RTVSPost2010PropOp51
 70
     0
102
RTVSPost2010Prop52
140
1.0
102
RTVSPost2010PropOp52
 70
     0
102
RTVSPost2010Prop53
 90
        2
102
RTVSPost2010PropOp53
 70
     0
102
RTVSPost2010Prop54
  1
strokes_ogs.tif
102
RTVSPost2010PropOp54
 70
     0
102
RTVSPost2010Prop55
280
     0
102
RTVSPost2010PropOp55
 70
     0
102
RTVSPost2010Prop56
140
1.0
102
RTVSPost2010PropOp56
 70
     0
102
RTVSPost2010Prop57
140
1.0
102
RTVSPost2010PropOp57
 70
     0
  0
XRECORD
  5
323
102
{ACAD_REACTORS
330
322
102
}
330
322
100
AcDbXrecord
280
     1
102
RTVSPost2010Prop28
280
     0
102
RTVSPost2010PropOp28
 70
     1
102
RTVSPost2010Prop29
280
     1
102
RTVSPost2010PropOp29
 70
     1
102
RTVSPost2010Prop30
280
     1
102
RTVSPost2010PropOp30
 70
     1
102
RTVSPost2010Prop31
280
     0
102
RTVSPost2010PropOp31
 70
     1
102
RTVSPost2010Prop32
280
     0
102
RTVSPost2010PropOp32
 70
     1
102
RTVSPost2010Prop33
280
     0
102
RTVSPost2010PropOp33
 70
     1
102
RTVSPost2010Prop34
280
     0
102
RTVSPost2010PropOp34
 70
     1
102
RTVSPost2010Prop35
280
     0
102
RTVSPost2010PropOp35
 70
     1
102
RTVSPost2010Prop36
280
     0
102
RTVSPost2010PropOp36
 70
     1
102
RTVSPost2010Prop37
 90
       50
102
RTVSPost2010PropOp37
 70
     1
102
RTVSPost2010Prop38
140
0.0
102
RTVSPost2010PropOp38
 70
     1
102
RTVSPost2010Prop39
140
1.0
102
RTVSPost2010PropOp39
 70
     1
102
RTVSPost2010Prop40
 90
        0
102
RTVSPost2010PropOp40
 70
     1
102
RTVSPost2010Prop41ColorIndex
 90
       18
102
RTVSPost2010Prop41ColorRGB
 90
        0
102
RTVSPost2010PropOp41
 70
     1
102
RTVSPost2010Prop42
 90
       50
102
RTVSPost2010PropOp42
 70
     1
102
RTVSPost2010Prop43
 90
        3
102
RTVSPost2010PropOp43
 70
     1
102
RTVSPost2010Prop44ColorIndex
 90
        5
102
RTVSPost2010Prop44ColorRGB
 90
      255
102
RTVSPost2010PropOp44
 70
     1
102
RTVSPost2010Prop45
280
     0
102
RTVSPost2010PropOp45
 70
     1
102
RTVSPost2010Prop46
 90
       50
102
RTVSPost2010PropOp46
 70
     1
102
RTVSPost2010Prop47
 90
       50
102
RTVSPost2010PropOp47
 70
     1
102
RTVSPost2010Prop48
 90
       50
102
RTVSPost2010PropOp48
 70
     1
102
RTVSPost2010Prop49
280
     0
102
RTVSPost2010PropOp49
 70
     1
102
RTVSPost2010Prop50
 90
       50
102
RTVSPost2010PropOp50
 70
     1
102
RTVSPost2010Prop51ColorIndex
 90
      256
102
RTVSPost2010Prop51ColorRGB
 90
-16777216
102
RTVSPost2010PropOp51
 70
     0
102
RTVSPost2010Prop52
140
1.0
102
RTVSPost2010PropOp52
 70
     0
102
RTVSPost2010Prop53
 90
        2
102
RTVSPost2010PropOp53
 70
     1
102
RTVSPost2010Prop54
  1
strokes_ogs.tif
102
RTVSPost2010PropOp54
 70
     1
102
RTVSPost2010Prop55
280
     0
102
RTVSPost2010PropOp55
 70
     1
102
RTVSPost2010Prop56
140
1.0
102
RTVSPost2010PropOp56
 70
     1
102
RTVSPost2010Prop57
140
1.0
102
RTVSPost2010PropOp57
 70
     1
  0
XRECORD
  5
339
102
{ACAD_REACTORS
330
338
102
}
330
338
100
AcDbXrecord
280
     1
102
RTVSPost2010Prop28
280
     0
102
RTVSPost2010PropOp28
 70
     1
102
RTVSPost2010Prop29
280
     1
102
RTVSPost2010PropOp29
 70
     1
102
RTVSPost2010Prop30
280
     1
102
RTVSPost2010PropOp30
 70
     1
102
RTVSPost2010Prop31
280
     0
102
RTVSPost2010PropOp31
 70
     1
102
RTVSPost2010Prop32
280
     0
102
RTVSPost2010PropOp32
 70
     1
102
RTVSPost2010Prop33
280
     0
102
RTVSPost2010PropOp33
 70
     1
102
RTVSPost2010Prop34
280
     0
102
RTVSPost2010PropOp34
 70
     1
102
RTVSPost2010Prop35
280
     0
102
RTVSPost2010PropOp35
 70
     1
102
RTVSPost2010Prop36
280
     0
102
RTVSPost2010PropOp36
 70
     1
102
RTVSPost2010Prop37
 90
       50
102
RTVSPost2010PropOp37
 70
     1
102
RTVSPost2010Prop38
140
0.0
102
RTVSPost2010PropOp38
 70
     1
102
RTVSPost2010Prop39
140
1.0
102
RTVSPost2010PropOp39
 70
     1
102
RTVSPost2010Prop40
 90
        0
102
RTVSPost2010PropOp40
 70
     1
102
RTVSPost2010Prop41ColorIndex
 90
       18
102
RTVSPost2010Prop41ColorRGB
 90
        0
102
RTVSPost2010PropOp41
 70
     1
102
RTVSPost2010Prop42
 90
       50
102
RTVSPost2010PropOp42
 70
     1
102
RTVSPost2010Prop43
 90
        3
102
RTVSPost2010PropOp43
 70
     1
102
RTVSPost2010Prop44ColorIndex
 90
        5
102
RTVSPost2010Prop44ColorRGB
 90
      255
102
RTVSPost2010PropOp44
 70
     1
102
RTVSPost2010Prop45
280
     0
102
RTVSPost2010PropOp45
 70
     1
102
RTVSPost2010Prop46
 90
       50
102
RTVSPost2010PropOp46
 70
     1
102
RTVSPost2010Prop47
 90
       50
102
RTVSPost2010PropOp47
 70
     1
102
RTVSPost2010Prop48
 90
       50
102
RTVSPost2010PropOp48
 70
     1
102
RTVSPost2010Prop49
280
     0
102
RTVSPost2010PropOp49
 70
     1
102
RTVSPost2010Prop50
 90
       50
102
RTVSPost2010PropOp50
 70
     1
102
RTVSPost2010Prop51ColorIndex
 90
      256
102
RTVSPost2010Prop51ColorRGB
 90
-16777216
102
RTVSPost2010PropOp51
 70
     0
102
RTVSPost2010Prop52
140
1.0
102
RTVSPost2010PropOp52
 70
     0
102
RTVSPost2010Prop53
 90
        2
102
RTVSPost2010PropOp53
 70
     1
102
RTVSPost2010Prop54
  1
strokes_ogs.tif
102
RTVSPost2010PropOp54
 70
     1
102
RTVSPost2010Prop55
280
     0
102
RTVSPost2010PropOp55
 70
     1
102
RTVSPost2010Prop56
140
1.0
102
RTVSPost2010PropOp56
 70
     1
102
RTVSPost2010Prop57
140
1.0
102
RTVSPost2010PropOp57
 70
     1
  0
XRECORD
  5
337
102
{ACAD_REACTORS
330
336
102
}
330
336
100
AcDbXrecord
280
     1
102
RTVSPost2010Prop28
280
     0
102
RTVSPost2010PropOp28
 70
     1
102
RTVSPost2010Prop29
280
     1
102
RTVSPost2010PropOp29
 70
     1
102
RTVSPost2010Prop30
280
     1
102
RTVSPost2010PropOp30
 70
     1
102
RTVSPost2010Prop31
280
     0
102
RTVSPost2010PropOp31
 70
     1
102
RTVSPost2010Prop32
280
     0
102
RTVSPost2010PropOp32
 70
     1
102
RTVSPost2010Prop33
280
     0
102
RTVSPost2010PropOp33
 70
     1
102
RTVSPost2010Prop34
280
     0
102
RTVSPost2010PropOp34
 70
     1
102
RTVSPost2010Prop35
280
     0
102
RTVSPost2010PropOp35
 70
     1
102
RTVSPost2010Prop36
280
     0
102
RTVSPost2010PropOp36
 70
     1
102
RTVSPost2010Prop37
 90
       50
102
RTVSPost2010PropOp37
 70
     1
102
RTVSPost2010Prop38
140
0.0
102
RTVSPost2010PropOp38
 70
     1
102
RTVSPost2010Prop39
140
1.0
102
RTVSPost2010PropOp39
 70
     1
102
RTVSPost2010Prop40
 90
        0
102
RTVSPost2010PropOp40
 70
     1
102
RTVSPost2010Prop41ColorIndex
 90
       18
102
RTVSPost2010Prop41ColorRGB
 90
        0
102
RTVSPost2010PropOp41
 70
     1
102
RTVSPost2010Prop42
 90
       50
102
RTVSPost2010PropOp42
 70
     1
102
RTVSPost2010Prop43
 90
        3
102
RTVSPost2010PropOp43
 70
     1
102
RTVSPost2010Prop44ColorIndex
 90
        5
102
RTVSPost2010Prop44ColorRGB
 90
      255
102
RTVSPost2010PropOp44
 70
     1
102
RTVSPost2010Prop45
280
     0
102
RTVSPost2010PropOp45
 70
     1
102
RTVSPost2010Prop46
 90
       50
102
RTVSPost2010PropOp46
 70
     1
102
RTVSPost2010Prop47
 90
       50
102
RTVSPost2010PropOp47
 70
     1
102
RTVSPost2010Prop48
 90
       50
102
RTVSPost2010PropOp48
 70
     1
102
RTVSPost2010Prop49
280
     0
102
RTVSPost2010PropOp49
 70
     1
102
RTVSPost2010Prop50
 90
       50
102
RTVSPost2010PropOp50
 70
     1
102
RTVSPost2010Prop51ColorIndex
 90
      256
102
RTVSPost2010Prop51ColorRGB
 90
-16777216
102
RTVSPost2010PropOp51
 70
     0
102
RTVSPost2010Prop52
140
1.0
102
RTVSPost2010PropOp52
 70
     0
102
RTVSPost2010Prop53
 90
        2
102
RTVSPost2010PropOp53
 70
     1
102
RTVSPost2010Prop54
  1
strokes_ogs.tif
102
RTVSPost2010PropOp54
 70
     1
102
RTVSPost2010Prop55
280
     0
102
RTVSPost2010PropOp55
 70
     1
102
RTVSPost2010Prop56
140
1.0
102
RTVSPost2010PropOp56
 70
     1
102
RTVSPost2010Prop57
140
1.0
102
RTVSPost2010PropOp57
 70
     1
  0
XRECORD
  5
331
102
{ACAD_REACTORS
330
330
102
}
330
330
100
AcDbXrecord
280
     1
102
RTVSPost2010Prop28
280
     0
102
RTVSPost2010PropOp28
 70
     1
102
RTVSPost2010Prop29
280
     1
102
RTVSPost2010PropOp29
 70
     1
102
RTVSPost2010Prop30
280
     1
102
RTVSPost2010PropOp30
 70
     1
102
RTVSPost2010Prop31
280
     0
102
RTVSPost2010PropOp31
 70
     1
102
RTVSPost2010Prop32
280
     0
102
RTVSPost2010PropOp32
 70
     1
102
RTVSPost2010Prop33
280
     0
102
RTVSPost2010PropOp33
 70
     1
102
RTVSPost2010Prop34
280
     0
102
RTVSPost2010PropOp34
 70
     1
102
RTVSPost2010Prop35
280
     0
102
RTVSPost2010PropOp35
 70
     1
102
RTVSPost2010Prop36
280
     0
102
RTVSPost2010PropOp36
 70
     1
102
RTVSPost2010Prop37
 90
       50
102
RTVSPost2010PropOp37
 70
     1
102
RTVSPost2010Prop38
140
0.0
102
RTVSPost2010PropOp38
 70
     1
102
RTVSPost2010Prop39
140
1.0
102
RTVSPost2010PropOp39
 70
     1
102
RTVSPost2010Prop40
 90
        0
102
RTVSPost2010PropOp40
 70
     1
102
RTVSPost2010Prop41ColorIndex
 90
       18
102
RTVSPost2010Prop41ColorRGB
 90
        0
102
RTVSPost2010PropOp41
 70
     1
102
RTVSPost2010Prop42
 90
       50
102
RTVSPost2010PropOp42
 70
     1
102
RTVSPost2010Prop43
 90
        3
102
RTVSPost2010PropOp43
 70
     1
102
RTVSPost2010Prop44ColorIndex
 90
        5
102
RTVSPost2010Prop44ColorRGB
 90
      255
102
RTVSPost2010PropOp44
 70
     1
102
RTVSPost2010Prop45
280
     0
102
RTVSPost2010PropOp45
 70
     1
102
RTVSPost2010Prop46
 90
       50
102
RTVSPost2010PropOp46
 70
     1
102
RTVSPost2010Prop47
 90
       50
102
RTVSPost2010PropOp47
 70
     1
102
RTVSPost2010Prop48
 90
       50
102
RTVSPost2010PropOp48
 70
     1
102
RTVSPost2010Prop49
280
     0
102
RTVSPost2010PropOp49
 70
     1
102
RTVSPost2010Prop50
 90
       50
102
RTVSPost2010PropOp50
 70
     1
102
RTVSPost2010Prop51ColorIndex
 90
      256
102
RTVSPost2010Prop51ColorRGB
 90
-16777216
102
RTVSPost2010PropOp51
 70
     0
102
RTVSPost2010Prop52
140
1.0
102
RTVSPost2010PropOp52
 70
     0
102
RTVSPost2010Prop53
 90
        2
102
RTVSPost2010PropOp53
 70
     1
102
RTVSPost2010Prop54
  1
strokes_ogs.tif
102
RTVSPost2010PropOp54
 70
     1
102
RTVSPost2010Prop55
280
     0
102
RTVSPost2010PropOp55
 70
     1
102
RTVSPost2010Prop56
140
1.0
102
RTVSPost2010PropOp56
 70
     1
102
RTVSPost2010Prop57
140
1.0
102
RTVSPost2010PropOp57
 70
     1
  0
XRECORD
  5
333
102
{ACAD_REACTORS
330
332
102
}
330
332
100
AcDbXrecord
280
     1
102
RTVSPost2010Prop28
280
     0
102
RTVSPost2010PropOp28
 70
     1
102
RTVSPost2010Prop29
280
     1
102
RTVSPost2010PropOp29
 70
     1
102
RTVSPost2010Prop30
280
     1
102
RTVSPost2010PropOp30
 70
     1
102
RTVSPost2010Prop31
280
     0
102
RTVSPost2010PropOp31
 70
     1
102
RTVSPost2010Prop32
280
     0
102
RTVSPost2010PropOp32
 70
     1
102
RTVSPost2010Prop33
280
     0
102
RTVSPost2010PropOp33
 70
     1
102
RTVSPost2010Prop34
280
     0
102
RTVSPost2010PropOp34
 70
     1
102
RTVSPost2010Prop35
280
     0
102
RTVSPost2010PropOp35
 70
     1
102
RTVSPost2010Prop36
280
     0
102
RTVSPost2010PropOp36
 70
     1
102
RTVSPost2010Prop37
 90
       50
102
RTVSPost2010PropOp37
 70
     1
102
RTVSPost2010Prop38
140
0.0
102
RTVSPost2010PropOp38
 70
     1
102
RTVSPost2010Prop39
140
1.0
102
RTVSPost2010PropOp39
 70
     1
102
RTVSPost2010Prop40
 90
        0
102
RTVSPost2010PropOp40
 70
     1
102
RTVSPost2010Prop41ColorIndex
 90
       18
102
RTVSPost2010Prop41ColorRGB
 90
        0
102
RTVSPost2010PropOp41
 70
     1
102
RTVSPost2010Prop42
 90
       50
102
RTVSPost2010PropOp42
 70
     1
102
RTVSPost2010Prop43
 90
        3
102
RTVSPost2010PropOp43
 70
     1
102
RTVSPost2010Prop44ColorIndex
 90
        5
102
RTVSPost2010Prop44ColorRGB
 90
      255
102
RTVSPost2010PropOp44
 70
     1
102
RTVSPost2010Prop45
280
     0
102
RTVSPost2010PropOp45
 70
     1
102
RTVSPost2010Prop46
 90
       50
102
RTVSPost2010PropOp46
 70
     1
102
RTVSPost2010Prop47
 90
       50
102
RTVSPost2010PropOp47
 70
     1
102
RTVSPost2010Prop48
 90
       50
102
RTVSPost2010PropOp48
 70
     1
102
RTVSPost2010Prop49
280
     0
102
RTVSPost2010PropOp49
 70
     1
102
RTVSPost2010Prop50
 90
       50
102
RTVSPost2010PropOp50
 70
     1
102
RTVSPost2010Prop51ColorIndex
 90
      256
102
RTVSPost2010Prop51ColorRGB
 90
-16777216
102
RTVSPost2010PropOp51
 70
     0
102
RTVSPost2010Prop52
140
1.0
102
RTVSPost2010PropOp52
 70
     0
102
RTVSPost2010Prop53
 90
        2
102
RTVSPost2010PropOp53
 70
     1
102
RTVSPost2010Prop54
  1
strokes_ogs.tif
102
RTVSPost2010PropOp54
 70
     1
102
RTVSPost2010Prop55
280
     0
102
RTVSPost2010PropOp55
 70
     1
102
RTVSPost2010Prop56
140
1.0
102
RTVSPost2010PropOp56
 70
     1
102
RTVSPost2010Prop57
140
1.0
102
RTVSPost2010PropOp57
 70
     1
  0
XRECORD
  5
329
102
{ACAD_REACTORS
330
328
102
}
330
328
100
AcDbXrecord
280
     1
102
RTVSPost2010Prop28
280
     0
102
RTVSPost2010PropOp28
 70
     1
102
RTVSPost2010Prop29
280
     1
102
RTVSPost2010PropOp29
 70
     1
102
RTVSPost2010Prop30
280
     1
102
RTVSPost2010PropOp30
 70
     1
102
RTVSPost2010Prop31
280
     0
102
RTVSPost2010PropOp31
 70
     1
102
RTVSPost2010Prop32
280
     0
102
RTVSPost2010PropOp32
 70
     1
102
RTVSPost2010Prop33
280
     0
102
RTVSPost2010PropOp33
 70
     1
102
RTVSPost2010Prop34
280
     0
102
RTVSPost2010PropOp34
 70
     1
102
RTVSPost2010Prop35
280
     0
102
RTVSPost2010PropOp35
 70
     1
102
RTVSPost2010Prop36
280
     0
102
RTVSPost2010PropOp36
 70
     1
102
RTVSPost2010Prop37
 90
       50
102
RTVSPost2010PropOp37
 70
     1
102
RTVSPost2010Prop38
140
0.0
102
RTVSPost2010PropOp38
 70
     1
102
RTVSPost2010Prop39
140
1.0
102
RTVSPost2010PropOp39
 70
     1
102
RTVSPost2010Prop40
 90
        0
102
RTVSPost2010PropOp40
 70
     1
102
RTVSPost2010Prop41ColorIndex
 90
       18
102
RTVSPost2010Prop41ColorRGB
 90
        0
102
RTVSPost2010PropOp41
 70
     1
102
RTVSPost2010Prop42
 90
       50
102
RTVSPost2010PropOp42
 70
     1
102
RTVSPost2010Prop43
 90
        3
102
RTVSPost2010PropOp43
 70
     1
102
RTVSPost2010Prop44ColorIndex
 90
        5
102
RTVSPost2010Prop44ColorRGB
 90
      255
102
RTVSPost2010PropOp44
 70
     1
102
RTVSPost2010Prop45
280
     0
102
RTVSPost2010PropOp45
 70
     1
102
RTVSPost2010Prop46
 90
       50
102
RTVSPost2010PropOp46
 70
     1
102
RTVSPost2010Prop47
 90
       50
102
RTVSPost2010PropOp47
 70
     1
102
RTVSPost2010Prop48
 90
       50
102
RTVSPost2010PropOp48
 70
     1
102
RTVSPost2010Prop49
280
     0
102
RTVSPost2010PropOp49
 70
     1
102
RTVSPost2010Prop50
 90
       50
102
RTVSPost2010PropOp50
 70
     1
102
RTVSPost2010Prop51ColorIndex
 90
      256
102
RTVSPost2010Prop51ColorRGB
 90
-16777216
102
RTVSPost2010PropOp51
 70
     0
102
RTVSPost2010Prop52
140
1.0
102
RTVSPost2010PropOp52
 70
     0
102
RTVSPost2010Prop53
 90
        2
102
RTVSPost2010PropOp53
 70
     1
102
RTVSPost2010Prop54
  1
strokes_ogs.tif
102
RTVSPost2010PropOp54
 70
     1
102
RTVSPost2010Prop55
280
     0
102
RTVSPost2010PropOp55
 70
     1
102
RTVSPost2010Prop56
140
1.0
102
RTVSPost2010PropOp56
 70
     1
102
RTVSPost2010Prop57
140
1.0
102
RTVSPost2010PropOp57
 70
     1
  0
XRECORD
  5
31D
102
{ACAD_REACTORS
330
31C
102
}
330
31C
100
AcDbXrecord
280
     1
102
RTVSPost2010Prop28
280
     0
102
RTVSPost2010PropOp28
 70
     1
102
RTVSPost2010Prop29
280
     1
102
RTVSPost2010PropOp29
 70
     1
102
RTVSPost2010Prop30
280
     1
102
RTVSPost2010PropOp30
 70
     1
102
RTVSPost2010Prop31
280
     0
102
RTVSPost2010PropOp31
 70
     1
102
RTVSPost2010Prop32
280
     0
102
RTVSPost2010PropOp32
 70
     1
102
RTVSPost2010Prop33
280
     0
102
RTVSPost2010PropOp33
 70
     1
102
RTVSPost2010Prop34
280
     0
102
RTVSPost2010PropOp34
 70
     1
102
RTVSPost2010Prop35
280
     0
102
RTVSPost2010PropOp35
 70
     1
102
RTVSPost2010Prop36
280
     0
102
RTVSPost2010PropOp36
 70
     1
102
RTVSPost2010Prop37
 90
       50
102
RTVSPost2010PropOp37
 70
     1
102
RTVSPost2010Prop38
140
0.0
102
RTVSPost2010PropOp38
 70
     1
102
RTVSPost2010Prop39
140
1.0
102
RTVSPost2010PropOp39
 70
     1
102
RTVSPost2010Prop40
 90
        0
102
RTVSPost2010PropOp40
 70
     1
102
RTVSPost2010Prop41ColorIndex
 90
       18
102
RTVSPost2010Prop41ColorRGB
 90
        0
102
RTVSPost2010PropOp41
 70
     1
102
RTVSPost2010Prop42
 90
       50
102
RTVSPost2010PropOp42
 70
     1
102
RTVSPost2010Prop43
 90
        3
102
RTVSPost2010PropOp43
 70
     1
102
RTVSPost2010Prop44ColorIndex
 90
        5
102
RTVSPost2010Prop44ColorRGB
 90
      255
102
RTVSPost2010PropOp44
 70
     1
102
RTVSPost2010Prop45
280
     0
102
RTVSPost2010PropOp45
 70
     1
102
RTVSPost2010Prop46
 90
       50
102
RTVSPost2010PropOp46
 70
     1
102
RTVSPost2010Prop47
 90
       50
102
RTVSPost2010PropOp47
 70
     1
102
RTVSPost2010Prop48
 90
       50
102
RTVSPost2010PropOp48
 70
     1
102
RTVSPost2010Prop49
280
     0
102
RTVSPost2010PropOp49
 70
     1
102
RTVSPost2010Prop50
 90
       50
102
RTVSPost2010PropOp50
 70
     1
102
RTVSPost2010Prop51ColorIndex
 90
      256
102
RTVSPost2010Prop51ColorRGB
 90
-16777216
102
RTVSPost2010PropOp51
 70
     0
102
RTVSPost2010Prop52
140
1.0
102
RTVSPost2010PropOp52
 70
     0
102
RTVSPost2010Prop53
 90
        2
102
RTVSPost2010PropOp53
 70
     1
102
RTVSPost2010Prop54
  1
strokes_ogs.tif
102
RTVSPost2010PropOp54
 70
     1
102
RTVSPost2010Prop55
280
     0
102
RTVSPost2010PropOp55
 70
     1
102
RTVSPost2010Prop56
140
1.0
102
RTVSPost2010PropOp56
 70
     1
102
RTVSPost2010Prop57
140
1.0
102
RTVSPost2010PropOp57
 70
     1
  0
XRECORD
  5
335
102
{ACAD_REACTORS
330
334
102
}
330
334
100
AcDbXrecord
280
     1
102
RTVSPost2010Prop28
280
     0
102
RTVSPost2010PropOp28
 70
     1
102
RTVSPost2010Prop29
280
     1
102
RTVSPost2010PropOp29
 70
     1
102
RTVSPost2010Prop30
280
     1
102
RTVSPost2010PropOp30
 70
     1
102
RTVSPost2010Prop31
280
     0
102
RTVSPost2010PropOp31
 70
     1
102
RTVSPost2010Prop32
280
     0
102
RTVSPost2010PropOp32
 70
     1
102
RTVSPost2010Prop33
280
     0
102
RTVSPost2010PropOp33
 70
     1
102
RTVSPost2010Prop34
280
     0
102
RTVSPost2010PropOp34
 70
     1
102
RTVSPost2010Prop35
280
     0
102
RTVSPost2010PropOp35
 70
     1
102
RTVSPost2010Prop36
280
     0
102
RTVSPost2010PropOp36
 70
     1
102
RTVSPost2010Prop37
 90
       50
102
RTVSPost2010PropOp37
 70
     1
102
RTVSPost2010Prop38
140
0.0
102
RTVSPost2010PropOp38
 70
     1
102
RTVSPost2010Prop39
140
1.0
102
RTVSPost2010PropOp39
 70
     1
102
RTVSPost2010Prop40
 90
        0
102
RTVSPost2010PropOp40
 70
     1
102
RTVSPost2010Prop41ColorIndex
 90
       18
102
RTVSPost2010Prop41ColorRGB
 90
        0
102
RTVSPost2010PropOp41
 70
     1
102
RTVSPost2010Prop42
 90
       50
102
RTVSPost2010PropOp42
 70
     1
102
RTVSPost2010Prop43
 90
        3
102
RTVSPost2010PropOp43
 70
     1
102
RTVSPost2010Prop44ColorIndex
 90
        5
102
RTVSPost2010Prop44ColorRGB
 90
      255
102
RTVSPost2010PropOp44
 70
     1
102
RTVSPost2010Prop45
280
     0
102
RTVSPost2010PropOp45
 70
     1
102
RTVSPost2010Prop46
 90
       50
102
RTVSPost2010PropOp46
 70
     1
102
RTVSPost2010Prop47
 90
       50
102
RTVSPost2010PropOp47
 70
     1
102
RTVSPost2010Prop48
 90
       50
102
RTVSPost2010PropOp48
 70
     1
102
RTVSPost2010Prop49
280
     0
102
RTVSPost2010PropOp49
 70
     1
102
RTVSPost2010Prop50
 90
       50
102
RTVSPost2010PropOp50
 70
     1
102
RTVSPost2010Prop51ColorIndex
 90
      256
102
RTVSPost2010Prop51ColorRGB
 90
-16777216
102
RTVSPost2010PropOp51
 70
     0
102
RTVSPost2010Prop52
140
1.0
102
RTVSPost2010PropOp52
 70
     0
102
RTVSPost2010Prop53
 90
        2
102
RTVSPost2010PropOp53
 70
     1
102
RTVSPost2010Prop54
  1
strokes_ogs.tif
102
RTVSPost2010PropOp54
 70
     1
102
RTVSPost2010Prop55
280
     0
102
RTVSPost2010PropOp55
 70
     1
102
RTVSPost2010Prop56
140
1.0
102
RTVSPost2010PropOp56
 70
     1
102
RTVSPost2010Prop57
140
1.0
102
RTVSPost2010PropOp57
 70
     1
  0
ENDSEC
  0
EOF
