  0
SECTION
  2
HEADER
  9
$ACADVER
  1
AC1024
  9
$ACADMAINTVER
 70
   226
  9
$DWGCODEPAGE
  3
ANSI_1252
  9
$INSBASE
 10
0.0
 20
0.0
 30
0.0
  9
$EXTMIN
 10
1.000000000000000E+20
 20
1.000000000000000E+20
 30
1.000000000000000E+20
  9
$EXTMAX
 10
-1.000000000000000E+20
 20
-1.000000000000000E+20
 30
-1.000000000000000E+20
  9
$LIMMIN
 10
0.0
 20
0.0
  9
$LIMMAX
 10
12.0
 20
9.0
  9
$ORTHOMODE
 70
     0
  9
$REGENMODE
 70
     1
  9
$FILLMODE
 70
     1
  9
$QTEXTMODE
 70
     0
  9
$MIRRTEXT
 70
     1
  9
$LTSCALE
 40
1.0
  9
$ATTMODE
 70
     1
  9
$TEXTSIZE
 40
0.2
  9
$TRACEWID
 40
0.05
  9
$TEXTSTYLE
  7
Standard
  9
$CLAYER
  8
0
  9
$CELTYPE
  6
ByLayer
  9
$CECOLOR
 62
   256
  9
$CELTSCALE
 40
1.0
  9
$DISPSILH
 70
     0
  9
$DIMSCALE
 40
1.0
  9
$DIMASZ
 40
0.18
  9
$DIMEXO
 40
0.0625
  9
$DIMDLI
 40
0.38
  9
$DIMRND
 40
0.0
  9
$DIMDLE
 40
0.0
  9
$DIMEXE
 40
0.18
  9
$DIMTP
 40
0.0
  9
$DIMTM
 40
0.0
  9
$DIMTXT
 40
0.18
  9
$DIMCEN
 40
0.09
  9
$DIMTSZ
 40
0.0
  9
$DIMTOL
 70
     0
  9
$DIMLIM
 70
     0
  9
$DIMTIH
 70
     1
  9
$DIMTOH
 70
     1
  9
$DIMSE1
 70
     0
  9
$DIMSE2
 70
     0
  9
$DIMTAD
 70
     0
  9
$DIMZIN
 70
     0
  9
$DIMBLK
  1

  9
$DIMASO
 70
     1
  9
$DIMSHO
 70
     1
  9
$DIMPOST
  1

  9
$DIMAPOST
  1

  9
$DIMALT
 70
     0
  9
$DIMALTD
 70
     2
  9
$DIMALTF
 40
25.4
  9
$DIMLFAC
 40
1.0
  9
$DIMTOFL
 70
     0
  9
$DIMTVP
 40
0.0
  9
$DIMTIX
 70
     0
  9
$DIMSOXD
 70
     0
  9
$DIMSAH
 70
     0
  9
$DIMBLK1
  1

  9
$DIMBLK2
  1

  9
$DIMSTYLE
  2
Standard
  9
$DIMCLRD
 70
     0
  9
$DIMCLRE
 70
     0
  9
$DIMCLRT
 70
     0
  9
$DIMTFAC
 40
1.0
  9
$DIMGAP
 40
0.09
  9
$DIMJUST
 70
     0
  9
$DIMSD1
 70
     0
  9
$DIMSD2
 70
     0
  9
$DIMTOLJ
 70
     1
  9
$DIMTZIN
 70
     0
  9
$DIMALTZ
 70
     0
  9
$DIMALTTZ
 70
     0
  9
$DIMUPT
 70
     0
  9
$DIMDEC
 70
     4
  9
$DIMTDEC
 70
     4
  9
$DIMALTU
 70
     2
  9
$DIMALTTD
 70
     2
  9
$DIMTXSTY
  7
Standard
  9
$DIMAUNIT
 70
     0
  9
$DIMADEC
 70
     0
  9
$DIMALTRND
 40
0.0
  9
$DIMAZIN
 70
     0
  9
$DIMDSEP
 70
    46
  9
$DIMATFIT
 70
     3
  9
$DIMFRAC
 70
     0
  9
$DIMLDRBLK
  1

  9
$DIMLUNIT
 70
     2
  9
$DIMLWD
 70
    -2
  9
$DIMLWE
 70
    -2
  9
$DIMTMOVE
 70
     0
  9
$DIMFXL
 40
1.0
  9
$DIMFXLON
 70
     0
  9
$DIMJOGANG
 40
0.7853981633974483
  9
$DIMTFILL
 70
     0
  9
$DIMTFILLCLR
 70
     0
  9
$DIMARCSYM
 70
     0
  9
$DIMLTYPE
  6

  9
$DIMLTEX1
  6

  9
$DIMLTEX2
  6

  9
$DIMTXTDIRECTION
 70
     0
  9
$LUNITS
 70
     2
  9
$LUPREC
 70
     4
  9
$SKETCHINC
 40
0.1
  9
$FILLETRAD
 40
0.5
  9
$AUNITS
 70
     0
  9
$AUPREC
 70
     0
  9
$MENU
  1
.
  9
$ELEVATION
 40
0.0
  9
$PELEVATION
 40
0.0
  9
$THICKNESS
 40
0.0
  9
$LIMCHECK
 70
     0
  9
$CHAMFERA
 40
0.5
  9
$CHAMFERB
 40
0.5
  9
$CHAMFERC
 40
1.0
  9
$CHAMFERD
 40
0.0
  9
$SKPOLY
 70
     0
  9
$TDCREATE
 40
2451380.888761574
  9
$TDUCREATE
 40
2451380.805432396
  9
$TDUPDATE
 40
2451380.924513889
  9
$TDUUPDATE
 40
2451380.841180556
  9
$TDINDWG
 40
0.0075602199
  9
$TDUSRTIMER
 40
0.0075511806
  9
$USRTIMER
 70
     1
  9
$ANGBASE
 50
0.0
  9
$ANGDIR
 70
     0
  9
$PDMODE
 70
     0
  9
$PDSIZE
 40
0.0
  9
$PLINEWID
 40
0.0
  9
$SPLFRAME
 70
     0
  9
$SPLINETYPE
 70
     6
  9
$SPLINESEGS
 70
     8
  9
$HANDSEED
  5
34C
  9
$SURFTAB1
 70
     6
  9
$SURFTAB2
 70
     6
  9
$SURFTYPE
 70
     6
  9
$SURFU
 70
     6
  9
$SURFV
 70
     6
  9
$UCSBASE
  2

  9
$UCSNAME
  2

  9
$UCSORG
 10
0.0
 20
0.0
 30
0.0
  9
$UCSXDIR
 10
1.0
 20
0.0
 30
0.0
  9
$UCSYDIR
 10
0.0
 20
1.0
 30
0.0
  9
$UCSORTHOREF
  2

  9
$UCSORTHOVIEW
 70
     0
  9
$UCSORGTOP
 10
0.0
 20
0.0
 30
0.0
  9
$UCSORGBOTTOM
 10
0.0
 20
0.0
 30
0.0
  9
$UCSORGLEFT
 10
0.0
 20
0.0
 30
0.0
  9
$UCSORGRIGHT
 10
0.0
 20
0.0
 30
0.0
  9
$UCSORGFRONT
 10
0.0
 20
0.0
 30
0.0
  9
$UCSORGBACK
 10
0.0
 20
0.0
 30
0.0
  9
$PUCSBASE
  2

  9
$PUCSNAME
  2

  9
$PUCSORG
 10
0.0
 20
0.0
 30
0.0
  9
$PUCSXDIR
 10
1.0
 20
0.0
 30
0.0
  9
$PUCSYDIR
 10
0.0
 20
1.0
 30
0.0
  9
$PUCSORTHOREF
  2

  9
$PUCSORTHOVIEW
 70
     0
  9
$PUCSORGTOP
 10
0.0
 20
0.0
 30
0.0
  9
$PUCSORGBOTTOM
 10
0.0
 20
0.0
 30
0.0
  9
$PUCSORGLEFT
 10
0.0
 20
0.0
 30
0.0
  9
$PUCSORGRIGHT
 10
0.0
 20
0.0
 30
0.0
  9
$PUCSORGFRONT
 10
0.0
 20
0.0
 30
0.0
  9
$PUCSORGBACK
 10
0.0
 20
0.0
 30
0.0
  9
$USERI1
 70
     0
  9
$USERI2
 70
     0
  9
$USERI3
 70
     0
  9
$USERI4
 70
     0
  9
$USERI5
 70
     0
  9
$USERR1
 40
0.0
  9
$USERR2
 40
0.0
  9
$USERR3
 40
0.0
  9
$USERR4
 40
0.0
  9
$USERR5
 40
0.0
  9
$WORLDVIEW
 70
     1
  9
$SHADEDGE
 70
     3
  9
$SHADEDIF
 70
    70
  9
$TILEMODE
 70
     1
  9
$MAXACTVP
 70
    64
  9
$PINSBASE
 10
0.0
 20
0.0
 30
0.0
  9
$PLIMCHECK
 70
     0
  9
$PEXTMIN
 10
1.000000000000000E+20
 20
1.000000000000000E+20
 30
1.000000000000000E+20
  9
$PEXTMAX
 10
-1.000000000000000E+20
 20
-1.000000000000000E+20
 30
-1.000000000000000E+20
  9
$PLIMMIN
 10
0.0
 20
0.0
  9
$PLIMMAX
 10
12.0
 20
9.0
  9
$UNITMODE
 70
     0
  9
$VISRETAIN
 70
     1
  9
$PLINEGEN
 70
     0
  9
$PSLTSCALE
 70
     1
  9
$TREEDEPTH
 70
  3020
  9
$CMLSTYLE
  2
Standard
  9
$CMLJUST
 70
     0
  9
$CMLSCALE
 40
1.0
  9
$PROXYGRAPHICS
 70
     1
  9
$MEASUREMENT
 70
     0
  9
$CELWEIGHT
370
    -1
  9
$ENDCAPS
280
     0
  9
$JOINSTYLE
280
     0
  9
$LWDISPLAY
290
     0
  9
$INSUNITS
 70
     1
  9
$HYPERLINKBASE
  1

  9
$STYLESHEET
  1

  9
$XEDIT
290
     1
  9
$CEPSNTYPE
380
     0
  9
$PSTYLEMODE
290
     1
  9
$FINGERPRINTGUID
  2
{12F50282-3ED8-11D3-A8B7-0060B0F84BC6}
  9
$VERSIONGUID
  2
{12F50293-3ED8-11D3-A8B7-0060B0F84BC6}
  9
$EXTNAMES
290
     1
  9
$PSVPSCALE
 40
0.0
  9
$OLESTARTUP
290
     0
  9
$SORTENTS
280
   127
  9
$INDEXCTL
280
     0
  9
$HIDETEXT
280
     0
  9
$XCLIPFRAME
280
     2
  9
$HALOGAP
280
     0
  9
$OBSCOLOR
 70
   257
  9
$OBSLTYPE
280
     0
  9
$INTERSECTIONDISPLAY
280
     0
  9
$INTERSECTIONCOLOR
 70
   257
  9
$DIMASSOC
280
     1
  9
$PROJECTNAME
  1

  9
$CAMERADISPLAY
290
     0
  9
$LENSLENGTH
 40
50.0
  9
$CAMERAHEIGHT
 40
0.0
  9
$STEPSPERSEC
 40
2.0
  9
$STEPSIZE
 40
6.0
  9
$3DDWFPREC
 40
2.0
  9
$PSOLWIDTH
 40
0.25
  9
$PSOLHEIGHT
 40
4.0
  9
$LOFTANG1
 40
1.570796326794896
  9
$LOFTANG2
 40
1.570796326794896
  9
$LOFTMAG1
 40
0.0
  9
$LOFTMAG2
 40
0.0
  9
$LOFTPARAM
 70
     7
  9
$LOFTNORMALS
280
     1
  9
$LATITUDE
 40
37.795
  9
$LONGITUDE
 40
-122.394
  9
$NORTHDIRECTION
 40
0.0
  9
$TIMEZONE
 70
 -8000
  9
$LIGHTGLYPHDISPLAY
280
     1
  9
$TILEMODELIGHTSYNCH
280
     1
  9
$CMATERIAL
347
AB
  9
$SOLIDHIST
280
     0
  9
$SHOWHIST
280
     1
  9
$DWFFRAME
280
     2
  9
$DGNFRAME
280
     0
  9
$REALWORLDSCALE
290
     1
  9
$INTERFERECOLOR
 62
     1
  9
$INTERFEREOBJVS
345
CD
  9
$INTERFEREVPVS
346
CA
  9
$CSHADOW
280
     0
  9
$SHADOWPLANELOCATION
 40
0.0
  0
ENDSEC
  0
SECTION
  2
CLASSES
  0
CLASS
  1
ACDBDICTIONARYWDFLT
  2
AcDbDictionaryWithDefault
  3
ObjectDBX Classes
 90
        0
 91
        1
280
     0
281
     0
  0
CLASS
  1
ACDBPLACEHOLDER
  2
AcDbPlaceHolder
  3
ObjectDBX Classes
 90
        0
 91
        2
280
     0
281
     0
  0
CLASS
  1
LAYOUT
  2
AcDbLayout
  3
ObjectDBX Classes
 90
        0
 91
        3
280
     0
281
     0
  0
CLASS
  1
MATERIAL
  2
AcDbMaterial
  3
ObjectDBX Classes
 90
     1153
 91
        3
280
     0
281
     0
  0
CLASS
  1
VISUALSTYLE
  2
AcDbVisualStyle
  3
ObjectDBX Classes
 90
     4095
 91
       24
280
     0
281
     0
  0
CLASS
  1
TABLESTYLE
  2
AcDbTableStyle
  3
ObjectDBX Classes
 90
     4095
 91
        1
280
     0
281
     0
  0
CLASS
  1
SCALE
  2
AcDbScale
  3
ObjectDBX Classes
 90
     1153
 91
       17
280
     0
281
     0
  0
CLASS
  1
MLEADERSTYLE
  2
AcDbMLeaderStyle
  3
ACDB_MLEADERSTYLE_CLASS
 90
     4095
 91
        1
280
     0
281
     0
  0
CLASS
  1
ACDBSECTIONVIEWSTYLE
  2
AcDbSectionViewStyle
  3
ObjectDBX Classes
 90
     1025
 91
        1
280
     0
281
     0
  0
CLASS
  1
ACDBDETAILVIEWSTYLE
  2
AcDbDetailViewStyle
  3
ObjectDBX Classes
 90
     1025
 91
        1
280
     0
281
     0
  0
CLASS
  1
MESH
  2
AcDbSubDMesh
  3
ObjectDBX Classes
 90
        0
 91
        1
280
     0
281
     1
  0
CLASS
  1
DICTIONARYVAR
  2
AcDbDictionaryVar
  3
ObjectDBX Classes
 90
        0
 91
        9
280
     0
281
     0
  0
CLASS
  1
CELLSTYLEMAP
  2
AcDbCellStyleMap
  3
ObjectDBX Classes
 90
     1152
 91
        1
280
     0
281
     0
  0
ENDSEC
  0
SECTION
  2
TABLES
  0
TABLE
  2
VPORT
  5
8
330
0
100
AcDbSymbolTable
 70
     1
  0
VPORT
  5
A8
330
8
100
AcDbSymbolTableRecord
100
AcDbViewportTableRecord
  2
*Active
 70
     0
 10
0.0
 20
0.0
 11
1.0
 21
1.0
 12
0.0
 22
-9.447200775146484
 13
0.0
 23
0.0
 14
0.5
 24
0.5
 15
0.5
 25
0.5
 16
-1.0
 26
-1.0
 36
1.0
 17
0.0
 27
0.0
 37
0.0
 40
115.4481311312695
 41
0.9183213619655457
 42
50.0
 43
0.0
 44
0.0
 50
0.0
 51
0.0
 71
     0
 72
   100
 73
     1
 74
     3
 75
     0
 76
     0
 77
     0
 78
     0
281
     0
 65
     1
110
0.0
120
0.0
130
0.0
111
1.0
121
0.0
131
0.0
112
0.0
122
1.0
132
0.0
 79
     0
146
0.0
348
C9
 60
     3
 61
     5
292
     1
282
     1
141
0.0
142
0.0
 63
   250
421
  3355443
  0
ENDTAB
  0
TABLE
  2
LTYPE
  5
5
330
0
100
AcDbSymbolTable
 70
     1
  0
LTYPE
  5
14
330
5
100
AcDbSymbolTableRecord
100
AcDbLinetypeTableRecord
  2
ByBlock
 70
     0
  3

 72
    65
 73
     0
 40
0.0
  0
LTYPE
  5
15
330
5
100
AcDbSymbolTableRecord
100
AcDbLinetypeTableRecord
  2
ByLayer
 70
     0
  3

 72
    65
 73
     0
 40
0.0
  0
LTYPE
  5
16
330
5
100
AcDbSymbolTableRecord
100
AcDbLinetypeTableRecord
  2
Continuous
 70
     0
  3
Solid line
 72
    65
 73
     0
 40
0.0
  0
ENDTAB
  0
TABLE
  2
LAYER
  5
2
330
0
100
AcDbSymbolTable
 70
     3
  0
LAYER
  5
10
330
2
100
AcDbSymbolTableRecord
100
AcDbLayerTableRecord
  2
0
 70
     0
 62
   153
420
  7507413
  6
Continuous
370
    -3
390
F
347
BB
  0
LAYER
  5
2B
330
2
100
AcDbSymbolTableRecord
100
AcDbLayerTableRecord
  2
ASHADE
 70
     4
 62
     7
  6
Continuous
370
    -3
390
2D
347
BB
  0
LAYER
  5
F9
330
2
100
AcDbSymbolTableRecord
100
AcDbLayerTableRecord
  2
Material Color - 37
 70
     0
 62
     7
420
 16777215
  6
Continuous
370
    -3
390
F
347
BB
  0
ENDTAB
  0
TABLE
  2
STYLE
  5
3
330
0
100
AcDbSymbolTable
 70
     2
  0
STYLE
  5
11
330
3
100
AcDbSymbolTableRecord
100
AcDbTextStyleTableRecord
  2
Standard
 70
     0
 40
0.0
 41
1.0
 50
0.0
 71
     0
 42
0.2
  3
txt
  4

  0
STYLE
  5
2C
330
3
100
AcDbSymbolTableRecord
100
AcDbTextStyleTableRecord
  2
ASHADE
 70
     0
 40
0.2
 41
1.0
 50
0.0
 71
     0
 42
0.2
  3
simplex
  4

  0
ENDTAB
  0
TABLE
  2
VIEW
  5
6
330
0
100
AcDbSymbolTable
 70
     0
  0
ENDTAB
  0
TABLE
  2
UCS
  5
7
330
0
100
AcDbSymbolTable
 70
     0
  0
ENDTAB
  0
TABLE
  2
APPID
  5
9
330
0
100
AcDbSymbolTable
 70
     6
  0
APPID
  5
12
330
9
100
AcDbSymbolTableRecord
100
AcDbRegAppTableRecord
  2
ACAD
 70
     0
  0
APPID
  5
8F
330
9
100
AcDbSymbolTableRecord
100
AcDbRegAppTableRecord
  2
AVE_RENDER
 70
     0
  0
APPID
  5
90
330
9
100
AcDbSymbolTableRecord
100
AcDbRegAppTableRecord
  2
AVE_ENTITY_MATERIAL
 70
     0
  0
APPID
  5
9C
330
9
100
AcDbSymbolTableRecord
100
AcDbRegAppTableRecord
  2
AVE_FINISH
 70
     0
  0
APPID
  5
9D
330
9
100
AcDbSymbolTableRecord
100
AcDbRegAppTableRecord
  2
AVE_MATERIAL
 70
     0
  0
APPID
  5
9E
330
9
100
AcDbSymbolTableRecord
100
AcDbRegAppTableRecord
  2
AVE_GLOBAL
 70
     0
  0
ENDTAB
  0
TABLE
  2
DIMSTYLE
  5
A
330
0
100
AcDbSymbolTable
 70
     1
100
AcDbDimStyleTable
 71
     0
  0
DIMSTYLE
105
27
330
A
100
AcDbSymbolTableRecord
100
AcDbDimStyleTableRecord
  2
Standard
 70
     0
340
11
  0
ENDTAB
  0
TABLE
  2
BLOCK_RECORD
  5
1
330
0
100
AcDbSymbolTable
 70
     6
  0
BLOCK_RECORD
  5
1F
330
1
100
AcDbSymbolTableRecord
100
AcDbBlockTableRecord
  2
*Model_Space
340
22
 70
     0
280
     1
281
     0
  0
BLOCK_RECORD
  5
1B
330
1
100
AcDbSymbolTableRecord
100
AcDbBlockTableRecord
  2
*Paper_Space
340
1E
 70
     0
280
     1
281
     0
  0
BLOCK_RECORD
  5
23
330
1
100
AcDbSymbolTableRecord
100
AcDbBlockTableRecord
  2
*Paper_Space0
340
26
 70
     0
280
     1
281
     0
  0
BLOCK_RECORD
  5
2E
330
1
100
AcDbSymbolTableRecord
100
AcDbBlockTableRecord
  2
direct
340
0
 70
     0
280
     1
281
     0
  0
BLOCK_RECORD
  5
42
330
1
100
AcDbSymbolTableRecord
100
AcDbBlockTableRecord
  2
overhead
340
0
 70
     0
280
     1
281
     0
  0
BLOCK_RECORD
  5
5F
330
1
100
AcDbSymbolTableRecord
100
AcDbBlockTableRecord
  2
sh_spot
340
0
 70
     0
280
     1
281
     0
  0
BLOCK_RECORD
  5
91
330
1
100
AcDbSymbolTableRecord
100
AcDbBlockTableRecord
  2
AVE_RENDER
340
0
102
{BLKREFS
331
94
331
95
331
96
331
97
331
98
331
99
331
9A
331
9B
102
}
 70
     0
280
     1
281
     0
  0
BLOCK_RECORD
  5
9F
330
1
100
AcDbSymbolTableRecord
100
AcDbBlockTableRecord
  2
AVE_GLOBAL
340
0
102
{BLKREFS
331
A2
102
}
 70
     0
280
     1
281
     0
  0
ENDTAB
  0
ENDSEC
  0
SECTION
  2
BLOCKS
  0
BLOCK
  5
20
330
1F
100
AcDbEntity
  8
0
100
AcDbBlockBegin
  2
*Model_Space
 70
     0
 10
0.0
 20
0.0
 30
0.0
  3
*Model_Space
  1

  0
ENDBLK
  5
21
330
1F
100
AcDbEntity
  8
0
100
AcDbBlockEnd
  0
BLOCK
  5
1C
330
1B
100
AcDbEntity
 67
     1
  8
0
100
AcDbBlockBegin
  2
*Paper_Space
 70
     0
 10
0.0
 20
0.0
 30
0.0
  3
*Paper_Space
  1

  0
ENDBLK
  5
1D
330
1B
100
AcDbEntity
 67
     1
  8
0
100
AcDbBlockEnd
  0
BLOCK
  5
24
330
23
100
AcDbEntity
 67
     1
  8
0
100
AcDbBlockBegin
  2
*Paper_Space0
 70
     0
 10
0.0
 20
0.0
 30
0.0
  3
*Paper_Space0
  1

  0
ENDBLK
  5
25
330
23
100
AcDbEntity
 67
     1
  8
0
100
AcDbBlockEnd
  0
BLOCK
  5
40
330
2E
100
AcDbEntity
  8
0
100
AcDbBlockBegin
  2
direct
 70
     2
 10
0.0
 20
0.0
 30
0.0
  3
direct
  1

  0
ATTDEF
  5
2F
330
2E
100
AcDbEntity
  8
ASHADE
  6
Continuous
 62
     1
100
AcDbText
 10
0.0
 20
-0.1
 30
0.0
 40
0.2
  1

  7
ASHADE
 72
     1
 11
0.0
 21
-0.1
 31
0.0
100
AcDbAttributeDefinition
280
     0
  3
Light Name
  2
SNAME
 70
     0
280
     0
  0
ARC
  5
30
330
2E
100
AcDbEntity
  8
ASHADE
  6
Continuous
 62
     7
100
AcDbCircle
 10
0.0
 20
0.0
 30
0.0
 40
0.3
100
AcDbArc
 50
205.6792886194569
 51
334.3207113805431
  0
ARC
  5
31
330
2E
100
AcDbEntity
  8
ASHADE
  6
Continuous
 62
     7
100
AcDbCircle
 10
0.0
 20
0.0
 30
0.0
 40
0.3
100
AcDbArc
 50
25.67928861945685
 51
154.3207113805431
  0
LINE
  5
32
330
2E
100
AcDbEntity
  8
ASHADE
  6
Continuous
 62
     7
100
AcDbLine
 10
-0.21
 20
0.2142428528562855
 30
0.0
 11
-0.21
 21
0.5
 31
0.0
  0
LINE
  5
33
330
2E
100
AcDbEntity
  8
ASHADE
  6
Continuous
 62
     7
100
AcDbLine
 10
-0.11
 20
0.2791057147390572
 30
0.0
 11
-0.11
 21
0.5
 31
0.0
  0
LINE
  5
34
330
2E
100
AcDbEntity
  8
ASHADE
  6
Continuous
 62
     7
100
AcDbLine
 10
0.21
 20
0.2142428528562855
 30
0.0
 11
0.21
 21
0.5
 31
0.0
  0
ATTDEF
  5
35
330
2E
100
AcDbEntity
  8
ASHADE
  6
Continuous
 62
     7
100
AcDbText
 10
0.0
 20
0.25
 30
0.0
 40
0.01
  1

100
AcDbAttributeDefinition
280
     0
  3
Look-at Y
  2
LAY
 70
     1
280
     0
  0
ATTDEF
  5
36
330
2E
100
AcDbEntity
  8
ASHADE
  6
Continuous
 62
     7
100
AcDbText
 10
0.0
 20
0.22
 30
0.0
 40
0.01
  1
1
100
AcDbAttributeDefinition
280
     0
  3
Light Intensity
  2
INTENSITY
 70
     1
280
     0
  0
ATTDEF
  5
37
330
2E
100
AcDbEntity
  8
ASHADE
  6
Continuous
 62
     7
100
AcDbText
 10
0.0
 20
0.16
 30
0.0
 40
0.01
  1
-1
100
AcDbAttributeDefinition
280
     0
  3
*not used*
  2
BEAMD
 70
     1
280
     0
  0
ATTDEF
  5
38
330
2E
100
AcDbEntity
  8
ASHADE
  6
Continuous
 62
     7
100
AcDbText
 10
0.0
 20
0.175
 30
0.0
 40
0.01
  1
-1
100
AcDbAttributeDefinition
280
     0
  3
*not used*
  2
CONED
 70
     1
280
     0
  0
ATTDEF
  5
39
330
2E
100
AcDbEntity
  8
ASHADE
  6
Continuous
 62
     7
100
AcDbText
 10
0.0
 20
0.19
 30
0.0
 40
0.01
  1
0
100
AcDbAttributeDefinition
280
     0
  3
Depth Map Size
  2
CONEA
 70
     1
280
     0
  0
ATTDEF
  5
3A
330
2E
100
AcDbEntity
  8
ASHADE
  6
Continuous
 62
     7
100
AcDbText
 10
0.0
 20
0.2050000000000001
 30
0.0
 40
0.01
  1
1,1,1
100
AcDbAttributeDefinition
280
     0
  3
Light Color (RGB)
  2
COLOR
 70
     1
280
     0
  0
ATTDEF
  5
3B
330
2E
100
AcDbEntity
  8
ASHADE
  6
Continuous
 62
     7
100
AcDbText
 10
0.0
 20
0.235
 30
0.0
 40
0.01
  1

100
AcDbAttributeDefinition
280
     0
  3
Look-at Z
  2
LAZ
 70
     1
280
     0
  0
LINE
  5
3C
330
2E
100
AcDbEntity
  8
ASHADE
  6
Continuous
 62
     7
100
AcDbLine
 10
0.0
 20
0.3
 30
0.0
 11
0.0
 21
0.5
 31
0.0
  0
LINE
  5
3D
330
2E
100
AcDbEntity
  8
ASHADE
  6
Continuous
 62
     7
100
AcDbLine
 10
0.11
 20
0.2791057147390572
 30
0.0
 11
0.11
 21
0.5
 31
0.0
  0
ATTDEF
  5
3E
330
2E
100
AcDbEntity
  8
ASHADE
  6
Continuous
 62
     7
100
AcDbText
 10
0.0
 20
0.265
 30
0.0
 40
0.01
  1

100
AcDbAttributeDefinition
280
     0
  3
Look-at X
  2
LAX
 70
     1
280
     0
  0
ATTDEF
  5
3F
330
2E
100
AcDbEntity
  8
ASHADE
  6
Continuous
 62
     7
100
AcDbText
 10
0.0
 20
0.28
 30
0.0
 40
0.01
  1

100
AcDbAttributeDefinition
280
     0
  3

  2
GNAME
 70
     1
280
     0
  0
ENDBLK
  5
41
330
2E
100
AcDbEntity
  8
0
100
AcDbBlockEnd
  0
BLOCK
  5
5D
330
42
100
AcDbEntity
  8
0
100
AcDbBlockBegin
  2
overhead
 70
     2
 10
0.0
 20
0.0
 30
0.0
  3
overhead
  1

  0
ATTDEF
  5
43
330
42
100
AcDbEntity
  8
ASHADE
  6
Continuous
 62
     1
100
AcDbText
 10
0.0
 20
-0.1
 30
0.0
 40
0.2
  1

  7
ASHADE
 72
     1
 11
0.0
 21
-0.1
 31
0.0
100
AcDbAttributeDefinition
280
     0
  3
Light Name
  2
SNAME
 70
     0
280
     0
  0
ARC
  5
44
330
42
100
AcDbEntity
  8
ASHADE
  6
Continuous
 62
     7
100
AcDbCircle
 10
0.0
 20
0.0
 30
0.0
 40
0.3
100
AcDbArc
 50
205.6792886194569
 51
334.3207113805431
  0
LINE
  5
45
330
42
100
AcDbEntity
  8
ASHADE
  6
Continuous
 62
     7
100
AcDbLine
 10
-0.2041413561583015
 20
-0.2198324514393848
 30
0.0
 11
-0.2721884748777353
 21
-0.2931099352525131
 31
0.0
  0
LINE
  5
46
330
42
100
AcDbEntity
  8
ASHADE
  6
Continuous
 62
     7
100
AcDbLine
 10
-0.1096591641591904
 20
-0.2792398032442862
 30
0.0
 11
-0.1279356915190555
 21
-0.3257797704516673
 31
0.0
  0
LINE
  5
47
330
42
100
AcDbEntity
  8
ASHADE
  6
Continuous
 62
     7
100
AcDbLine
 10
0.0
 20
-0.2999999999999999
 30
0.0
 11
0.0
 21
-0.4
 31
0.0
  0
LINE
  5
48
330
42
100
AcDbEntity
  8
ASHADE
  6
Continuous
 62
     7
100
AcDbLine
 10
0.1096591641591904
 20
-0.2792398032442862
 30
0.0
 11
0.1279356915190555
 21
-0.3257797704516673
 31
0.0
  0
LINE
  5
49
330
42
100
AcDbEntity
  8
ASHADE
  6
Continuous
 62
     7
100
AcDbLine
 10
0.2041413561583015
 20
-0.2198324514393848
 30
0.0
 11
0.2721884748777353
 21
-0.2931099352525131
 31
0.0
  0
ARC
  5
4A
330
42
100
AcDbEntity
  8
ASHADE
  6
Continuous
 62
     7
100
AcDbCircle
 10
0.0
 20
0.0
 30
0.0
 40
0.3
100
AcDbArc
 50
25.67928861945685
 51
154.3207113805431
  0
LINE
  5
4B
330
42
100
AcDbEntity
  8
ASHADE
  6
Continuous
 62
     7
100
AcDbLine
 10
-0.2703701166919155
 20
0.13
 30
0.0
 11
-0.3154318028072347
 21
0.1516666666666666
 31
0.0
  0
LINE
  5
4C
330
42
100
AcDbEntity
  8
ASHADE
  6
Continuous
 62
     7
100
AcDbLine
 10
-0.2703701166919155
 20
-0.13
 30
0.0
 11
-0.3154318028072347
 21
-0.1516666666666666
 31
0.0
  0
LINE
  5
4D
330
42
100
AcDbEntity
  8
ASHADE
  6
Continuous
 62
     7
100
AcDbLine
 10
-0.2041413561583015
 20
0.2198324514393849
 30
0.0
 11
-0.2721884748777353
 21
0.2931099352525131
 31
0.0
  0
LINE
  5
4E
330
42
100
AcDbEntity
  8
ASHADE
  6
Continuous
 62
     7
100
AcDbLine
 10
-0.1096591641591904
 20
0.2792398032442862
 30
0.0
 11
-0.1279356915190555
 21
0.3257797704516674
 31
0.0
  0
LINE
  5
4F
330
42
100
AcDbEntity
  8
ASHADE
  6
Continuous
 62
     7
100
AcDbLine
 10
0.2703701166919155
 20
-0.13
 30
0.0
 11
0.3154318028072347
 21
-0.1516666666666666
 31
0.0
  0
LINE
  5
50
330
42
100
AcDbEntity
  8
ASHADE
  6
Continuous
 62
     7
100
AcDbLine
 10
0.2703701166919155
 20
0.13
 30
0.0
 11
0.3154318028072347
 21
0.1516666666666666
 31
0.0
  0
LINE
  5
51
330
42
100
AcDbEntity
  8
ASHADE
  6
Continuous
 62
     7
100
AcDbLine
 10
0.0
 20
0.3
 30
0.0
 11
0.0
 21
0.4
 31
0.0
  0
ATTDEF
  5
52
330
42
100
AcDbEntity
  8
ASHADE
  6
Continuous
 62
     7
100
AcDbText
 10
0.0
 20
0.22
 30
0.0
 40
0.01
  1
1
100
AcDbAttributeDefinition
280
     0
  3
Light Intensity
  2
INTENSITY
 70
     1
280
     0
  0
ATTDEF
  5
53
330
42
100
AcDbEntity
  8
ASHADE
  6
Continuous
 62
     7
100
AcDbText
 10
0.0
 20
0.16
 30
0.0
 40
0.01
  1
-1
100
AcDbAttributeDefinition
280
     0
  3
*not used*
  2
BEAMD
 70
     1
280
     0
  0
ATTDEF
  5
54
330
42
100
AcDbEntity
  8
ASHADE
  6
Continuous
 62
     7
100
AcDbText
 10
0.0
 20
0.175
 30
0.0
 40
0.01
  1
-1
100
AcDbAttributeDefinition
280
     0
  3
*not used*
  2
CONED
 70
     1
280
     0
  0
ATTDEF
  5
55
330
42
100
AcDbEntity
  8
ASHADE
  6
Continuous
 62
     7
100
AcDbText
 10
0.0
 20
0.19
 30
0.0
 40
0.01
  1
0
100
AcDbAttributeDefinition
280
     0
  3
Depth Map Size
  2
CONEA
 70
     1
280
     0
  0
ATTDEF
  5
56
330
42
100
AcDbEntity
  8
ASHADE
  6
Continuous
 62
     7
100
AcDbText
 10
0.0
 20
0.2050000000000001
 30
0.0
 40
0.01
  1
1,1,1
100
AcDbAttributeDefinition
280
     0
  3
Light Color (RGB)
  2
COLOR
 70
     1
280
     0
  0
ATTDEF
  5
57
330
42
100
AcDbEntity
  8
ASHADE
  6
Continuous
 62
     7
100
AcDbText
 10
0.0
 20
0.235
 30
0.0
 40
0.01
  1

100
AcDbAttributeDefinition
280
     0
  3
Look-at Z
  2
LAZ
 70
     1
280
     0
  0
ATTDEF
  5
58
330
42
100
AcDbEntity
  8
ASHADE
  6
Continuous
 62
     7
100
AcDbText
 10
0.0
 20
0.25
 30
0.0
 40
0.01
  1

100
AcDbAttributeDefinition
280
     0
  3
Look-at Y
  2
LAY
 70
     1
280
     0
  0
ATTDEF
  5
59
330
42
100
AcDbEntity
  8
ASHADE
  6
Continuous
 62
     7
100
AcDbText
 10
0.0
 20
0.265
 30
0.0
 40
0.01
  1

100
AcDbAttributeDefinition
280
     0
  3
Look-at X
  2
LAX
 70
     1
280
     0
  0
ATTDEF
  5
5A
330
42
100
AcDbEntity
  8
ASHADE
  6
Continuous
 62
     7
100
AcDbText
 10
0.0
 20
0.28
 30
0.0
 40
0.01
  1

100
AcDbAttributeDefinition
280
     0
  3

  2
GNAME
 70
     1
280
     0
  0
LINE
  5
5B
330
42
100
AcDbEntity
  8
ASHADE
  6
Continuous
 62
     7
100
AcDbLine
 10
0.1096591641591904
 20
0.2792398032442862
 30
0.0
 11
0.1279356915190555
 21
0.3257797704516674
 31
0.0
  0
LINE
  5
5C
330
42
100
AcDbEntity
  8
ASHADE
  6
Continuous
 62
     7
100
AcDbLine
 10
0.2041413561583015
 20
0.2198324514393849
 30
0.0
 11
0.2721884748777353
 21
0.2931099352525131
 31
0.0
  0
ENDBLK
  5
5E
330
42
100
AcDbEntity
  8
0
100
AcDbBlockEnd
  0
BLOCK
  5
85
330
5F
100
AcDbEntity
  8
0
100
AcDbBlockBegin
  2
sh_spot
 70
     2
 10
0.0
 20
0.0
 30
0.0
  3
sh_spot
  1

  0
LINE
  5
60
330
5F
100
AcDbEntity
  8
ASHADE
  6
Continuous
 62
     7
100
AcDbLine
 10
0.25
 20
0.26
 30
0.0
 11
-0.25
 21
0.26
 31
0.0
  0
LINE
  5
61
330
5F
100
AcDbEntity
  8
ASHADE
  6
Continuous
 62
     7
100
AcDbLine
 10
-0.25
 20
-0.3399999999999999
 30
0.0
 11
0.25
 21
-0.3399999999999999
 31
0.0
  0
ATTDEF
  5
62
330
5F
100
AcDbEntity
  8
ASHADE
  6
Continuous
 62
     1
100
AcDbText
 10
0.0
 20
-0.1
 30
0.0
 40
0.2
  1

  7
ASHADE
 72
     1
 11
0.0
 21
-0.1
 31
0.0
100
AcDbAttributeDefinition
280
     0
  3
Light Name
  2
SNAME
 70
     0
280
     0
  0
LINE
  5
63
330
5F
100
AcDbEntity
  8
ASHADE
  6
Continuous
 62
     7
100
AcDbLine
 10
-0.25
 20
-0.13
 30
0.0
 11
-0.25
 21
-0.3399999999999999
 31
0.0
  0
LINE
  5
64
330
5F
100
AcDbEntity
  8
ASHADE
  6
Continuous
 62
     7
100
AcDbLine
 10
-0.25
 20
-0.18
 30
0.0
 11
-0.29
 21
-0.18
 31
0.0
  0
LINE
  5
65
330
5F
100
AcDbEntity
  8
ASHADE
  6
Continuous
 62
     7
100
AcDbLine
 10
-0.29
 20
-0.22
 30
0.0
 11
-0.25
 21
-0.22
 31
0.0
  0
LINE
  5
66
330
5F
100
AcDbEntity
  8
ASHADE
  6
Continuous
 62
     7
100
AcDbLine
 10
-0.29
 20
-0.18
 30
0.0
 11
-0.29
 21
-0.22
 31
0.0
  0
LINE
  5
67
330
5F
100
AcDbEntity
  8
ASHADE
  6
Continuous
 62
     7
100
AcDbLine
 10
-0.1045454545454545
 20
0.26
 30
0.0
 11
-0.15
 21
0.46
 31
0.0
  0
LINE
  5
68
330
5F
100
AcDbEntity
  8
ASHADE
  6
Continuous
 62
     7
100
AcDbLine
 10
-0.21
 20
0.26
 30
0.0
 11
-0.301304347826087
 21
0.46
 31
0.0
  0
LINE
  5
69
330
5F
100
AcDbEntity
  8
ASHADE
  6
Continuous
 62
     7
100
AcDbLine
 10
-0.25
 20
0.26
 30
0.0
 11
-0.25
 21
0.13
 31
0.0
  0
LINE
  5
6A
330
5F
100
AcDbEntity
  8
ASHADE
  6
Continuous
 62
     7
100
AcDbLine
 10
-0.25
 20
0.22
 30
0.0
 11
-0.29
 21
0.22
 31
0.0
  0
LINE
  5
6B
330
5F
100
AcDbEntity
  8
ASHADE
  6
Continuous
 62
     7
100
AcDbLine
 10
-0.29
 20
0.1799999999999999
 30
0.0
 11
-0.25
 21
0.1799999999999999
 31
0.0
  0
LINE
  5
6C
330
5F
100
AcDbEntity
  8
ASHADE
  6
Continuous
 62
     7
100
AcDbLine
 10
-0.29
 20
0.22
 30
0.0
 11
-0.29
 21
0.1799999999999999
 31
0.0
  0
ATTDEF
  5
6D
330
5F
100
AcDbEntity
  8
ASHADE
  6
Continuous
 62
     7
100
AcDbText
 10
0.0
 20
-0.24
 30
0.0
 40
0.01
  1
0
100
AcDbAttributeDefinition
280
     0
  3
Depth Map Size
  2
ZSIZE
 70
     1
280
     0
  0
ATTDEF
  5
6E
330
5F
100
AcDbEntity
  8
ASHADE
  6
Continuous
 62
     7
100
AcDbText
 10
0.0
 20
-0.3300000000000001
 30
0.0
 40
0.01
  1
0,0,0
100
AcDbAttributeDefinition
280
     0
  3
Look-from XYZ
  2
LFXYZ
 70
     1
280
     0
  0
ATTDEF
  5
6F
330
5F
100
AcDbEntity
  8
ASHADE
  6
Continuous
 62
     7
100
AcDbText
 10
0.0
 20
-0.315
 30
0.0
 40
0.01
  1
0.0
100
AcDbAttributeDefinition
280
     0
  3
Beam Distribution
  2
BEAMDI
 70
     1
280
     0
  0
ATTDEF
  5
70
330
5F
100
AcDbEntity
  8
ASHADE
  6
Continuous
 62
     7
100
AcDbText
 10
0.0
 20
-0.3
 30
0.0
 40
0.01
  1
0.0
100
AcDbAttributeDefinition
280
     0
  3
Cone Delta
  2
CONEDE
 70
     1
280
     0
  0
ATTDEF
  5
71
330
5F
100
AcDbEntity
  8
ASHADE
  6
Continuous
 62
     7
100
AcDbText
 10
0.0
 20
-0.2850000000000001
 30
0.0
 40
0.01
  1
10.0
100
AcDbAttributeDefinition
280
     0
  3
Cone Angle
  2
CONEAN
 70
     1
280
     0
  0
ATTDEF
  5
72
330
5F
100
AcDbEntity
  8
ASHADE
  6
Continuous
 62
     7
100
AcDbText
 10
0.0
 20
-0.27
 30
0.0
 40
0.01
  1
-1
100
AcDbAttributeDefinition
280
     0
  3
*not used*
  2
BIASMAX
 70
     1
280
     0
  0
ATTDEF
  5
73
330
5F
100
AcDbEntity
  8
ASHADE
  6
Continuous
 62
     7
100
AcDbText
 10
0.0
 20
-0.255
 30
0.0
 40
0.01
  1
-1
100
AcDbAttributeDefinition
280
     0
  3
*not used*
  2
BIASMIN
 70
     1
280
     0
  0
ATTDEF
  5
74
330
5F
100
AcDbEntity
  8
ASHADE
  6
Continuous
 62
     7
100
AcDbText
 10
0.0
 20
-0.225
 30
0.0
 40
0.01
  1
1,1,1
100
AcDbAttributeDefinition
280
     0
  3
Light Color (RGB)
  2
COLOR
 70
     1
280
     0
  0
ATTDEF
  5
75
330
5F
100
AcDbEntity
  8
ASHADE
  6
Continuous
 62
     7
100
AcDbText
 10
0.0
 20
-0.21
 30
0.0
 40
0.01
  1
1
100
AcDbAttributeDefinition
280
     0
  3
Light Intensity
  2
INTENSITY
 70
     1
280
     0
  0
ATTDEF
  5
76
330
5F
100
AcDbEntity
  8
ASHADE
  6
Continuous
 62
     7
100
AcDbText
 10
0.0
 20
-0.15
 30
0.0
 40
0.01
  1

100
AcDbAttributeDefinition
280
     0
  3

  2
GNAME
 70
     1
280
     0
  0
ATTDEF
  5
77
330
5F
100
AcDbEntity
  8
ASHADE
  6
Continuous
 62
     7
100
AcDbText
 10
0.0
 20
-0.195
 30
0.0
 40
0.01
  1

100
AcDbAttributeDefinition
280
     0
  3
Look-at Z
  2
LAZ
 70
     1
280
     0
  0
ATTDEF
  5
78
330
5F
100
AcDbEntity
  8
ASHADE
  6
Continuous
 62
     7
100
AcDbText
 10
0.0
 20
-0.18
 30
0.0
 40
0.01
  1

100
AcDbAttributeDefinition
280
     0
  3
Look-at Y
  2
LAY
 70
     1
280
     0
  0
ATTDEF
  5
79
330
5F
100
AcDbEntity
  8
ASHADE
  6
Continuous
 62
     7
100
AcDbText
 10
0.0
 20
-0.165
 30
0.0
 40
0.01
  1

100
AcDbAttributeDefinition
280
     0
  3
Look-at X
  2
LAX
 70
     1
280
     0
  0
LINE
  5
7A
330
5F
100
AcDbEntity
  8
ASHADE
  6
Continuous
 62
     7
100
AcDbLine
 10
0.25
 20
-0.3399999999999999
 30
0.0
 11
0.25
 21
-0.13
 31
0.0
  0
LINE
  5
7B
330
5F
100
AcDbEntity
  8
ASHADE
  6
Continuous
 62
     7
100
AcDbLine
 10
0.25
 20
-0.18
 30
0.0
 11
0.29
 21
-0.18
 31
0.0
  0
LINE
  5
7C
330
5F
100
AcDbEntity
  8
ASHADE
  6
Continuous
 62
     7
100
AcDbLine
 10
0.29
 20
-0.22
 30
0.0
 11
0.25
 21
-0.22
 31
0.0
  0
LINE
  5
7D
330
5F
100
AcDbEntity
  8
ASHADE
  6
Continuous
 62
     7
100
AcDbLine
 10
0.29
 20
-0.18
 30
0.0
 11
0.29
 21
-0.22
 31
0.0
  0
LINE
  5
7E
330
5F
100
AcDbEntity
  8
ASHADE
  6
Continuous
 62
     7
100
AcDbLine
 10
0.21
 20
0.26
 30
0.0
 11
0.301304347826087
 21
0.46
 31
0.0
  0
LINE
  5
7F
330
5F
100
AcDbEntity
  8
ASHADE
  6
Continuous
 62
     7
100
AcDbLine
 10
0.1045454545454545
 20
0.26
 30
0.0
 11
0.15
 21
0.46
 31
0.0
  0
LINE
  5
80
330
5F
100
AcDbEntity
  8
ASHADE
  6
Continuous
 62
     7
100
AcDbLine
 10
0.0
 20
0.26
 30
0.0
 11
0.0
 21
0.46
 31
0.0
  0
LINE
  5
81
330
5F
100
AcDbEntity
  8
ASHADE
  6
Continuous
 62
     7
100
AcDbLine
 10
0.25
 20
0.13
 30
0.0
 11
0.25
 21
0.26
 31
0.0
  0
LINE
  5
82
330
5F
100
AcDbEntity
  8
ASHADE
  6
Continuous
 62
     7
100
AcDbLine
 10
0.25
 20
0.22
 30
0.0
 11
0.29
 21
0.22
 31
0.0
  0
LINE
  5
83
330
5F
100
AcDbEntity
  8
ASHADE
  6
Continuous
 62
     7
100
AcDbLine
 10
0.29
 20
0.1799999999999999
 30
0.0
 11
0.25
 21
0.1799999999999999
 31
0.0
  0
LINE
  5
84
330
5F
100
AcDbEntity
  8
ASHADE
  6
Continuous
 62
     7
100
AcDbLine
 10
0.29
 20
0.22
 30
0.0
 11
0.29
 21
0.1799999999999999
 31
0.0
  0
ENDBLK
  5
86
330
5F
100
AcDbEntity
  8
0
100
AcDbBlockEnd
  0
BLOCK
  5
92
330
91
100
AcDbEntity
  8
ASHADE
100
AcDbBlockBegin
  2
AVE_RENDER
 70
     0
 10
0.0
 20
0.0
 30
0.0
  3
AVE_RENDER
  1
AVE_RENDER
  0
ENDBLK
  5
93
330
91
100
AcDbEntity
  8
0
100
AcDbBlockEnd
  0
BLOCK
  5
A0
330
9F
100
AcDbEntity
  8
ASHADE
100
AcDbBlockBegin
  2
AVE_GLOBAL
 70
     0
 10
0.0
 20
0.0
 30
0.0
  3
AVE_GLOBAL
  1
AVE_GLOBAL
  0
ENDBLK
  5
A1
330
9F
100
AcDbEntity
  8
0
100
AcDbBlockEnd
  0
ENDSEC
  0
SECTION
  2
ENTITIES
  0
INSERT
  5
94
330
1F
100
AcDbEntity
  8
ASHADE
 62
     1
100
AcDbBlockReference
  2
AVE_RENDER
 10
0.0
 20
0.0
 30
0.0
1001
AVE_RENDER
1002
{
1070
     7
1000
Pref
1070
    30
1070
    20
1070
     1
1070
     0
1000

1070
    10
1070
     1
1070
    10
1040
1.0
1070
     1
1040
0.3
1040
0.7
1040
0.0
1040
10.0
1010
-1.0
1020
-1.0
1030
-1.0
1040
0.3
1070
    49
1070
     0
1070
     0
1010
1.0
1020
1.0
1030
1.0
1040
45.0
1070
     1
1070
     0
1000
WCS
1040
0.0
1070
     0
1040
10.0
1002
}
  0
INSERT
  5
95
330
1F
100
AcDbEntity
  8
ASHADE
 62
     3
100
AcDbBlockReference
  2
AVE_RENDER
 10
0.0
 20
0.0
 30
0.0
1001
AVE_RENDER
1002
{
1070
     0
1000
Full Opt
1070
     0
1070
     1
1070
     1
1070
     1
1070
     0
1070
     0
1070
     0
1070
     1
1070
     1
1040
0.0001
1040
0.0001
1002
}
  0
INSERT
  5
96
330
1F
100
AcDbEntity
  8
ASHADE
 62
     4
100
AcDbBlockReference
  2
AVE_RENDER
 10
0.0
 20
0.0
 30
0.0
1001
AVE_RENDER
1002
{
1070
     0
1000
Quick Opt
1070
     0
1070
     1
1070
     1
1070
     1
1070
     0
1070
     0
1070
     1
1002
}
  0
INSERT
  5
97
330
1F
100
AcDbEntity
  8
ASHADE
 62
     5
100
AcDbBlockReference
  2
AVE_RENDER
 10
0.0
 20
0.0
 30
0.0
1001
AVE_RENDER
1002
{
1070
     1
1000
Scanl Opt
1070
     2
1070
     0
1070
     2
1040
2.0
1040
4.0
1070
     0
1070
     1
1070
     0
1040
0.03
1002
}
  0
INSERT
  5
98
330
1F
100
AcDbEntity
  8
ASHADE
 62
     6
100
AcDbBlockReference
  2
AVE_RENDER
 10
0.0
 20
0.0
 30
0.0
1001
AVE_RENDER
1002
{
1070
     2
1000
Raytr Opt
1070
     2
1070
     0
1070
     2
1040
2.0
1040
4.0
1070
     0
1070
     1
1070
     1
1040
0.03
1070
     3
1040
0.03
1002
}
  0
INSERT
  5
99
330
1F
100
AcDbEntity
  8
ASHADE
 62
     7
100
AcDbBlockReference
  2
AVE_RENDER
 10
0.0
 20
0.0
 30
0.0
1001
AVE_RENDER
1002
{
1070
     0
1000
RFile Opt
1070
     1
1070
   640
1070
   480
1070
 10000
1070
     1
1070
     8
1070
     8
1070
     0
1070
     0
1070
     0
1070
     0
1070
     0
1070
     0
1070
     0
1002
}
  0
INSERT
  5
9A
330
1F
100
AcDbEntity
  8
ASHADE
 62
     8
100
AcDbBlockReference
  2
AVE_RENDER
 10
0.0
 20
0.0
 30
0.0
1001
AVE_RENDER
1002
{
1070
     0
1000
Fog Opt
1070
     0
1070
     0
1040
0.0
1040
1.0
1040
0.0
1040
1.0
1010
0.5
1020
0.5
1030
0.5
1002
}
  0
INSERT
  5
9B
330
1F
100
AcDbEntity
  8
ASHADE
 62
     9
100
AcDbBlockReference
  2
AVE_RENDER
 10
0.0
 20
0.0
 30
0.0
1001
AVE_RENDER
1002
{
1070
     0
1000
BG Opt
1070
     0
1070
     1
1010
0.0
1020
0.0
1030
0.0
1010
1.0
1020
0.0
1030
0.0
1010
0.0
1020
1.0
1030
0.0
1010
0.0
1020
0.0
1030
1.0
1040
0.5
1040
0.33
1040
0.0
1000

1070
     1
1000

1070
     1
1070
     1
1040
1.0
1040
1.0
1040
0.0
1040
0.0
1070
     0
1002
}
  0
INSERT
  5
A2
330
1F
100
AcDbEntity
  8
ASHADE
 62
     1
100
AcDbBlockReference
  2
AVE_GLOBAL
 10
0.0
 20
0.0
 30
0.0
1001
AVE_MATERIAL
1002
{
1000
*GLOBAL*
1000
2
1000
Global finish.
1002
{
1002
}
1002
{
1070
    63
1002
{
1002
{
1010
-1.0
1020
-1.0
1030
-1.0
1002
}
1040
0.1000000014901161
1000

1040
0.0
1002
{
1002
}
1040
0.0
1002
{
1002
}
1040
0.0
1002
}
1002
{
1002
{
1010
-1.0
1020
-1.0
1030
-1.0
1002
}
1040
0.6999999880790711
1000

1040
0.0
1002
{
1002
}
1040
0.0
1002
{
1002
}
1040
0.0
1002
}
1002
{
1002
{
1010
-1.0
1020
-1.0
1030
-1.0
1002
}
1040
0.2000000029802322
1000

1040
0.0
1002
{
1002
}
1040
0.0
1002
{
1002
}
1040
0.0
1002
}
1002
{
1070
     0
1002
{
1070
     1
1002
{
1040
1.0
1040
1.0
1000

1040
0.0
1002
{
1002
}
1040
0.0
1002
{
1002
}
1040
0.0
1002
}
1002
}
1040
1.0
1040
0.0
1040
0.0
1002
}
1002
{
1040
1.0
1040
1.0
1000

1040
0.0
1002
{
1002
}
1040
0.0
1002
{
1002
}
1040
0.0
1002
}
1002
{
1040
0.5
1040
1.0
1000

1040
0.0
1002
{
1002
}
1040
0.0
1002
{
1002
}
1040
0.0
1002
}
1002
{
1070
     0
1040
0.0
1002
{
1002
}
1040
1.0
1002
{
1002
}
1040
0.0
1002
}
1002
{
1040
0.0
1002
{
1002
{
1010
0.0
1020
0.0
1030
0.0
1002
}
1040
1.0
1000

1040
0.0
1002
{
1002
}
1040
0.0
1002
{
1002
}
1040
0.0
1002
}
1002
}
1002
{
1002
{
1070
     1
1002
{
1040
0.0
1040
1.0
1000

1040
0.0
1002
{
1002
}
1040
0.0
1002
{
1002
}
1040
0.0
1002
}
1002
}
1040
0.0
1002
{
1002
}
1010
1.0
1020
0.0
1030
0.0
1010
0.0
1020
1.0
1030
0.0
1010
0.0
1020
0.0
1030
1.0
1070
     0
1002
}
1002
{
1002
{
1040
1.0
1040
1.0
1002
{
1070
     1
1002
{
1040
1.0
1040
1.0
1000

1040
0.0
1002
{
1002
}
1040
0.0
1002
{
1002
}
1040
0.0
1002
}
1002
}
1002
}
1070
     0
1040
0.0
1002
{
1002
}
1002
}
1002
{
1002
}
1002
}
1002
{
1071
        3
1070
     3
1070
     0
1002
{
1070
     2
1070
     0
1070
     0
1040
0.0
1002
}
1070
     0
1070
     2
1002
{
1002
}
1002
}
1002
{
1040
8030.0
1040
190.3000030517578
1040
0.3050000071525574
1040
228.0
1040
545.0
1040
14.0
1040
17.39999961853027
1040
0.4560000002384186
1002
}
1002
}
  0
MESH
  5
FA
330
1F
100
AcDbEntity
  8
Material Color - 37
160
             17288
310
88430000E00100000C00000013000000020000003C0000000600000002000000000000000D1AFF3F000000A041E32D4000000000006582BF000000000D1AFF3F000000A041E32D4000000000000004400C000000130000000A0000003C000000060000000200000000000080B6C3FF3F000000A00CCE2D4000000000000000
310
00000000000D1AFF3F000000A041E32D4000000000000004400C00000013000000120000003C000000060000000200000000000080B6C3FF3F000000A00CCE2D400000000000000000000000000D1AFF3F000000A041E32D4000000000006582BF0C000000130000001A0000003C0000000600000002000000000000000D1A
310
FF3F000000A041E32D40000000000000044000000080C94B0640000000E090332C4000000000000004400C00000013000000220000003C000000060000000200000000000080B6C3FF3F000000A00CCE2D40000000000000000000000080C94B0640000000E090332C4000000000000004400C000000130000002A0000003C
310
000000060000000200000000000080C94B0640000000E090332C40000000000000044000000080C94B0640000000E090332C4000000000000000000C00000013000000320000003C000000060000000200000000000080B6C3FF3F000000A00CCE2D40000000000000000000000080C94B0640000000E090332C4000000000
310
000000000C000000130000003A0000003C0000000600000002000000000000000D1AFF3F000000A041E32D4000000000006582BF000000000D1AFF3F000000A0A8E82D400000000000D58DBF0C00000013000000420000003C0000000600000002000000000000000D1AFF3F000000A041E32D400000000000000440000000
310
000D1AFF3F000000A0A8E82D400000000000D58DBF0C000000130000004A0000003C0000000600000002000000000000000D1AFF3F000000A0A8E82D400000000000D58DBF000000000D1AFF3F00000060AEED2D400000000040E195BF0C00000013000000520000003C0000000600000002000000000000000D1AFF3F0000
310
00A041E32D400000000000000440000000000D1AFF3F00000060AEED2D400000000040E195BF0C000000130000005A0000003C0000000600000002000000000000000D1AFF3F00000060AEED2D400000000040E195BF000000000D1AFF3F000000A040F22D400000000000FE9DBF0C00000013000000620000003C00000006
310
00000002000000000000000D1AFF3F000000A041E32D400000000000000440000000000D1AFF3F000000A040F22D400000000000FE9DBF0C000000130000006A0000003C0000000600000002000000000000000D1AFF3F000000A040F22D400000000000FE9DBF000000000D1AFF3F00000040813B3A4000000000C19326C0
310
0C00000013000000720000003C0000000600000002000000000000000D1AFF3F000000A041E32D400000000000000440000000000D1AFF3F00000040813B3A4000000000C19326C00C000000130000007A0000003C0000000600000002000000000000000D1AFF3F00000040813B3A4000000000C19326C0000000000D1AFF
310
3F000000C00D003C4000000040A80A23C00C00000013000000820000003C0000000600000002000000000000000D1AFF3F000000A041E32D400000000000000440000000000D1AFF3F000000C00D003C4000000040A80A23C00C000000130000008A0000003C0000000600000002000000000000000D1AFF3F000000C00D00
310
3C4000000040A80A23C0000000000D1AFF3F0000002073F52F4000000000000004400C00000013000000920000003C0000000600000002000000000000000D1AFF3F000000A041E32D400000000000000440000000000D1AFF3F0000002073F52F4000000000000004400C000000130000009A0000003C0000000600000002
310
000000000000000D1AFF3F000000C00D003C4000000040A80A23C0000000A02F8740C0000000C00D003C4000000040A80A23C00C00000013000000A20000003C0000000600000002000000000000000D1AFF3F0000002073F52F400000000000000440000000A02F8740C0000000C00D003C4000000040A80A23C00C000000
310
13000000AA0000003C0000000600000002000000000000A02F8740C0000000C00D003C4000000040A80A23C0000000A02F8740C00000002073F52F4000000000000004400C00000013000000B20000003C0000000600000002000000000000000D1AFF3F0000002073F52F400000000000000440000000A02F8740C0000000
310
2073F52F4000000000000004400C00000013000000BA0000003C00000006000000020000000000002073F52F40000000000D1AFF3F0000000000000440000000C00D003C40000000000D1AFF3F00000040A80A23C00C00000013000000C20000003C0000000600000002000000000000C00D003C40000000000D1AFF3F0000
310
0040A80A23C0000000A041E32D40000000000D1AFF3F00000000000004400C00000013000000CA0000003C00000006000000020000000000002073F52F40000000000D1AFF3F0000000000000440000000A041E32D40000000000D1AFF3F00000000000004400C00000013000000D20000003C000000060000000200000000
310
0000C00D003C40000000000D1AFF3F00000040A80A23C000000040813B3A40000000000D1AFF3F00000000C19326C00C00000013000000DA0000003C000000060000000200000000000040813B3A40000000000D1AFF3F00000000C19326C0000000A041E32D40000000000D1AFF3F00000000000004400C00000013000000
310
E20000003C000000060000000200000000000040813B3A40000000000D1AFF3F00000000C19326C0000000A040F22D40000000000D1AFF3F0000000000FE9DBF0C00000013000000EA0000003C0000000600000002000000000000A040F22D40000000000D1AFF3F0000000000FE9DBF000000A041E32D40000000000D1AFF
310
3F00000000000004400C00000013000000F20000003C0000000600000002000000000000A040F22D40000000000D1AFF3F0000000000FE9DBF00000060AEED2D40000000000D1AFF3F0000000040E195BF0C00000013000000FA0000003C000000060000000200000000000060AEED2D40000000000D1AFF3F0000000040E1
310
95BF000000A041E32D40000000000D1AFF3F00000000000004400C00000013000000020100003C000000060000000200000000000060AEED2D40000000000D1AFF3F0000000040E195BF000000A0A8E82D40000000000D1AFF3F0000000000D58DBF0C000000130000000A0100003C0000000600000002000000000000A0A8
310
E82D40000000000D1AFF3F0000000000D58DBF000000A041E32D40000000000D1AFF3F00000000000004400C00000013000000120100003C0000000600000002000000000000A0A8E82D40000000000D1AFF3F0000000000D58DBF000000A041E32D40000000000D1AFF3F00000000006582BF0C000000130000001A010000
310
3C0000000600000002000000000000A041E32D40000000000D1AFF3F00000000006582BF000000A041E32D40000000000D1AFF3F00000000000004400C00000013000000220100003C0000000600000002000000000000A041E32D40000000000D1AFF3F00000000006582BF000000A00CCE2D4000000080B6C3FF3F000000
310
00000000000C000000130000002A0100003C0000000600000002000000000000A041E32D40000000000D1AFF3F0000000000000440000000A00CCE2D4000000080B6C3FF3F00000000000000000C00000013000000320100003C0000000600000002000000000000A00CCE2D4000000080B6C3FF3F00000000000000000000
310
00E090332C4000000080C94B064000000000000004400C000000130000003A0100003C0000000600000002000000000000A041E32D40000000000D1AFF3F0000000000000440000000E090332C4000000080C94B064000000000000004400C00000013000000420100003C0000000600000002000000000000A00CCE2D4000
310
000080B6C3FF3F0000000000000000000000E090332C4000000080C94B064000000000000000000C000000130000004A0100003C0000000600000002000000000000E090332C4000000080C94B06400000000000000000000000E090332C4000000080C94B064000000000000004400C00000013000000520100003C000000
310
06000000020000000000002073F52F40000000000D1AFF3F0000000000000440000000C00D003C40000000A02F8740C000000040A80A23C00C000000130000005A0100003C0000000600000002000000000000C00D003C40000000000D1AFF3F00000040A80A23C0000000C00D003C40000000A02F8740C000000040A80A23
310
C00C00000013000000620100003C00000006000000020000000000002073F52F40000000000D1AFF3F00000000000004400000002073F52F40000000A02F8740C000000000000004400C000000130000006A0100003C00000006000000020000000000002073F52F40000000A02F8740C00000000000000440000000C00D00
310
3C40000000A02F8740C000000040A80A23C00C00000013000000720100003C0000000600000002000000000000000D1AFF3F000000A041E32D40000000000000044000000000DB3B3BC000000020393E204000000000000004400C000000130000007A0100003C000000060000000200000000000080C94B0640000000E090
310
332C40000000000000044000000000DB3B3BC000000020393E204000000000000004400C00000013000000820100003C000000060000000200000000000000DB3B3BC000000020393E2040000000000000044000000020393E204000000000DB3B3BC000000000000004400C000000130000008A0100003C00000006000000
310
0200000000000080C94B0640000000E090332C40000000000000044000000020393E204000000000DB3B3BC000000000000004400C00000013000000920100003C0000000600000002000000000000E090332C4000000080C94B0640000000000000044000000020393E204000000000DB3B3BC000000000000004400C0000
310
00130000009A0100003C000000060000000200000000000080C94B0640000000E090332C400000000000000440000000E090332C4000000080C94B064000000000000004400C00000013000000A20100003C0000000600000002000000000000A041E32D40000000000D1AFF3F000000000000044000000020393E20400000
310
0000DB3B3BC000000000000004400C00000013000000AA0100003C00000006000000020000000000002073F52F40000000000D1AFF3F000000000000044000000020393E204000000000DB3B3BC000000000000004400C00000013000000B20100003C00000006000000020000000000002073F52F40000000A02F8740C000
310
0000000000044000000020393E204000000000DB3B3BC000000000000004400C00000013000000BA0100003C000000060000000200000000000020393E204000000000DB3B3BC00000000000000440000000A041E32B40000000A02F8740C000000000000004400C00000013000000C20100003C0000000600000002000000
310
0000002073F52F40000000A02F8740C00000000000000440000000A041E32B40000000A02F8740C000000000000004400C00000013000000CA0100003C0000000600000002000000000000000D1AFF3F0000002073F52F40000000000000044000000000DB3B3BC000000020393E204000000000000004400C000000130000
310
00D20100003C0000000600000002000000000000A02F8740C00000002073F52F40000000000000044000000000DB3B3BC000000020393E204000000000000004400C00000013000000DA0100003C0000000600000002000000000000A02F8740C00000002073F52F400000000000000440000000A02F8740C0000000A041E3
310
2B4000000000000004400C00000013000000E20100003C0000000600000002000000000000A02F8740C0000000A041E32B40000000000000044000000000DB3B3BC000000020393E204000000000000004400C00000013000000EA0100003C0000000600000002000000000000C0CA933CC000000000B31C1B400000000000
310
00044000000000B31C1B40000000C0CA933CC000000000000004400C00000013000000F20100003C000000060000000200000000000000DB3B3BC000000020393E2040000000000000044000000000B31C1B40000000C0CA933CC000000000000004400C00000013000000FA0100003C000000060000000200000000000000
310
DB3B3BC000000020393E20400000000000000440000000C0CA933CC000000000B31C1B4000000000000004400C00000013000000020200003C000000060000000200000000000000B31C1B40000000C0CA933CC0000000000000044000000020393E204000000000DB3B3BC000000000000004400C000000130000000A0200
310
003C000000060000000200000000000020ACCE2D400000008037B80C4000000000000004400000008037B80C4000000020ACCE2D4000000000000004400C00000013000000120200003C0000000600000002000000000000E090332C4000000080C94B064000000000000004400000008037B80C4000000020ACCE2D400000
310
0000000004400C000000130000001A0200003C0000000600000002000000000000E090332C4000000080C94B0640000000000000044000000020ACCE2D400000008037B80C4000000000000004400C00000013000000220200003C000000060000000200000000000080C94B0640000000E090332C40000000000000044000
310
00008037B80C4000000020ACCE2D4000000000000004400C000000130000002A0200003C000000060000000200000000000000E5A53CC0000000C04AD41A4000000000CDCC0440000000C04AD41A4000000000E5A53CC000000000CDCC04400C00000013000000320200003C0000000600000002000000000000C04AD41A40
310
00000000E5A53CC000000000CDCC04400000000078A33CC000000000FEDD1A4000000080666604400C000000130000003A0200003C000000060000000200000000000000E5A53CC0000000C04AD41A4000000000CDCC04400000000078A33CC000000000FEDD1A4000000080666604400C00000013000000420200003C0000
310
000600000002000000000000C04AD41A4000000000E5A53CC000000000CDCC044000000000FEDD1A400000000078A33CC000000080666604400C000000130000004A0200003C000000060000000200000000000000FEDD1A400000000078A33CC000000080666604400000000078A33CC000000000FEDD1A40000000806666
310
04400C00000013000000520200003C000000060000000200000000000000FEDD1A400000000078A33CC00000008066660440000000C0D79C3CC0000000C07EF81A4000000000701B04400C000000130000005A0200003C0000000600000002000000000000C0D79C3CC0000000C07EF81A4000000000701B04400000000078
310
A33CC000000000FEDD1A4000000080666604400C00000013000000620200003C000000060000000200000000000000FEDD1A400000000078A33CC00000008066660440000000C07EF81A40000000C0D79C3CC000000000701B04400C000000130000006A0200003C0000000600000002000000000000C07EF81A40000000C0
310
D79C3CC000000000701B0440000000C0D79C3CC0000000C07EF81A4000000000701B04400C00000013000000720200003C0000000600000002000000000000C0CA933CC000000000B31C1B400000000000000440000000C07EF81A40000000C0D79C3CC000000000701B04400C000000130000007A0200003C000000060000
310
0002000000000000C0CA933CC000000000B31C1B400000000000000440000000C0D79C3CC0000000C07EF81A4000000000701B04400C00000013000000820200003C000000060000000200000000000000B31C1B40000000C0CA933CC00000000000000440000000C07EF81A40000000C0D79C3CC000000000701B04400C00
310
0000130000008A0200003C0000000600000002000000000000C006D730400000000056273C4000000020033D30C0000000A05A1A2E40000000807C5D3A40000000609C3E31C00C00000013000000920200003C00000006000000020000000000008037B80C4000000020ACCE2D400000000000000440000000A05A1A2E4000
310
0000807C5D3A40000000609C3E31C00C000000130000009A0200003C00000006000000020000000000008037B80C4000000020ACCE2D400000000000000440000000C006D730400000000056273C4000000020033D30C00C00000013000000A20200003C0000000600000002000000000000A05A1A2E40000000807C5D3A40
310
000000609C3E31C0000000C004070740000000A05F622C400000000000FE9DBF0C00000013000000AA0200003C00000006000000020000000000008037B80C4000000020ACCE2D400000000000000440000000C004070740000000A05F622C400000000000FE9DBF0C00000013000000B20200003C00000006000000020000
310
0000000080C94B0640000000E090332C400000000000000440000000C004070740000000A05F622C400000000000FE9DBF0C00000013000000BA0200003C0000000600000002000000000000C004070740000000A05F622C400000000000FE9DBF000000C006E9064000000020E05A2C400000000000708BBF0C0000001300
310
0000C20200003C000000060000000200000000000080C94B0640000000E090332C400000000000000440000000C006E9064000000020E05A2C400000000000708BBF0C00000013000000CA0200003C0000000600000002000000000000C006E9064000000020E05A2C400000000000708BBF0000008019C60640000000A024
310
522C400000000000EA6BBF0C00000013000000D20200003C000000060000000200000000000080C94B0640000000E090332C4000000000000004400000008019C60640000000A024522C400000000000EA6BBF0C00000013000000DA0200003C0000000600000002000000000000C006D730400000000056273C40000000A0
310
811E42C000000020F5242E40000000C0C9623A4000000080B65031C00C00000013000000E20200003C0000000600000002000000000000C006D730400000000056273C4000000020033D30C000000020F5242E40000000C0C9623A4000000080B65031C00C00000013000000EA0200003C0000000600000002000000000000
310
C006D730400000000056273C4000000020033D30C0000000C006D730400000000056273C40000000A0811E42C00C00000013000000F20200003C000000060000000200000000000020F5242E40000000C0C9623A4000000080B65031C000000060B9232E40000000C02B623A4000000060164A31C00C00000013000000FA02
310
00003C0000000600000002000000000000C006D730400000000056273C4000000020033D30C000000060B9232E40000000C02B623A4000000060164A31C00C00000013000000020300003C000000060000000200000000000060B9232E40000000C02B623A4000000060164A31C0000000601B202E40000000C05C603A4000
310
0000C0E94331C00C000000130000000A0300003C0000000600000002000000000000C006D730400000000056273C4000000020033D30C0000000601B202E40000000C05C603A40000000C0E94331C00C00000013000000120300003C0000000600000002000000000000C006D730400000000056273C40000000A0811E42C0
310
00000020F5242E40000000C0C9623A40000000A0811E42C00C000000130000001A0300003C000000060000000200000000000020F5242E40000000C0C9623A40000000A0811E42C000000020F5242E40000000C0C9623A4000000080B65031C00C00000013000000220300003C0000000600000002000000000000601B202E
310
40000000C05C603A40000000C0E94331C0000000A05A1A2E40000000807C5D3A40000000609C3E31C00C000000130000002A0300003C00000006000000020000000000008019C60640000000A024522C400000000000EA6BBF000000809EA0064000000020C6482C4000000000000000000C00000013000000320300003C00
310
0000060000000200000000000080C94B0640000000E090332C400000000000000440000000809EA0064000000020C6482C4000000000000000000C000000130000003A0300003C000000060000000200000000000080C94B0640000000E090332C400000000000000000000000809EA0064000000020C6482C400000000000
310
0000000C00000013000000420300003C00000006000000020000000000008037B80C4000000020ACCE2D4000000000000004400000000056273C40000000C006D7304000000020033D30C00C000000130000004A0300003C0000000600000002000000000000C006D730400000000056273C4000000020033D30C000000000
310
56273C40000000C006D7304000000020033D30C00C00000013000000520300003C000000060000000200000000000020ACCE2D400000008037B80C4000000000000004400000000056273C40000000C006D7304000000020033D30C00C000000130000005A0300003C0000000600000002000000000000A02F8740C0000000
310
C00D003C4000000040A80A23C0000000A02F8740C0000000A041E32B4000000000000004400C00000013000000620300003C0000000600000002000000000000A02F8740C0000000C00D003C4000000040A80A23C0000000A02F8740C0000000A040F22D400000000000FE9DBF0C000000130000006A0300003C0000000600
310
000002000000000000A02F8740C0000000A041E32B400000000000000440000000A02F8740C0000000A040F22D400000000000FE9DBF0C00000013000000720300003C0000000600000002000000000000A02F8740C0000000A040F22D400000000000FE9DBF000000C02F8740C000000020A6E72D400000000000708BBF0C
310
000000130000007A0300003C0000000600000002000000000000A02F8740C0000000A041E32B400000000000000440000000C02F8740C000000020A6E72D400000000000708BBF0C00000013000000820300003C0000000600000002000000000000A02F8740C0000000C00D003C4000000040A80A23C0000000A02F8740C0
310
00000040813B3A4000000000C19326C00C000000130000008A0300003C0000000600000002000000000000A02F8740C000000040813B3A4000000000C19326C0000000A02F8740C0000000A040F22D400000000000FE9DBF0C00000013000000920300003C0000000600000002000000000000C02F8740C000000020A6E72D
310
400000000000708BBF000000C02F8740C0000000E04CDB2D400000000000EA6BBF0C000000130000009A0300003C0000000600000002000000000000A02F8740C0000000A041E32B400000000000000440000000C02F8740C0000000E04CDB2D400000000000EA6BBF0C00000013000000A20300003C000000060000000200
310
0000000000C02F8740C0000000E04CDB2D400000000000EA6BBF000000A02F8740C0000000A00CCE2D4000000000000000000C00000013000000AA0300003C0000000600000002000000000000A02F8740C0000000A041E32B400000000000000440000000A02F8740C0000000A00CCE2D4000000000000000000C00000013
310
000000B20300003C0000000600000002000000000000A02F8740C0000000A00CCE2D400000000000000000000000A02F8740C0000000A041E32B4000000000000000000C00000013000000BA0300003C0000000600000002000000000000A02F8740C0000000A041E32B400000000000000440000000A02F8740C0000000A0
310
41E32B4000000000000000000C00000013000000C20300003C000000060000000200000000000020ACCE2D400000008037B80C400000000000000440000000807C5D3A40000000A05A1A2E40000000609C3E31C00C00000013000000CA0300003C00000006000000020000000000000056273C40000000C006D73040000000
310
20033D30C0000000807C5D3A40000000A05A1A2E40000000609C3E31C00C00000013000000D20300003C0000000600000002000000000000807C5D3A40000000A05A1A2E40000000609C3E31C0000000C05C603A40000000601B202E40000000C0E94331C00C00000013000000DA0300003C00000006000000020000000000
310
000056273C40000000C006D7304000000020033D30C0000000C05C603A40000000601B202E40000000C0E94331C00C00000013000000E20300003C0000000600000002000000000000C05C603A40000000601B202E40000000C0E94331C0000000C02B623A4000000060B9232E4000000060164A31C00C00000013000000EA
310
0300003C00000006000000020000000000000056273C40000000C006D7304000000020033D30C0000000C02B623A4000000060B9232E4000000060164A31C00C00000013000000F20300003C000000060000000200000000000020ACCE2D400000008037B80C400000000000000440000000A05F622C40000000C004070740
310
0000000000FE9DBF0C00000013000000FA0300003C0000000600000002000000000000A05F622C40000000C0040707400000000000FE9DBF000000807C5D3A40000000A05A1A2E40000000609C3E31C00C00000013000000020400003C0000000600000002000000000000E090332C4000000080C94B064000000000000004
310
40000000A05F622C40000000C0040707400000000000FE9DBF0C000000130000000A0400003C0000000600000002000000000000E090332C4000000080C94B0640000000000000044000000020E05A2C40000000C006E906400000000000708BBF0C00000013000000120400003C000000060000000200000000000020E05A
310
2C40000000C006E906400000000000708BBF000000A05F622C40000000C0040707400000000000FE9DBF0C000000130000001A0400003C0000000600000002000000000000E090332C4000000080C94B06400000000000000440000000A024522C400000008019C606400000000000EA6BBF0C00000013000000220400003C
310
0000000600000002000000000000A024522C400000008019C606400000000000EA6BBF00000020E05A2C40000000C006E906400000000000708BBF0C000000130000002A0400003C0000000600000002000000000000E090332C4000000080C94B0640000000000000044000000020C6482C40000000809EA0064000000000
310
000000000C00000013000000320400003C000000060000000200000000000020C6482C40000000809EA006400000000000000000000000A024522C400000008019C606400000000000EA6BBF0C000000130000003A0400003C0000000600000002000000000000E090332C4000000080C94B06400000000000000000000000
310
20C6482C40000000809EA0064000000000000000000C00000013000000420400003C0000000600000002000000000000C02B623A4000000060B9232E4000000060164A31C0000000C0C9623A4000000020F5242E4000000080B65031C00C000000130000004A0400003C00000006000000020000000000000056273C400000
310
00C006D7304000000020033D30C0000000C0C9623A4000000020F5242E4000000080B65031C00C00000013000000520400003C0000000600000002000000000000C0C9623A4000000020F5242E4000000080B65031C00000000056273C40000000C006D73040000000A0811E42C00C000000130000005A0400003C00000006
310
000000020000000000000056273C40000000C006D7304000000020033D30C00000000056273C40000000C006D73040000000A0811E42C00C00000013000000620400003C0000000600000002000000000000C0C9623A4000000020F5242E4000000080B65031C0000000C0C9623A4000000020F5242E40000000A0811E42C0
310
0C000000130000006A0400003C0000000600000002000000000000C0C9623A4000000020F5242E40000000A0811E42C00000000056273C40000000C006D73040000000A0811E42C00C00000013000000720400003C0000000600000002000000000000C00D003C40000000A02F8740C000000040A80A23C0000000A041E32B
310
40000000A02F8740C000000000000004400C000000130000007A0400003C0000000600000002000000000000A041E32B40000000A02F8740C00000000000000440000000A040F22D40000000A02F8740C00000000000FE9DBF0C00000013000000820400003C0000000600000002000000000000C00D003C40000000A02F87
310
40C000000040A80A23C0000000A040F22D40000000A02F8740C00000000000FE9DBF0C000000130000008A0400003C0000000600000002000000000000A040F22D40000000A02F8740C00000000000FE9DBF00000040813B3A40000000A02F8740C000000000C19326C00C00000013000000920400003C0000000600000002
310
000000000000C00D003C40000000A02F8740C000000040A80A23C000000040813B3A40000000A02F8740C000000000C19326C00C000000130000009A0400003C0000000600000002000000000000A041E32B40000000A02F8740C00000000000000000000000A00CCE2D40000000A02F8740C000000000000000000C000000
310
13000000A20400003C0000000600000002000000000000A041E32B40000000A02F8740C00000000000000440000000A00CCE2D40000000A02F8740C000000000000000000C00000013000000AA0400003C0000000600000002000000000000A041E32B40000000A02F8740C00000000000000440000000A041E32B40000000
310
A02F8740C000000000000000000C00000013000000B20400003C0000000600000002000000000000A00CCE2D40000000A02F8740C00000000000000000000000E04CDB2D40000000C02F8740C00000000000EA6BBF0C00000013000000BA0400003C0000000600000002000000000000A041E32B40000000A02F8740C00000
310
000000000440000000E04CDB2D40000000C02F8740C00000000000EA6BBF0C00000013000000C20400003C0000000600000002000000000000E04CDB2D40000000C02F8740C00000000000EA6BBF00000020A6E72D40000000C02F8740C00000000000708BBF0C00000013000000CA0400003C000000060000000200000000
310
0000A041E32B40000000A02F8740C0000000000000044000000020A6E72D40000000C02F8740C00000000000708BBF0C00000013000000D20400003C000000060000000200000000000020A6E72D40000000C02F8740C00000000000708BBF000000A040F22D40000000A02F8740C00000000000FE9DBF0C00000013000000
310
DA0400003C00000006000000020000000000002019C2134000000040716A3EC00000000000003240000000C04AD41A4000000000E5A53CC000000000000032400C00000013000000E20400003C0000000600000002000000000000C04AD41A4000000000E5A53CC000000000CDCC04400000002019C2134000000040716A3E
310
C000000000000032400C00000013000000EA0400003C0000000600000002000000000000C04AD41A4000000000E5A53CC000000000CDCC0440000000C04AD41A4000000000E5A53CC000000000000032400C00000013000000F20400003C00000006000000020000000000002019C2134000000040716A3EC0000000000000
310
32400000002019C2134000000040716A3EC000000000000000000C00000013000000FA0400003C0000000600000002000000000000C04AD41A4000000000E5A53CC000000000CDCC04400000002019C2134000000040716A3EC000000000000000000C00000013000000020500003C000000060000000200000000000000FE
310
DD1A400000000078A33CC000000080666604400000002019C2134000000040716A3EC000000000000000000C000000130000000A0500003C0000000600000002000000000000C07EF81A40000000C0D79C3CC000000000701B04400000002019C2134000000040716A3EC000000000000000000C0000001300000012050000
310
3C00000006000000020000000000002019C2134000000040716A3EC0000000000000000000000020393E204000000000DB3B3BC000000000000000000C000000130000001A0500003C0000000600000002000000000000C07EF81A40000000C0D79C3CC000000000701B044000000020393E204000000000DB3B3BC0000000
310
00000000000C00000013000000220500003C000000060000000200000000000000B31C1B40000000C0CA933CC0000000000000044000000020393E204000000000DB3B3BC000000000000000000C000000130000002A0500003C000000060000000200000000000020393E204000000000DB3B3BC000000000000004400000
310
0020393E204000000000DB3B3BC000000000000000000C00000013000000320500003C000000060000000200000000000000E5A53CC0000000C04AD41A4000000000CDCC044000000040716A3EC00000002019C2134000000000000032400C000000130000003A0500003C000000060000000200000000000000E5A53CC000
310
0000C04AD41A4000000000CDCC044000000040716A3EC00000002019C2134000000000000000000C00000013000000420500003C000000060000000200000000000040716A3EC00000002019C21340000000000000000000000040716A3EC00000002019C2134000000000000032400C000000130000004A0500003C000000
310
06000000020000000000000078A33CC000000000FEDD1A40000000806666044000000040716A3EC00000002019C2134000000000000000000C00000013000000520500003C0000000600000002000000000000C0D79C3CC0000000C07EF81A4000000000701B044000000040716A3EC00000002019C2134000000000000000
310
000C000000130000005A0500003C000000060000000200000000000040716A3EC00000002019C21340000000000000324000000000E5A53CC0000000C04AD41A4000000000000032400C00000013000000620500003C000000060000000200000000000000E5A53CC0000000C04AD41A4000000000CDCC044000000000E5A5
310
3CC0000000C04AD41A4000000000000032400C000000130000006A0500003C0000000600000002000000000000C0D79C3CC0000000C07EF81A4000000000701B044000000000DB3B3BC000000020393E204000000000000000000C00000013000000720500003C000000060000000200000000000040716A3EC00000002019
310
C21340000000000000000000000000DB3B3BC000000020393E204000000000000000000C000000130000007A0500003C0000000600000002000000000000C0CA933CC000000000B31C1B40000000000000044000000000DB3B3BC000000020393E204000000000000000000C00000013000000820500003C00000006000000
310
0200000000000000DB3B3BC000000020393E2040000000000000044000000000DB3B3BC000000020393E204000000000000000000C000000130000008A0500003C000000060000000200000000000020F5242E40000000C0C9623A4000000080B65031C0000000C0C9623A4000000020F5242E4000000080B65031C00C0000
310
0013000000920500003C000000060000000200000000000020F5242E40000000C0C9623A4000000080B65031C0000000C0C9623A4000000020F5242E40000000A0811E42C00C000000130000009A0500003C000000060000000200000000000020F5242E40000000C0C9623A40000000A0811E42C0000000C0C9623A400000
310
0020F5242E40000000A0811E42C00C00000013000000A20500003C0000000600000002000000000000C006D730400000000056273C40000000A0811E42C0000000C0C9623A4000000020F5242E40000000A0811E42C00C00000013000000AA0500003C0000000600000002000000000000C006D730400000000056273C4000
310
0000A0811E42C00000000056273C40000000C006D73040000000A0811E42C00C00000013000000B20500003C0000000600000002000000000000C006D730400000000056273C4000000020033D30C00000000056273C40000000C006D73040000000A0811E42C00C00000013000000BA0500003C0000000600000002000000
310
00000060B9232E40000000C02B623A4000000060164A31C0000000C0C9623A4000000020F5242E4000000080B65031C00C00000013000000C20500003C000000060000000200000000000060B9232E40000000C02B623A4000000060164A31C0000000C02B623A4000000060B9232E4000000060164A31C00C000000130000
310
00CA0500003C000000060000000200000000000060B9232E40000000C02B623A4000000060164A31C0000000C05C603A40000000601B202E40000000C0E94331C00C00000013000000D20500003C0000000600000002000000000000A05A1A2E40000000807C5D3A40000000609C3E31C0000000807C5D3A40000000A05A1A
310
2E40000000609C3E31C00C00000013000000DA0500003C0000000600000002000000000000A05A1A2E40000000807C5D3A40000000609C3E31C0000000C05C603A40000000601B202E40000000C0E94331C00C00000013000000E20500003C0000000600000002000000000000601B202E40000000C05C603A40000000C0E9
310
4331C0000000C05C603A40000000601B202E40000000C0E94331C00C00000013000000EA0500003C0000000600000002000000000000C004070740000000A05F622C400000000000FE9DBF000000807C5D3A40000000A05A1A2E40000000609C3E31C00C00000013000000F20500003C0000000600000002000000000000C0
310
04070740000000A05F622C400000000000FE9DBF000000A05F622C40000000C0040707400000000000FE9DBF0C00000013000000FA0500003C0000000600000002000000000000C006E9064000000020E05A2C400000000000708BBF000000A05F622C40000000C0040707400000000000FE9DBF0C00000013000000020600
310
003C0000000600000002000000000000C006E9064000000020E05A2C400000000000708BBF00000020E05A2C40000000C006E906400000000000708BBF0C000000130000000A0600003C0000000600000002000000000000C006E9064000000020E05A2C400000000000708BBF000000A024522C400000008019C606400000
310
000000EA6BBF0C00000013000000120600003C0000000600000002000000000000809EA0064000000020C6482C40000000000000000000000020C6482C40000000809EA0064000000000000000000C000000130000001A0600003C0000000600000002000000000000809EA0064000000020C6482C40000000000000000000
310
0000A024522C400000008019C606400000000000EA6BBF0C00000013000000220600003C00000006000000020000000000008019C60640000000A024522C400000000000EA6BBF000000A024522C400000008019C606400000000000EA6BBF0C000000130000002A0600003C00000006000000020000000000002019C21340
310
00000040716A3EC0000000000000000000000000DB3B3BC000000020393E204000000000000000000C00000013000000320600003C000000060000000200000000000020393E204000000000DB3B3BC0000000000000000000000000DB3B3BC000000020393E204000000000000000000C000000130000003A0600003C0000
310
00060000000200000000000080C94B0640000000E090332C40000000000000000000000000DB3B3BC000000020393E204000000000000000000C00000013000000420600003C000000060000000200000000000080C94B0640000000E090332C40000000000000000000000020393E204000000000DB3B3BC0000000000000
310
00000C000000130000004A0600003C000000060000000200000000000080C94B0640000000E090332C400000000000000000000000E090332C4000000080C94B064000000000000000000C00000013000000520600003C0000000600000002000000000000E090332C4000000080C94B064000000000000000000000002039
310
3E204000000000DB3B3BC000000000000000000C000000130000005A0600003C000000060000000200000000000080C94B0640000000E090332C40000000000000000000000020C6482C40000000809EA0064000000000000000000C00000013000000620600003C00000006000000020000000000002019C2134000000040
310
716A3EC0000000000000000000000040716A3EC00000002019C2134000000000000000000C000000130000006A0600003C0000000600000002000000000000A02F8740C0000000A00CCE2D40000000000000000000000000DB3B3BC000000020393E204000000000000000000C00000013000000720600003C000000060000
310
0002000000000000A02F8740C0000000A041E32B40000000000000000000000000DB3B3BC000000020393E204000000000000000000C000000130000007A0600003C000000060000000200000000000080B6C3FF3F000000A00CCE2D400000000000000000000000A02F8740C0000000A00CCE2D4000000000000000000C00
310
000013000000820600003C000000060000000200000000000080B6C3FF3F000000A00CCE2D40000000000000000000000000DB3B3BC000000020393E204000000000000000000C000000130000008A0600003C0000000600000002000000000000A00CCE2D4000000080B6C3FF3F000000000000000000000020393E204000
310
000000DB3B3BC000000000000000000C00000013000000920600003C0000000600000002000000000000A00CCE2D4000000080B6C3FF3F0000000000000000000000A00CCE2D40000000A02F8740C000000000000000000C000000130000009A0600003C0000000600000002000000000000A00CCE2D40000000A02F8740C0
310
000000000000000000000020393E204000000000DB3B3BC000000000000000000C00000013000000A20600003C0000000600000002000000000000A041E32B40000000A02F8740C0000000000000000000000020393E204000000000DB3B3BC000000000000000000C00000013000000AA0600003C00000006000000020000
310
0000000000E5A53CC0000000C04AD41A4000000000CDCC0440000000C04AD41A4000000000E5A53CC000000000000032400C00000013000000B20600003C0000000600000002000000000000C04AD41A4000000000E5A53CC0000000000000324000000000E5A53CC0000000C04AD41A4000000000000032400C0000001300
310
0000BA0600003C0000000600000002000000000000C04AD41A4000000000E5A53CC0000000000000324000000040716A3EC00000002019C2134000000000000032400C00000013000000C20600003C00000006000000020000000000002019C2134000000040716A3EC0000000000000324000000040716A3EC00000002019
310
C2134000000000000032400C00000013000000CA0600003C00000006000000020000000000002019C2134000000040716A3EC0000000000000000000000040716A3EC00000002019C2134000000000000032400C00000013000000D20600003C000000060000000200000000000040813B3A40000000000D1AFF3F00000000
310
C19326C0000000A040F22D40000000A02F8740C00000000000FE9DBF0C00000013000000DA0600003C0000000600000002000000000000A040F22D40000000000D1AFF3F0000000000FE9DBF000000A040F22D40000000A02F8740C00000000000FE9DBF0C00000013000000E20600003C0000000600000002000000000000
310
40813B3A40000000000D1AFF3F00000000C19326C000000040813B3A40000000A02F8740C000000000C19326C00C00000013000000EA0600003C0000000600000002000000000000C00D003C40000000000D1AFF3F00000040A80A23C000000040813B3A40000000A02F8740C000000000C19326C00C00000013000000F206
310
00003C0000000600000002000000000000A0A8E82D40000000000D1AFF3F0000000000D58DBF00000020A6E72D40000000C02F8740C00000000000708BBF0C00000013000000FA0600003C0000000600000002000000000000A041E32D40000000000D1AFF3F00000000006582BF00000020A6E72D40000000C02F8740C000
310
00000000708BBF0C00000013000000020700003C0000000600000002000000000000A041E32D40000000000D1AFF3F00000000006582BF000000E04CDB2D40000000C02F8740C00000000000EA6BBF0C000000130000000A0700003C0000000600000002000000000000A00CCE2D4000000080B6C3FF3F0000000000000000
310
000000E04CDB2D40000000C02F8740C00000000000EA6BBF0C00000013000000120700003C000000060000000200000000000060AEED2D40000000000D1AFF3F0000000040E195BF00000020A6E72D40000000C02F8740C00000000000708BBF0C000000130000001A0700003C000000060000000200000000000060AEED2D
310
40000000000D1AFF3F0000000040E195BF000000A040F22D40000000A02F8740C00000000000FE9DBF0C00000013000000220700003C0000000600000002000000000000000D1AFF3F000000A040F22D400000000000FE9DBF000000A02F8740C0000000A040F22D400000000000FE9DBF0C000000130000002A0700003C00
310
00000600000002000000000000000D1AFF3F00000040813B3A4000000000C19326C0000000A02F8740C0000000A040F22D400000000000FE9DBF0C00000013000000320700003C0000000600000002000000000000000D1AFF3F00000040813B3A4000000000C19326C0000000A02F8740C000000040813B3A4000000000C1
310
9326C00C000000130000003A0700003C0000000600000002000000000000000D1AFF3F00000040813B3A4000000000C19326C0000000A02F8740C0000000C00D003C4000000040A80A23C00C00000013000000420700003C000000060000000200000000000080B6C3FF3F000000A00CCE2D400000000000000000000000C0
310
2F8740C0000000E04CDB2D400000000000EA6BBF0C000000130000004A0700003C0000000600000002000000000000000D1AFF3F000000A041E32D4000000000006582BF000000C02F8740C0000000E04CDB2D400000000000EA6BBF0C00000013000000520700003C0000000600000002000000000000000D1AFF3F000000
310
A041E32D4000000000006582BF000000C02F8740C000000020A6E72D400000000000708BBF0C000000130000005A0700003C0000000600000002000000000000000D1AFF3F000000A0A8E82D400000000000D58DBF000000C02F8740C000000020A6E72D400000000000708BBF0C00000013000000620700003C0000000600
310
000002000000000000000D1AFF3F00000060AEED2D400000000040E195BF000000C02F8740C000000020A6E72D400000000000708BBF0C000000130000006A0700003C0000000600000002000000000000000D1AFF3F00000060AEED2D400000000040E195BF000000A02F8740C0000000A040F22D400000000000FE9DBF0C
310
00000013000000720700003C0000000600000002000000000000A041E32B40000000A02F8740C0000000000000044000000020393E204000000000DB3B3BC000000000000000000C000000130000007A0700003C000000060000000200000000000000DB3B3BC000000020393E20400000000000000440000000A02F8740C0
310
000000A041E32B400000000000000000
100
AcDbSubDMesh
 71
     2
 72
     0
 91
        0
 92
       82
 10
1.985281467437744
 20
14.90244007110596
 30
0.0
 10
1.943860054016113
 20
14.94386005401611
 30
-0.0089817047119141
 10
1.943860054016113
 20
14.94386005401611
 30
2.5
 10
2.787005424499511
 20
14.10071468353271
 30
2.5
 10
2.787005424499511
 20
14.10071468353271
 30
0.0
 10
1.943860054016113
 20
14.95441150665283
 30
-0.0145664215087891
 10
1.943860054016113
 20
14.96422100067138
 30
-0.021367073059082
 10
1.943860054016113
 20
14.97314929962158
 30
-0.0292892456054688
 10
1.943860054016113
 20
26.23244094848633
 30
-11.28858184814453
 10
1.943860054016113
 20
28.00020980834961
 30
-9.520814895629882
 10
1.943860054016113
 20
15.97939395904541
 30
2.5
 10
-33.0561408996582
 20
28.00020980834961
 30
-9.520814895629882
 10
-33.0561408996582
 20
15.97939395904541
 30
2.5
 10
15.97939395904541
 20
1.943860054016113
 30
2.5
 10
28.00020980834961
 20
1.943860054016113
 30
-9.520814895629882
 10
26.23244094848633
 20
1.943860054016113
 30
-11.28858184814453
 10
14.97314929962158
 20
1.943860054016113
 30
-0.0292892456054688
 10
14.96422100067138
 20
1.943860054016113
 30
-0.021367073059082
 10
14.95441150665283
 20
1.943860054016113
 30
-0.0145664215087891
 10
14.94386005401611
 20
1.943860054016113
 30
-0.0089817047119141
 10
14.94386005401611
 20
1.943860054016113
 30
2.5
 10
14.90244007110596
 20
1.985281467437744
 30
0.0
 10
14.10071468353271
 20
2.787005424499511
 30
0.0
 10
14.10071468353271
 20
2.787005424499511
 30
2.5
 10
15.97939395904541
 20
-33.0561408996582
 30
2.5
 10
28.00020980834961
 20
-33.0561408996582
 30
-9.520814895629882
 10
-33.0561408996582
 20
13.94386005401611
 30
2.5
 10
-27.23381042480469
 20
8.121529579162597
 30
2.5
 10
-28.57731246948242
 20
6.778026580810546
 30
2.5
 10
6.778026580810546
 20
-28.57731246948242
 30
2.5
 10
8.121529579162597
 20
-27.23381042480469
 30
2.5
 10
13.94386005401611
 20
-33.0561408996582
 30
2.5
 10
14.90365695953369
 20
3.589949607849121
 30
2.5
 10
3.589949607849121
 20
14.90365695953369
 30
2.5
 10
-28.64802551269531
 20
6.707316398620605
 30
2.600000381469726
 10
6.707316398620605
 20
-28.64802551269531
 30
2.600000381469726
 10
6.716789245605468
 20
-28.6385498046875
 30
2.550000190734863
 10
6.742671012878417
 20
-28.61266708374023
 30
2.513397216796875
 10
-28.61266708374023
 20
6.742671012878417
 30
2.513397216796875
 10
-28.6385498046875
 20
6.716789245605468
 30
2.550000190734863
 10
16.83994674682617
 20
28.15365600585938
 30
-16.23832893371582
 10
16.83994674682617
 20
28.15365600585938
 30
-36.23833084106446
 10
15.07218265533447
 20
26.38589096069336
 30
-36.23833084106446
 10
15.07218265533447
 20
26.38589096069336
 30
-17.3152847290039
 10
15.06977367401123
 20
26.38348007202149
 30
-17.28940391540527
 10
15.06270885467529
 20
26.37641525268555
 30
-17.26528549194336
 10
15.05147266387939
 20
26.36518096923828
 30
-17.24457359313965
 10
2.878427028656005
 20
14.19213581085205
 30
-0.0292892456054688
 10
2.863782405853271
 20
14.17749118804931
 30
-0.013397216796875
 10
2.846728324890136
 20
14.1604356765747
 30
-0.0034074783325195
 10
2.8284273147583
 20
14.1421365737915
 30
0.0
 10
28.15365600585938
 20
16.83994674682617
 30
-16.23832893371582
 10
-33.0561408996582
 20
26.23244094848633
 30
-11.28858184814453
 10
-33.0561408996582
 20
14.97314929962158
 30
-0.0292892456054688
 10
-33.05614471435547
 20
14.9524393081665
 30
-0.013397216796875
 10
-33.05614471435547
 20
14.92832088470459
 30
-0.0034074783325195
 10
-33.0561408996582
 20
14.90244007110596
 30
0.0
 10
-33.0561408996582
 20
13.94386005401611
 30
0.0
 10
14.1421365737915
 20
2.8284273147583
 30
0.0
 10
14.1604356765747
 20
2.846728324890136
 30
-0.0034074783325195
 10
14.17749118804931
 20
2.863782405853271
 30
-0.013397216796875
 10
14.19213581085205
 20
2.878427028656005
 30
-0.0292892456054688
 10
26.36518096923828
 20
15.05147266387939
 30
-17.24457359313965
 10
26.37641525268555
 20
15.06270885467529
 30
-17.26528549194336
 10
26.38348007202149
 20
15.06977367401123
 30
-17.28940391540527
 10
26.38589096069336
 20
15.07218265533447
 30
-17.3152847290039
 10
26.38589096069336
 20
15.07218265533447
 30
-36.23833084106446
 10
28.15365600585938
 20
16.83994674682617
 30
-36.23833084106446
 10
13.94386005401611
 20
-33.0561408996582
 30
0.0
 10
14.90244007110596
 20
-33.0561408996582
 30
0.0
 10
14.92832088470459
 20
-33.05614471435547
 30
-0.0034074783325195
 10
14.9524393081665
 20
-33.05614471435547
 30
-0.013397216796875
 10
14.97314929962158
 20
-33.0561408996582
 30
-0.0292892456054688
 10
26.23244094848633
 20
-33.0561408996582
 30
-11.28858184814453
 10
4.939548969268798
 20
-30.41579055786133
 30
18.0
 10
4.939548969268798
 20
-30.41579055786133
 30
0.0
 10
8.121529579162597
 20
-27.23381042480469
 30
0.0
 10
6.707316398620605
 20
-28.64802551269531
 30
18.0
 10
-30.41579055786133
 20
4.939548969268798
 30
0.0
 10
-30.41579055786133
 20
4.939548969268798
 30
18.0
 10
-28.64802551269531
 20
6.707316398620605
 30
18.0
 10
-27.23381042480469
 20
8.121529579162597
 30
0.0
 93
      640
 90
        3
 90
        1
 90
        2
 90
        0
 90
        3
 90
        0
 90
        2
 90
        3
 90
        3
 90
        0
 90
        3
 90
        4
 90
        3
 90
        1
 90
        5
 90
        2
 90
        3
 90
        2
 90
        5
 90
        6
 90
        3
 90
        2
 90
        6
 90
        7
 90
        3
 90
        7
 90
        8
 90
        2
 90
        3
 90
        2
 90
        8
 90
        9
 90
        3
 90
        2
 90
        9
 90
       10
 90
        3
 90
        9
 90
       11
 90
       10
 90
        3
 90
       10
 90
       11
 90
       12
 90
        3
 90
       13
 90
       14
 90
       20
 90
        3
 90
       20
 90
       14
 90
       15
 90
        3
 90
       20
 90
       15
 90
       16
 90
        3
 90
       16
 90
       17
 90
       20
 90
        3
 90
       20
 90
       17
 90
       18
 90
        3
 90
       20
 90
       18
 90
       19
 90
        3
 90
       19
 90
       21
 90
       20
 90
        3
 90
       20
 90
       21
 90
       23
 90
        3
 90
       23
 90
       21
 90
       22
 90
        3
 90
       14
 90
       13
 90
       25
 90
        3
 90
       25
 90
       13
 90
       24
 90
        3
 90
        2
 90
       27
 90
        3
 90
        3
 90
        3
 90
       27
 90
       30
 90
        3
 90
        3
 90
       30
 90
       23
 90
        3
 90
       23
 90
       30
 90
       20
 90
        3
 90
       20
 90
       30
 90
       13
 90
        3
 90
       13
 90
       30
 90
       24
 90
        3
 90
       24
 90
       30
 90
       31
 90
        3
 90
        2
 90
       10
 90
       27
 90
        3
 90
       27
 90
       10
 90
       12
 90
        3
 90
       27
 90
       12
 90
       26
 90
        3
 90
       28
 90
       29
 90
       27
 90
        3
 90
       27
 90
       29
 90
       30
 90
        3
 90
       32
 90
       33
 90
       23
 90
        3
 90
       23
 90
       33
 90
        3
 90
        3
 90
       34
 90
       35
 90
       39
 90
        3
 90
       39
 90
       35
 90
       36
 90
        3
 90
       39
 90
       36
 90
       38
 90
        3
 90
       38
 90
       36
 90
       37
 90
        3
 90
       38
 90
       37
 90
       28
 90
        3
 90
       28
 90
       37
 90
       29
 90
        3
 90
       40
 90
       46
 90
       33
 90
        3
 90
       33
 90
       46
 90
       47
 90
        3
 90
       33
 90
       47
 90
        3
 90
        3
 90
        3
 90
       47
 90
       48
 90
        3
 90
        3
 90
       48
 90
       49
 90
        3
 90
       41
 90
       43
 90
       40
 90
        3
 90
       40
 90
       43
 90
       44
 90
        3
 90
       40
 90
       44
 90
       45
 90
        3
 90
       41
 90
       42
 90
       43
 90
        3
 90
       45
 90
       46
 90
       40
 90
        3
 90
       49
 90
       50
 90
        3
 90
        3
 90
        3
 90
       50
 90
        4
 90
        3
 90
       40
 90
       33
 90
       51
 90
        3
 90
       51
 90
       33
 90
       32
 90
        3
 90
       12
 90
       11
 90
       26
 90
        3
 90
       26
 90
       11
 90
       53
 90
        3
 90
       26
 90
       53
 90
       54
 90
        3
 90
       11
 90
       52
 90
       53
 90
        3
 90
       54
 90
       55
 90
       26
 90
        3
 90
       26
 90
       55
 90
       56
 90
        3
 90
       26
 90
       56
 90
       57
 90
        3
 90
       32
 90
       62
 90
       51
 90
        3
 90
       51
 90
       62
 90
       63
 90
        3
 90
       51
 90
       63
 90
       64
 90
        3
 90
       62
 90
       32
 90
       61
 90
        3
 90
       61
 90
       32
 90
       23
 90
        3
 90
       61
 90
       23
 90
       60
 90
        3
 90
       60
 90
       23
 90
       59
 90
        3
 90
       59
 90
       23
 90
       58
 90
        3
 90
       58
 90
       23
 90
       22
 90
        3
 90
       64
 90
       65
 90
       51
 90
        3
 90
       51
 90
       65
 90
       67
 90
        3
 90
       67
 90
       65
 90
       66
 90
        3
 90
       24
 90
       31
 90
       25
 90
        3
 90
       25
 90
       31
 90
       72
 90
        3
 90
       25
 90
       72
 90
       73
 90
        3
 90
       68
 90
       69
 90
       31
 90
        3
 90
       31
 90
       69
 90
       70
 90
        3
 90
       31
 90
       70
 90
       71
 90
        3
 90
       71
 90
       72
 90
       31
 90
        3
 90
       77
 90
       74
 90
       35
 90
        3
 90
       35
 90
       74
 90
       75
 90
        3
 90
       35
 90
       75
 90
       36
 90
        3
 90
       36
 90
       75
 90
       37
 90
        3
 90
       37
 90
       75
 90
       76
 90
        3
 90
       37
 90
       76
 90
       29
 90
        3
 90
       29
 90
       76
 90
       30
 90
        3
 90
       79
 90
       34
 90
       78
 90
        3
 90
       78
 90
       34
 90
       39
 90
        3
 90
       78
 90
       39
 90
       38
 90
        3
 90
       79
 90
       80
 90
       34
 90
        3
 90
       78
 90
       38
 90
       81
 90
        3
 90
       81
 90
       38
 90
       28
 90
        3
 90
       81
 90
       28
 90
       27
 90
        3
 90
       65
 90
       43
 90
       66
 90
        3
 90
       66
 90
       43
 90
       42
 90
        3
 90
       67
 90
       66
 90
       41
 90
        3
 90
       41
 90
       66
 90
       42
 90
        3
 90
       41
 90
       40
 90
       67
 90
        3
 90
       67
 90
       40
 90
       51
 90
        3
 90
       43
 90
       65
 90
       44
 90
        3
 90
       44
 90
       65
 90
       64
 90
        3
 90
       44
 90
       64
 90
       63
 90
        3
 90
       62
 90
       46
 90
       63
 90
        3
 90
       63
 90
       46
 90
       45
 90
        3
 90
       63
 90
       45
 90
       44
 90
        3
 90
       46
 90
       62
 90
       47
 90
        3
 90
       47
 90
       62
 90
       61
 90
        3
 90
       47
 90
       61
 90
       48
 90
        3
 90
       48
 90
       61
 90
       60
 90
        3
 90
       48
 90
       60
 90
       59
 90
        3
 90
       58
 90
       50
 90
       59
 90
        3
 90
       59
 90
       50
 90
       49
 90
        3
 90
       59
 90
       49
 90
       48
 90
        3
 90
       75
 90
       81
 90
       76
 90
        3
 90
       76
 90
       81
 90
        4
 90
        3
 90
       76
 90
        4
 90
       22
 90
        3
 90
       22
 90
        4
 90
       58
 90
        3
 90
       58
 90
        4
 90
       50
 90
        3
 90
       75
 90
       78
 90
       81
 90
        3
 90
       57
 90
       56
 90
       81
 90
        3
 90
       81
 90
       56
 90
        0
 90
        3
 90
       81
 90
        0
 90
        4
 90
        3
 90
       22
 90
       21
 90
       76
 90
        3
 90
       76
 90
       21
 90
       69
 90
        3
 90
       76
 90
       69
 90
       68
 90
        3
 90
       35
 90
       34
 90
       77
 90
        3
 90
       77
 90
       34
 90
       80
 90
        3
 90
       74
 90
       77
 90
       79
 90
        3
 90
       79
 90
       77
 90
       80
 90
        3
 90
       78
 90
       75
 90
       79
 90
        3
 90
       79
 90
       75
 90
       74
 90
        3
 90
       16
 90
       15
 90
       72
 90
        3
 90
       72
 90
       15
 90
       73
 90
        3
 90
       25
 90
       73
 90
       14
 90
        3
 90
       14
 90
       73
 90
       15
 90
        3
 90
       18
 90
       71
 90
       19
 90
        3
 90
       19
 90
       71
 90
       70
 90
        3
 90
       19
 90
       70
 90
       21
 90
        3
 90
       21
 90
       70
 90
       69
 90
        3
 90
       18
 90
       17
 90
       71
 90
        3
 90
       71
 90
       17
 90
       72
 90
        3
 90
       72
 90
       17
 90
       16
 90
        3
 90
        7
 90
       53
 90
        8
 90
        3
 90
        8
 90
       53
 90
       52
 90
        3
 90
        9
 90
        8
 90
       11
 90
        3
 90
       11
 90
        8
 90
       52
 90
        3
 90
        0
 90
       55
 90
        1
 90
        3
 90
        1
 90
       55
 90
       54
 90
        3
 90
        1
 90
       54
 90
        5
 90
        3
 90
        5
 90
       54
 90
        6
 90
        3
 90
        6
 90
       54
 90
       53
 90
        3
 90
        6
 90
       53
 90
        7
 90
        3
 90
        0
 90
       56
 90
       55
 90
        3
 90
       68
 90
       31
 90
       76
 90
        3
 90
       76
 90
       31
 90
       30
 90
        3
 90
       81
 90
       27
 90
       57
 90
        3
 90
       57
 90
       27
 90
       26
 94
      240
 90
        1
 90
        2
 90
        0
 90
        2
 90
        0
 90
        1
 90
        2
 90
        3
 90
        0
 90
        3
 90
        3
 90
        4
 90
        0
 90
        4
 90
        1
 90
        5
 90
        2
 90
        5
 90
        5
 90
        6
 90
        2
 90
        6
 90
        6
 90
        7
 90
        2
 90
        7
 90
        7
 90
        8
 90
        2
 90
        8
 90
        8
 90
        9
 90
        2
 90
        9
 90
        9
 90
       10
 90
        2
 90
       10
 90
        9
 90
       11
 90
       10
 90
       11
 90
       11
 90
       12
 90
       10
 90
       12
 90
       13
 90
       14
 90
       14
 90
       20
 90
       13
 90
       20
 90
       14
 90
       15
 90
       15
 90
       20
 90
       15
 90
       16
 90
       16
 90
       20
 90
       16
 90
       17
 90
       17
 90
       20
 90
       17
 90
       18
 90
       18
 90
       20
 90
       18
 90
       19
 90
       19
 90
       20
 90
       19
 90
       21
 90
       20
 90
       21
 90
       21
 90
       23
 90
       20
 90
       23
 90
       21
 90
       22
 90
       22
 90
       23
 90
       13
 90
       25
 90
       14
 90
       25
 90
       13
 90
       24
 90
       24
 90
       25
 90
        2
 90
       27
 90
        3
 90
       27
 90
       27
 90
       30
 90
        3
 90
       30
 90
       23
 90
       30
 90
        3
 90
       23
 90
       20
 90
       30
 90
       13
 90
       30
 90
       24
 90
       30
 90
       30
 90
       31
 90
       24
 90
       31
 90
       10
 90
       27
 90
       12
 90
       27
 90
       12
 90
       26
 90
       26
 90
       27
 90
       28
 90
       29
 90
       27
 90
       29
 90
       27
 90
       28
 90
       29
 90
       30
 90
       32
 90
       33
 90
       23
 90
       33
 90
       23
 90
       32
 90
        3
 90
       33
 90
       34
 90
       35
 90
       35
 90
       39
 90
       34
 90
       39
 90
       35
 90
       36
 90
       36
 90
       39
 90
       36
 90
       38
 90
       38
 90
       39
 90
       36
 90
       37
 90
       37
 90
       38
 90
       28
 90
       37
 90
       28
 90
       38
 90
       29
 90
       37
 90
       40
 90
       46
 90
       33
 90
       46
 90
       33
 90
       40
 90
       46
 90
       47
 90
       33
 90
       47
 90
        3
 90
       47
 90
       47
 90
       48
 90
        3
 90
       48
 90
       48
 90
       49
 90
        3
 90
       49
 90
       41
 90
       43
 90
       40
 90
       43
 90
       40
 90
       41
 90
       43
 90
       44
 90
       40
 90
       44
 90
       44
 90
       45
 90
       40
 90
       45
 90
       41
 90
       42
 90
       42
 90
       43
 90
       45
 90
       46
 90
       49
 90
       50
 90
        3
 90
       50
 90
        4
 90
       50
 90
       33
 90
       51
 90
       40
 90
       51
 90
       32
 90
       51
 90
       11
 90
       26
 90
       11
 90
       53
 90
       26
 90
       53
 90
       53
 90
       54
 90
       26
 90
       54
 90
       11
 90
       52
 90
       52
 90
       53
 90
       54
 90
       55
 90
       26
 90
       55
 90
       55
 90
       56
 90
       26
 90
       56
 90
       56
 90
       57
 90
       26
 90
       57
 90
       32
 90
       62
 90
       51
 90
       62
 90
       62
 90
       63
 90
       51
 90
       63
 90
       63
 90
       64
 90
       51
 90
       64
 90
       32
 90
       61
 90
       61
 90
       62
 90
       23
 90
       61
 90
       23
 90
       60
 90
       60
 90
       61
 90
       23
 90
       59
 90
       59
 90
       60
 90
       23
 90
       58
 90
       58
 90
       59
 90
       22
 90
       58
 90
       64
 90
       65
 90
       51
 90
       65
 90
       65
 90
       67
 90
       51
 90
       67
 90
       65
 90
       66
 90
       66
 90
       67
 90
       25
 90
       31
 90
       31
 90
       72
 90
       25
 90
       72
 90
       72
 90
       73
 90
       25
 90
       73
 90
       68
 90
       69
 90
       31
 90
       69
 90
       31
 90
       68
 90
       69
 90
       70
 90
       31
 90
       70
 90
       70
 90
       71
 90
       31
 90
       71
 90
       71
 90
       72
 90
       74
 90
       77
 90
       35
 90
       74
 90
       35
 90
       77
 90
       74
 90
       75
 90
       35
 90
       75
 90
       36
 90
       75
 90
       37
 90
       75
 90
       75
 90
       76
 90
       37
 90
       76
 90
       29
 90
       76
 90
       30
 90
       76
 90
       34
 90
       79
 90
       34
 90
       78
 90
       78
 90
       79
 90
       39
 90
       78
 90
       38
 90
       78
 90
       79
 90
       80
 90
       34
 90
       80
 90
       38
 90
       81
 90
       78
 90
       81
 90
       28
 90
       81
 90
       27
 90
       81
 90
       43
 90
       65
 90
       43
 90
       66
 90
       42
 90
       66
 90
       41
 90
       66
 90
       41
 90
       67
 90
       40
 90
       67
 90
       44
 90
       65
 90
       44
 90
       64
 90
       44
 90
       63
 90
       46
 90
       62
 90
       46
 90
       63
 90
       45
 90
       63
 90
       47
 90
       62
 90
       47
 90
       61
 90
       48
 90
       61
 90
       48
 90
       60
 90
       48
 90
       59
 90
       50
 90
       58
 90
       50
 90
       59
 90
       49
 90
       59
 90
       75
 90
       81
 90
       76
 90
       81
 90
        4
 90
       81
 90
        4
 90
       76
 90
        4
 90
       22
 90
       22
 90
       76
 90
        4
 90
       58
 90
       75
 90
       78
 90
       56
 90
       81
 90
       57
 90
       81
 90
        0
 90
       56
 90
        0
 90
       81
 90
       21
 90
       76
 90
       21
 90
       69
 90
       69
 90
       76
 90
       68
 90
       76
 90
       34
 90
       77
 90
       77
 90
       80
 90
       77
 90
       79
 90
       74
 90
       79
 90
       75
 90
       79
 90
       15
 90
       72
 90
       16
 90
       72
 90
       15
 90
       73
 90
       14
 90
       73
 90
       18
 90
       71
 90
       19
 90
       71
 90
       19
 90
       70
 90
       21
 90
       70
 90
       17
 90
       71
 90
       17
 90
       72
 90
        7
 90
       53
 90
        8
 90
       53
 90
        8
 90
       52
 90
        8
 90
       11
 90
        0
 90
       55
 90
        1
 90
       55
 90
        1
 90
       54
 90
        5
 90
       54
 90
        6
 90
       54
 90
        6
 90
       53
 90
       31
 90
       76
 90
       27
 90
       57
 95
      240
140
0.0
140
0.0
140
0.0
140
0.0
140
0.0
140
0.0
140
0.0
140
0.0
140
0.0
140
0.0
140
0.0
140
0.0
140
0.0
140
0.0
140
0.0
140
0.0
140
0.0
140
0.0
140
0.0
140
0.0
140
0.0
140
0.0
140
0.0
140
0.0
140
0.0
140
0.0
140
0.0
140
0.0
140
0.0
140
0.0
140
0.0
140
0.0
140
0.0
140
0.0
140
0.0
140
0.0
140
0.0
140
0.0
140
0.0
140
0.0
140
0.0
140
0.0
140
0.0
140
0.0
140
0.0
140
0.0
140
0.0
140
0.0
140
0.0
140
0.0
140
0.0
140
0.0
140
0.0
140
0.0
140
0.0
140
0.0
140
0.0
140
0.0
140
0.0
140
0.0
140
0.0
140
0.0
140
0.0
140
0.0
140
0.0
140
0.0
140
0.0
140
0.0
140
0.0
140
0.0
140
0.0
140
0.0
140
0.0
140
0.0
140
0.0
140
0.0
140
0.0
140
0.0
140
0.0
140
0.0
140
0.0
140
0.0
140
0.0
140
0.0
140
0.0
140
0.0
140
0.0
140
0.0
140
0.0
140
0.0
140
0.0
140
0.0
140
0.0
140
0.0
140
0.0
140
0.0
140
0.0
140
0.0
140
0.0
140
0.0
140
0.0
140
0.0
140
0.0
140
0.0
140
0.0
140
0.0
140
0.0
140
0.0
140
0.0
140
0.0
140
0.0
140
0.0
140
0.0
140
0.0
140
0.0
140
0.0
140
0.0
140
0.0
140
0.0
140
0.0
140
0.0
140
0.0
140
0.0
140
0.0
140
0.0
140
0.0
140
0.0
140
0.0
140
0.0
140
0.0
140
0.0
140
0.0
140
0.0
140
0.0
140
0.0
140
0.0
140
0.0
140
0.0
140
0.0
140
0.0
140
0.0
140
0.0
140
0.0
140
0.0
140
0.0
140
0.0
140
0.0
140
0.0
140
0.0
140
0.0
140
0.0
140
0.0
140
0.0
140
0.0
140
0.0
140
0.0
140
0.0
140
0.0
140
0.0
140
0.0
140
0.0
140
0.0
140
0.0
140
0.0
140
0.0
140
0.0
140
0.0
140
0.0
140
0.0
140
0.0
140
0.0
140
0.0
140
0.0
140
0.0
140
0.0
140
0.0
140
0.0
140
0.0
140
0.0
140
0.0
140
0.0
140
0.0
140
0.0
140
0.0
140
0.0
140
0.0
140
0.0
140
0.0
140
0.0
140
0.0
140
0.0
140
0.0
140
0.0
140
0.0
140
0.0
140
0.0
140
0.0
140
0.0
140
0.0
140
0.0
140
0.0
140
0.0
140
0.0
140
0.0
140
0.0
140
0.0
140
0.0
140
0.0
140
0.0
140
0.0
140
0.0
140
0.0
140
0.0
140
0.0
140
0.0
140
0.0
140
0.0
140
0.0
140
0.0
140
0.0
140
0.0
140
0.0
140
0.0
140
0.0
140
0.0
140
0.0
140
0.0
140
0.0
140
0.0
140
0.0
140
0.0
140
0.0
140
0.0
140
0.0
140
0.0
140
0.0
140
0.0
140
0.0
140
0.0
140
0.0
 90
        0
  0
POLYLINE
  5
FB
330
1F
100
AcDbEntity
  8
0
100
AcDb3dPolyline
 66
     1
 10
0.0
 20
0.0
 30
0.0
 70
     9
  0
VERTEX
  5
FC
330
FB
100
AcDbEntity
  8
0
100
AcDbVertex
100
AcDb3dPolylineVertex
 10
-2.131518840789794
 20
-23.34472274780273
 30
12.24999904632568
 70
    32
  0
VERTEX
  5
FD
330
FB
100
AcDbEntity
  8
0
100
AcDbVertex
100
AcDb3dPolylineVertex
 10
-23.34472274780273
 20
-2.131518840789794
 30
12.24999904632568
 70
    32
  0
VERTEX
  5
FE
330
FB
100
AcDbEntity
  8
0
100
AcDbVertex
100
AcDb3dPolylineVertex
 10
-23.34472274780273
 20
-2.131518840789794
 30
7.749999046325683
 70
    32
  0
VERTEX
  5
FF
330
FB
100
AcDbEntity
  8
0
100
AcDbVertex
100
AcDb3dPolylineVertex
 10
-2.131518840789794
 20
-23.34472274780273
 30
7.749999046325683
 70
    32
  0
SEQEND
  5
304
330
FB
100
AcDbEntity
  8
0
  0
POLYLINE
  5
100
330
1F
100
AcDbEntity
  8
0
100
AcDb3dPolyline
 66
     1
 10
0.0
 20
0.0
 30
0.0
 70
     9
  0
VERTEX
  5
101
330
100
100
AcDbEntity
  8
0
100
AcDbVertex
100
AcDb3dPolylineVertex
 10
-11.3061408996582
 20
20.54632949829102
 30
-5.6024751663208
 70
    32
  0
VERTEX
  5
102
330
100
100
AcDbEntity
  8
0
100
AcDbVertex
100
AcDb3dPolylineVertex
 10
-11.31380367279053
 20
20.39189910888672
 30
-5.447967529296875
 70
    32
  0
VERTEX
  5
103
330
100
100
AcDbEntity
  8
0
100
AcDbVertex
100
AcDb3dPolylineVertex
 10
-11.33233165740967
 20
20.23962783813477
 30
-5.295472145080566
 70
    32
  0
VERTEX
  5
104
330
100
100
AcDbEntity
  8
0
100
AcDbVertex
100
AcDb3dPolylineVertex
 10
-11.36145210266113
 20
20.08971023559571
 30
-5.145179748535156
 70
    32
  0
VERTEX
  5
105
330
100
100
AcDbEntity
  8
0
100
AcDbVertex
100
AcDb3dPolylineVertex
 10
-11.40089607238769
 20
19.94232559204101
 30
-4.997280597686767
 70
    32
  0
VERTEX
  5
106
330
100
100
AcDbEntity
  8
0
100
AcDbVertex
100
AcDb3dPolylineVertex
 10
-11.45039176940918
 20
19.79766082763672
 30
-4.851963996887207
 70
    32
  0
VERTEX
  5
107
330
100
100
AcDbEntity
  8
0
100
AcDbVertex
100
AcDb3dPolylineVertex
 10
-11.50966930389404
 20
19.65590667724609
 30
-4.709417819976806
 70
    32
  0
VERTEX
  5
108
330
100
100
AcDbEntity
  8
0
100
AcDbVertex
100
AcDb3dPolylineVertex
 10
-11.57845973968506
 20
19.51724243164062
 30
-4.569834232330322
 70
    32
  0
VERTEX
  5
109
330
100
100
AcDbEntity
  8
0
100
AcDbVertex
100
AcDb3dPolylineVertex
 10
-11.65648746490478
 20
19.38185882568359
 30
-4.433401584625244
 70
    32
  0
VERTEX
  5
10A
330
100
100
AcDbEntity
  8
0
100
AcDbVertex
100
AcDb3dPolylineVertex
 10
-11.74348545074463
 20
19.24993896484375
 30
-4.300309658050537
 70
    32
  0
VERTEX
  5
10B
330
100
100
AcDbEntity
  8
0
100
AcDbVertex
100
AcDb3dPolylineVertex
 10
-11.83918285369873
 20
19.12166976928711
 30
-4.170748233795166
 70
    32
  0
VERTEX
  5
10C
330
100
100
AcDbEntity
  8
0
100
AcDbVertex
100
AcDb3dPolylineVertex
 10
-11.94330501556396
 20
18.99723815917969
 30
-4.044906616210937
 70
    32
  0
VERTEX
  5
10D
330
100
100
AcDbEntity
  8
0
100
AcDbVertex
100
AcDb3dPolylineVertex
 10
-12.05558586120605
 20
18.8768310546875
 30
-3.922975540161132
 70
    32
  0
VERTEX
  5
10E
330
100
100
AcDbEntity
  8
0
100
AcDbVertex
100
AcDb3dPolylineVertex
 10
-12.17575073242187
 20
18.76062774658203
 30
-3.805142879486083
 70
    32
  0
VERTEX
  5
10F
330
100
100
AcDbEntity
  8
0
100
AcDbVertex
100
AcDb3dPolylineVertex
 10
-12.30353260040283
 20
18.64882278442383
 30
-3.691598892211914
 70
    32
  0
VERTEX
  5
110
330
100
100
AcDbEntity
  8
0
100
AcDbVertex
100
AcDb3dPolylineVertex
 10
-12.43865966796875
 20
18.54159927368164
 30
-3.582534790039062
 70
    32
  0
VERTEX
  5
111
330
100
100
AcDbEntity
  8
0
100
AcDbVertex
100
AcDb3dPolylineVertex
 10
-12.58085918426514
 20
18.43914031982422
 30
-3.478137969970703
 70
    32
  0
VERTEX
  5
112
330
100
100
AcDbEntity
  8
0
100
AcDbVertex
100
AcDb3dPolylineVertex
 10
-12.72986125946045
 20
18.34163284301758
 30
-3.378598690032958
 70
    32
  0
VERTEX
  5
113
330
100
100
AcDbEntity
  8
0
100
AcDbVertex
100
AcDb3dPolylineVertex
 10
-12.88539600372314
 20
18.24926376342773
 30
-3.284108161926269
 70
    32
  0
VERTEX
  5
114
330
100
100
AcDbEntity
  8
0
100
AcDbVertex
100
AcDb3dPolylineVertex
 10
-13.04719161987305
 20
18.16222381591797
 30
-3.19485330581665
 70
    32
  0
VERTEX
  5
115
330
100
100
AcDbEntity
  8
0
100
AcDbVertex
100
AcDb3dPolylineVertex
 10
-13.21497917175293
 20
18.0806884765625
 30
-3.111026287078857
 70
    32
  0
VERTEX
  5
116
330
100
100
AcDbEntity
  8
0
100
AcDbVertex
100
AcDb3dPolylineVertex
 10
-13.38848400115967
 20
18.00485229492187
 30
-3.032814979553222
 70
    32
  0
VERTEX
  5
117
330
100
100
AcDbEntity
  8
0
100
AcDbVertex
100
AcDb3dPolylineVertex
 10
-13.56743907928467
 20
17.93489837646484
 30
-2.960410118103027
 70
    32
  0
VERTEX
  5
118
330
100
100
AcDbEntity
  8
0
100
AcDbVertex
100
AcDb3dPolylineVertex
 10
-13.75157356262207
 20
17.87100982666015
 30
-2.894001007080078
 70
    32
  0
VERTEX
  5
119
330
100
100
AcDbEntity
  8
0
100
AcDbVertex
100
AcDb3dPolylineVertex
 10
-13.94061374664306
 20
17.81337738037109
 30
-2.833777427673339
 70
    32
  0
VERTEX
  5
11A
330
100
100
AcDbEntity
  8
0
100
AcDbVertex
100
AcDb3dPolylineVertex
 10
-14.13429069519043
 20
17.7621841430664
 30
-2.77992820739746
 70
    32
  0
VERTEX
  5
11B
330
100
100
AcDbEntity
  8
0
100
AcDbVertex
100
AcDb3dPolylineVertex
 10
-14.3323335647583
 20
17.71761703491211
 30
-2.732644081115722
 70
    32
  0
VERTEX
  5
11C
330
100
100
AcDbEntity
  8
0
100
AcDbVertex
100
AcDb3dPolylineVertex
 10
-14.53447151184082
 20
17.67986297607422
 30
-2.692113876342773
 70
    32
  0
VERTEX
  5
11D
330
100
100
AcDbEntity
  8
0
100
AcDbVertex
100
AcDb3dPolylineVertex
 10
-14.74043369293213
 20
17.64910507202148
 30
-2.658527374267578
 70
    32
  0
VERTEX
  5
11E
330
100
100
AcDbEntity
  8
0
100
AcDbVertex
100
AcDb3dPolylineVertex
 10
-14.94994926452636
 20
17.62553024291992
 30
-2.632074832916259
 70
    32
  0
VERTEX
  5
11F
330
100
100
AcDbEntity
  8
0
100
AcDbVertex
100
AcDb3dPolylineVertex
 10
-15.16274738311767
 20
17.60932540893555
 30
-2.612945079803466
 70
    32
  0
VERTEX
  5
120
330
100
100
AcDbEntity
  8
0
100
AcDbVertex
100
AcDb3dPolylineVertex
 10
-15.37855815887451
 20
17.60067749023437
 30
-2.601328372955322
 70
    32
  0
VERTEX
  5
121
330
100
100
AcDbEntity
  8
0
100
AcDbVertex
100
AcDb3dPolylineVertex
 10
-15.59710884094238
 20
17.59977340698242
 30
-2.597414016723632
 70
    32
  0
VERTEX
  5
122
330
100
100
AcDbEntity
  8
0
100
AcDbVertex
100
AcDb3dPolylineVertex
 10
-15.81555080413818
 20
17.60669326782226
 30
-2.60132884979248
 70
    32
  0
VERTEX
  5
123
330
100
100
AcDbEntity
  8
0
100
AcDbVertex
100
AcDb3dPolylineVertex
 10
-16.03104400634765
 20
17.62128067016601
 30
-2.612944602966308
 70
    32
  0
VERTEX
  5
124
330
100
100
AcDbEntity
  8
0
100
AcDbVertex
100
AcDb3dPolylineVertex
 10
-16.24331283569336
 20
17.64333724975586
 30
-2.632074356079101
 70
    32
  0
VERTEX
  5
125
330
100
100
AcDbEntity
  8
0
100
AcDbVertex
100
AcDb3dPolylineVertex
 10
-16.45209884643555
 20
17.67266845703125
 30
-2.658528327941894
 70
    32
  0
VERTEX
  5
126
330
100
100
AcDbEntity
  8
0
100
AcDbVertex
100
AcDb3dPolylineVertex
 10
-16.65713882446289
 20
17.7090835571289
 30
-2.692113399505615
 70
    32
  0
VERTEX
  5
127
330
100
100
AcDbEntity
  8
0
100
AcDbVertex
100
AcDb3dPolylineVertex
 10
-16.85815811157226
 20
17.75239181518555
 30
-2.732643604278564
 70
    32
  0
VERTEX
  5
128
330
100
100
AcDbEntity
  8
0
100
AcDbVertex
100
AcDb3dPolylineVertex
 10
-17.05490112304687
 20
17.80239105224609
 30
-2.77992820739746
 70
    32
  0
VERTEX
  5
129
330
100
100
AcDbEntity
  8
0
100
AcDbVertex
100
AcDb3dPolylineVertex
 10
-17.24709701538086
 20
17.8588981628418
 30
-2.833777904510498
 70
    32
  0
VERTEX
  5
12A
330
100
100
AcDbEntity
  8
0
100
AcDbVertex
100
AcDb3dPolylineVertex
 10
-17.43447875976562
 20
17.92171096801758
 30
-2.894001007080078
 70
    32
  0
VERTEX
  5
12B
330
100
100
AcDbEntity
  8
0
100
AcDbVertex
100
AcDb3dPolylineVertex
 10
-17.61678314208984
 20
17.99064254760742
 30
-2.960410118103027
 70
    32
  0
VERTEX
  5
12C
330
100
100
AcDbEntity
  8
0
100
AcDbVertex
100
AcDb3dPolylineVertex
 10
-17.79374313354492
 20
18.06550216674805
 30
-3.03281545639038
 70
    32
  0
VERTEX
  5
12D
330
100
100
AcDbEntity
  8
0
100
AcDbVertex
100
AcDb3dPolylineVertex
 10
-17.96509552001953
 20
18.14608383178711
 30
-3.111026287078857
 70
    32
  0
VERTEX
  5
12E
330
100
100
AcDbEntity
  8
0
100
AcDbVertex
100
AcDb3dPolylineVertex
 10
-18.13057708740234
 20
18.23220825195312
 30
-3.19485330581665
 70
    32
  0
VERTEX
  5
12F
330
100
100
AcDbEntity
  8
0
100
AcDbVertex
100
AcDb3dPolylineVertex
 10
-18.28991317749023
 20
18.32366943359375
 30
-3.284107685089111
 70
    32
  0
VERTEX
  5
130
330
100
100
AcDbEntity
  8
0
100
AcDbVertex
100
AcDb3dPolylineVertex
 10
-18.4428482055664
 20
18.42028427124023
 30
-3.378599166870117
 70
    32
  0
VERTEX
  5
131
330
100
100
AcDbEntity
  8
0
100
AcDbVertex
100
AcDb3dPolylineVertex
 10
-18.58910751342773
 20
18.52185821533203
 30
-3.478137969970703
 70
    32
  0
VERTEX
  5
132
330
100
100
AcDbEntity
  8
0
100
AcDbVertex
100
AcDb3dPolylineVertex
 10
-18.72843551635742
 20
18.62818908691406
 30
-3.582534790039062
 70
    32
  0
VERTEX
  5
133
330
100
100
AcDbEntity
  8
0
100
AcDbVertex
100
AcDb3dPolylineVertex
 10
-18.86055755615234
 20
18.73909378051758
 30
-3.691599369049072
 70
    32
  0
VERTEX
  5
134
330
100
100
AcDbEntity
  8
0
100
AcDbVertex
100
AcDb3dPolylineVertex
 10
-18.98521041870117
 20
18.85437774658203
 30
-3.805143356323242
 70
    32
  0
VERTEX
  5
135
330
100
100
AcDbEntity
  8
0
100
AcDbVertex
100
AcDb3dPolylineVertex
 10
-19.10213470458984
 20
18.97384262084961
 30
-3.922975063323974
 70
    32
  0
VERTEX
  5
136
330
100
100
AcDbEntity
  8
0
100
AcDbVertex
100
AcDb3dPolylineVertex
 10
-19.21105575561523
 20
19.09729766845703
 30
-4.044907569885253
 70
    32
  0
VERTEX
  5
137
330
100
100
AcDbEntity
  8
0
100
AcDbVertex
100
AcDb3dPolylineVertex
 10
-19.31171417236328
 20
19.22454833984375
 30
-4.170748710632324
 70
    32
  0
VERTEX
  5
138
330
100
100
AcDbEntity
  8
0
100
AcDbVertex
100
AcDb3dPolylineVertex
 10
-19.40384292602539
 20
19.35540008544922
 30
-4.300310134887695
 70
    32
  0
VERTEX
  5
139
330
100
100
AcDbEntity
  8
0
100
AcDbVertex
100
AcDb3dPolylineVertex
 10
-19.48717498779297
 20
19.48966598510742
 30
-4.433402061462402
 70
    32
  0
VERTEX
  5
13A
330
100
100
AcDbEntity
  8
0
100
AcDbVertex
100
AcDb3dPolylineVertex
 10
-19.56145095825195
 20
19.62714767456055
 30
-4.56983470916748
 70
    32
  0
VERTEX
  5
13B
330
100
100
AcDbEntity
  8
0
100
AcDbVertex
100
AcDb3dPolylineVertex
 10
-19.62639236450195
 20
19.76765441894531
 30
-4.709418773651123
 70
    32
  0
VERTEX
  5
13C
330
100
100
AcDbEntity
  8
0
100
AcDbVertex
100
AcDb3dPolylineVertex
 10
-19.68174743652344
 20
19.91098403930664
 30
-4.851963996887207
 70
    32
  0
VERTEX
  5
13D
330
100
100
AcDbEntity
  8
0
100
AcDbVertex
100
AcDb3dPolylineVertex
 10
-19.72724151611328
 20
20.05695724487305
 30
-4.997281074523925
 70
    32
  0
VERTEX
  5
13E
330
100
100
AcDbEntity
  8
0
100
AcDbVertex
100
AcDb3dPolylineVertex
 10
-19.76261138916015
 20
20.20537185668946
 30
-5.145180702209472
 70
    32
  0
VERTEX
  5
13F
330
100
100
AcDbEntity
  8
0
100
AcDbVertex
100
AcDb3dPolylineVertex
 10
-19.78759765625
 20
20.35603332519531
 30
-5.295472145080566
 70
    32
  0
VERTEX
  5
140
330
100
100
AcDbEntity
  8
0
100
AcDbVertex
100
AcDb3dPolylineVertex
 10
-19.80192565917969
 20
20.50875473022461
 30
-5.447967529296875
 70
    32
  0
VERTEX
  5
141
330
100
100
AcDbEntity
  8
0
100
AcDbVertex
100
AcDb3dPolylineVertex
 10
-19.80533218383789
 20
20.6633415222168
 30
-5.602475643157958
 70
    32
  0
VERTEX
  5
142
330
100
100
AcDbEntity
  8
0
100
AcDbVertex
100
AcDb3dPolylineVertex
 10
-19.79766845703125
 20
20.81777191162109
 30
-5.756983757019042
 70
    32
  0
VERTEX
  5
143
330
100
100
AcDbEntity
  8
0
100
AcDbVertex
100
AcDb3dPolylineVertex
 10
-19.77914428710937
 20
20.97003936767578
 30
-5.909478664398193
 70
    32
  0
VERTEX
  5
144
330
100
100
AcDbEntity
  8
0
100
AcDbVertex
100
AcDb3dPolylineVertex
 10
-19.75002288818359
 20
21.11996078491211
 30
-6.059770584106445
 70
    32
  0
VERTEX
  5
145
330
100
100
AcDbEntity
  8
0
100
AcDbVertex
100
AcDb3dPolylineVertex
 10
-19.71057891845703
 20
21.2673454284668
 30
-6.207670211791992
 70
    32
  0
VERTEX
  5
146
330
100
100
AcDbEntity
  8
0
100
AcDbVertex
100
AcDb3dPolylineVertex
 10
-19.66107940673828
 20
21.41201019287109
 30
-6.35298728942871
 70
    32
  0
VERTEX
  5
147
330
100
100
AcDbEntity
  8
0
100
AcDbVertex
100
AcDb3dPolylineVertex
 10
-19.601806640625
 20
21.55376815795898
 30
-6.495532512664794
 70
    32
  0
VERTEX
  5
148
330
100
100
AcDbEntity
  8
0
100
AcDbVertex
100
AcDb3dPolylineVertex
 10
-19.53301620483398
 20
21.69242858886719
 30
-6.635116100311279
 70
    32
  0
VERTEX
  5
149
330
100
100
AcDbEntity
  8
0
100
AcDbVertex
100
AcDb3dPolylineVertex
 10
-19.45498657226562
 20
21.82781219482422
 30
-6.771549224853515
 70
    32
  0
VERTEX
  5
14A
330
100
100
AcDbEntity
  8
0
100
AcDbVertex
100
AcDb3dPolylineVertex
 10
-19.36798477172851
 20
21.95973205566406
 30
-6.904640674591064
 70
    32
  0
VERTEX
  5
14B
330
100
100
AcDbEntity
  8
0
100
AcDbVertex
100
AcDb3dPolylineVertex
 10
-19.27229309082031
 20
22.08800125122071
 30
-7.034202098846435
 70
    32
  0
VERTEX
  5
14C
330
100
100
AcDbEntity
  8
0
100
AcDbVertex
100
AcDb3dPolylineVertex
 10
-19.16817092895508
 20
22.21243286132812
 30
-7.160043716430664
 70
    32
  0
VERTEX
  5
14D
330
100
100
AcDbEntity
  8
0
100
AcDbVertex
100
AcDb3dPolylineVertex
 10
-19.05588912963867
 20
22.33284378051758
 30
-7.281975269317626
 70
    32
  0
VERTEX
  5
14E
330
100
100
AcDbEntity
  8
0
100
AcDbVertex
100
AcDb3dPolylineVertex
 10
-18.93572235107422
 20
22.44904327392578
 30
-7.399807929992675
 70
    32
  0
VERTEX
  5
14F
330
100
100
AcDbEntity
  8
0
100
AcDbVertex
100
AcDb3dPolylineVertex
 10
-18.80794143676758
 20
22.56084823608398
 30
-7.513351440429687
 70
    32
  0
VERTEX
  5
150
330
100
100
AcDbEntity
  8
0
100
AcDbVertex
100
AcDb3dPolylineVertex
 10
-18.67281341552734
 20
22.66807556152344
 30
-7.622416019439697
 70
    32
  0
VERTEX
  5
151
330
100
100
AcDbEntity
  8
0
100
AcDbVertex
100
AcDb3dPolylineVertex
 10
-18.5306167602539
 20
22.77053451538086
 30
-7.726812362670898
 70
    32
  0
VERTEX
  5
152
330
100
100
AcDbEntity
  8
0
100
AcDbVertex
100
AcDb3dPolylineVertex
 10
-18.38161087036133
 20
22.86803817749023
 30
-7.826351165771484
 70
    32
  0
VERTEX
  5
153
330
100
100
AcDbEntity
  8
0
100
AcDbVertex
100
AcDb3dPolylineVertex
 10
-18.22607803344726
 20
22.96040725708008
 30
-7.92084264755249
 70
    32
  0
VERTEX
  5
154
330
100
100
AcDbEntity
  8
0
100
AcDbVertex
100
AcDb3dPolylineVertex
 10
-18.06428146362305
 20
23.04745101928711
 30
-8.010096549987792
 70
    32
  0
VERTEX
  5
155
330
100
100
AcDbEntity
  8
0
100
AcDbVertex
100
AcDb3dPolylineVertex
 10
-17.8964958190918
 20
23.12898635864258
 30
-8.093924522399902
 70
    32
  0
VERTEX
  5
156
330
100
100
AcDbEntity
  8
0
100
AcDbVertex
100
AcDb3dPolylineVertex
 10
-17.72298812866211
 20
23.2048225402832
 30
-8.172135353088378
 70
    32
  0
VERTEX
  5
157
330
100
100
AcDbEntity
  8
0
100
AcDbVertex
100
AcDb3dPolylineVertex
 10
-17.54403686523437
 20
23.27477645874024
 30
-8.244540214538574
 70
    32
  0
VERTEX
  5
158
330
100
100
AcDbEntity
  8
0
100
AcDbVertex
100
AcDb3dPolylineVertex
 10
-17.35990142822265
 20
23.33866500854492
 30
-8.310949325561523
 70
    32
  0
VERTEX
  5
159
330
100
100
AcDbEntity
  8
0
100
AcDbVertex
100
AcDb3dPolylineVertex
 10
-17.17086029052734
 20
23.39629364013672
 30
-8.371172904968261
 70
    32
  0
VERTEX
  5
15A
330
100
100
AcDbEntity
  8
0
100
AcDbVertex
100
AcDb3dPolylineVertex
 10
-16.97718429565429
 20
23.44748687744141
 30
-8.42502212524414
 70
    32
  0
VERTEX
  5
15B
330
100
100
AcDbEntity
  8
0
100
AcDbVertex
100
AcDb3dPolylineVertex
 10
-16.77914047241211
 20
23.4920539855957
 30
-8.472306251525878
 70
    32
  0
VERTEX
  5
15C
330
100
100
AcDbEntity
  8
0
100
AcDbVertex
100
AcDb3dPolylineVertex
 10
-16.5770034790039
 20
23.52980804443359
 30
-8.512836456298828
 70
    32
  0
VERTEX
  5
15D
330
100
100
AcDbEntity
  8
0
100
AcDbVertex
100
AcDb3dPolylineVertex
 10
-16.37104034423828
 20
23.56056594848633
 30
-8.546422958374023
 70
    32
  0
VERTEX
  5
15E
330
100
100
AcDbEntity
  8
0
100
AcDbVertex
100
AcDb3dPolylineVertex
 10
-16.16152572631836
 20
23.58414077758789
 30
-8.5728759765625
 70
    32
  0
VERTEX
  5
15F
330
100
100
AcDbEntity
  8
0
100
AcDbVertex
100
AcDb3dPolylineVertex
 10
-15.94872760772705
 20
23.600341796875
 30
-8.592004776000976
 70
    32
  0
VERTEX
  5
160
330
100
100
AcDbEntity
  8
0
100
AcDbVertex
100
AcDb3dPolylineVertex
 10
-15.73291778564453
 20
23.60898971557617
 30
-8.603621482849121
 70
    32
  0
VERTEX
  5
161
330
100
100
AcDbEntity
  8
0
100
AcDbVertex
100
AcDb3dPolylineVertex
 10
-15.51436614990234
 20
23.60989761352539
 30
-8.607536315917968
 70
    32
  0
VERTEX
  5
162
330
100
100
AcDbEntity
  8
0
100
AcDbVertex
100
AcDb3dPolylineVertex
 10
-15.29592323303222
 20
23.60297393798828
 30
-8.603621482849121
 70
    32
  0
VERTEX
  5
163
330
100
100
AcDbEntity
  8
0
100
AcDbVertex
100
AcDb3dPolylineVertex
 10
-15.0804328918457
 20
23.5883903503418
 30
-8.592004776000976
 70
    32
  0
VERTEX
  5
164
330
100
100
AcDbEntity
  8
0
100
AcDbVertex
100
AcDb3dPolylineVertex
 10
-14.86816024780273
 20
23.56633377075195
 30
-8.572875022888183
 70
    32
  0
VERTEX
  5
165
330
100
100
AcDbEntity
  8
0
100
AcDbVertex
100
AcDb3dPolylineVertex
 10
-14.65937423706054
 20
23.5369987487793
 30
-8.546422958374023
 70
    32
  0
VERTEX
  5
166
330
100
100
AcDbEntity
  8
0
100
AcDbVertex
100
AcDb3dPolylineVertex
 10
-14.45433616638183
 20
23.50058364868164
 30
-8.512836456298828
 70
    32
  0
VERTEX
  5
167
330
100
100
AcDbEntity
  8
0
100
AcDbVertex
100
AcDb3dPolylineVertex
 10
-14.25331401824951
 20
23.45727920532227
 30
-8.472306251525878
 70
    32
  0
VERTEX
  5
168
330
100
100
AcDbEntity
  8
0
100
AcDbVertex
100
AcDb3dPolylineVertex
 10
-14.05657196044922
 20
23.40727615356446
 30
-8.42502212524414
 70
    32
  0
VERTEX
  5
169
330
100
100
AcDbEntity
  8
0
100
AcDbVertex
100
AcDb3dPolylineVertex
 10
-13.86437797546387
 20
23.35077285766602
 30
-8.371172904968261
 70
    32
  0
VERTEX
  5
16A
330
100
100
AcDbEntity
  8
0
100
AcDbVertex
100
AcDb3dPolylineVertex
 10
-13.67699718475342
 20
23.28796005249023
 30
-8.310949325561523
 70
    32
  0
VERTEX
  5
16B
330
100
100
AcDbEntity
  8
0
100
AcDbVertex
100
AcDb3dPolylineVertex
 10
-13.4946928024292
 20
23.21902465820313
 30
-8.244540214538574
 70
    32
  0
VERTEX
  5
16C
330
100
100
AcDbEntity
  8
0
100
AcDbVertex
100
AcDb3dPolylineVertex
 10
-13.31772994995117
 20
23.14416885375977
 30
-8.172135353088378
 70
    32
  0
VERTEX
  5
16D
330
100
100
AcDbEntity
  8
0
100
AcDbVertex
100
AcDb3dPolylineVertex
 10
-13.14637756347656
 20
23.06358337402344
 30
-8.093923568725585
 70
    32
  0
VERTEX
  5
16E
330
100
100
AcDbEntity
  8
0
100
AcDbVertex
100
AcDb3dPolylineVertex
 10
-12.98089981079101
 20
22.97746658325195
 30
-8.010096549987792
 70
    32
  0
VERTEX
  5
16F
330
100
100
AcDbEntity
  8
0
100
AcDbVertex
100
AcDb3dPolylineVertex
 10
-12.82156085968017
 20
22.8859977722168
 30
-7.92084264755249
 70
    32
  0
VERTEX
  5
170
330
100
100
AcDbEntity
  8
0
100
AcDbVertex
100
AcDb3dPolylineVertex
 10
-12.66862773895264
 20
22.78938674926758
 30
-7.826351165771484
 70
    32
  0
VERTEX
  5
171
330
100
100
AcDbEntity
  8
0
100
AcDbVertex
100
AcDb3dPolylineVertex
 10
-12.52236652374267
 20
22.68781280517578
 30
-7.726812362670898
 70
    32
  0
VERTEX
  5
172
330
100
100
AcDbEntity
  8
0
100
AcDbVertex
100
AcDb3dPolylineVertex
 10
-12.38304138183593
 20
22.58147811889648
 30
-7.622416019439697
 70
    32
  0
VERTEX
  5
173
330
100
100
AcDbEntity
  8
0
100
AcDbVertex
100
AcDb3dPolylineVertex
 10
-12.2509183883667
 20
22.47057723999024
 30
-7.513350963592529
 70
    32
  0
VERTEX
  5
174
330
100
100
AcDbEntity
  8
0
100
AcDbVertex
100
AcDb3dPolylineVertex
 10
-12.12626361846924
 20
22.35529327392578
 30
-7.399807453155517
 70
    32
  0
VERTEX
  5
175
330
100
100
AcDbEntity
  8
0
100
AcDbVertex
100
AcDb3dPolylineVertex
 10
-12.0093412399292
 20
22.2358283996582
 30
-7.281975269317626
 70
    32
  0
VERTEX
  5
176
330
100
100
AcDbEntity
  8
0
100
AcDbVertex
100
AcDb3dPolylineVertex
 10
-11.90041828155517
 20
22.11237335205078
 30
-7.160043716430664
 70
    32
  0
VERTEX
  5
177
330
100
100
AcDbEntity
  8
0
100
AcDbVertex
100
AcDb3dPolylineVertex
 10
-11.79975986480713
 20
21.98512268066406
 30
-7.034202098846435
 70
    32
  0
VERTEX
  5
178
330
100
100
AcDbEntity
  8
0
100
AcDbVertex
100
AcDb3dPolylineVertex
 10
-11.70763111114502
 20
21.85426712036133
 30
-6.904640674591064
 70
    32
  0
VERTEX
  5
179
330
100
100
AcDbEntity
  8
0
100
AcDbVertex
100
AcDb3dPolylineVertex
 10
-11.62429809570312
 20
21.72000503540039
 30
-6.771548748016357
 70
    32
  0
VERTEX
  5
17A
330
100
100
AcDbEntity
  8
0
100
AcDbVertex
100
AcDb3dPolylineVertex
 10
-11.55002498626709
 20
21.58252334594727
 30
-6.635116100311279
 70
    32
  0
VERTEX
  5
17B
330
100
100
AcDbEntity
  8
0
100
AcDbVertex
100
AcDb3dPolylineVertex
 10
-11.48508071899414
 20
21.44202041625977
 30
-6.495532035827636
 70
    32
  0
VERTEX
  5
17C
330
100
100
AcDbEntity
  8
0
100
AcDbVertex
100
AcDb3dPolylineVertex
 10
-11.42972755432129
 20
21.29868698120117
 30
-6.35298728942871
 70
    32
  0
VERTEX
  5
17D
330
100
100
AcDbEntity
  8
0
100
AcDbVertex
100
AcDb3dPolylineVertex
 10
-11.38423252105713
 20
21.15271377563477
 30
-6.207669734954833
 70
    32
  0
VERTEX
  5
17E
330
100
100
AcDbEntity
  8
0
100
AcDbVertex
100
AcDb3dPolylineVertex
 10
-11.34886074066162
 20
21.00429916381836
 30
-6.059770584106445
 70
    32
  0
VERTEX
  5
17F
330
100
100
AcDbEntity
  8
0
100
AcDbVertex
100
AcDb3dPolylineVertex
 10
-11.32387733459472
 20
20.85363388061523
 30
-5.909478187561035
 70
    32
  0
VERTEX
  5
180
330
100
100
AcDbEntity
  8
0
100
AcDbVertex
100
AcDb3dPolylineVertex
 10
-11.30954933166504
 20
20.70091247558594
 30
-5.756983757019042
 70
    32
  0
SEQEND
  5
305
330
100
100
AcDbEntity
  8
0
  0
POLYLINE
  5
181
330
1F
100
AcDbEntity
  8
0
100
AcDb3dPolyline
 66
     1
 10
0.0
 20
0.0
 30
0.0
 70
     9
  0
VERTEX
  5
182
330
181
100
AcDbEntity
  8
0
100
AcDbVertex
100
AcDb3dPolylineVertex
 10
5.0
 20
0.0
 30
0.0
 70
    32
  0
VERTEX
  5
183
330
181
100
AcDbEntity
  8
0
100
AcDbVertex
100
AcDb3dPolylineVertex
 10
4.993486881256103
 20
0.2570800185203552
 30
-0.0000009536743164
 70
    32
  0
VERTEX
  5
184
330
181
100
AcDbEntity
  8
0
100
AcDbVertex
100
AcDb3dPolylineVertex
 10
4.974157810211181
 20
0.510810136795044
 30
0.0
 70
    32
  0
VERTEX
  5
185
330
181
100
AcDbEntity
  8
0
100
AcDbVertex
100
AcDb3dPolylineVertex
 10
4.942328929901123
 20
0.7608749270439148
 30
0.0
 70
    32
  0
VERTEX
  5
186
330
181
100
AcDbEntity
  8
0
100
AcDbVertex
100
AcDb3dPolylineVertex
 10
4.8983154296875
 20
1.006958723068237
 30
0.0
 70
    32
  0
VERTEX
  5
187
330
181
100
AcDbEntity
  8
0
100
AcDbVertex
100
AcDb3dPolylineVertex
 10
4.842432498931884
 20
1.248746156692504
 30
0.0
 70
    32
  0
VERTEX
  5
188
330
181
100
AcDbEntity
  8
0
100
AcDbVertex
100
AcDb3dPolylineVertex
 10
4.774996280670166
 20
1.485921382904052
 30
0.0000009536743164
 70
    32
  0
VERTEX
  5
189
330
181
100
AcDbEntity
  8
0
100
AcDbVertex
100
AcDb3dPolylineVertex
 10
4.696321964263916
 20
1.718169212341308
 30
0.0
 70
    32
  0
VERTEX
  5
18A
330
181
100
AcDbEntity
  8
0
100
AcDbVertex
100
AcDb3dPolylineVertex
 10
4.606724739074707
 20
1.945174098014831
 30
0.0
 70
    32
  0
VERTEX
  5
18B
330
181
100
AcDbEntity
  8
0
100
AcDbVertex
100
AcDb3dPolylineVertex
 10
4.506520271301269
 20
2.166620254516601
 30
0.0
 70
    32
  0
VERTEX
  5
18C
330
181
100
AcDbEntity
  8
0
100
AcDbVertex
100
AcDb3dPolylineVertex
 10
4.396024703979492
 20
2.382192611694335
 30
0.0
 70
    32
  0
VERTEX
  5
18D
330
181
100
AcDbEntity
  8
0
100
AcDbVertex
100
AcDb3dPolylineVertex
 10
4.275553226470947
 20
2.591574668884277
 30
0.0
 70
    32
  0
VERTEX
  5
18E
330
181
100
AcDbEntity
  8
0
100
AcDbVertex
100
AcDb3dPolylineVertex
 10
4.145421028137207
 20
2.794451713562011
 30
0.0
 70
    32
  0
VERTEX
  5
18F
330
181
100
AcDbEntity
  8
0
100
AcDbVertex
100
AcDb3dPolylineVertex
 10
4.00594425201416
 20
2.990509033203125
 30
-0.0000009536743164
 70
    32
  0
VERTEX
  5
190
330
181
100
AcDbEntity
  8
0
100
AcDbVertex
100
AcDb3dPolylineVertex
 10
3.857437849044799
 20
3.179429054260253
 30
0.0000009536743164
 70
    32
  0
VERTEX
  5
191
330
181
100
AcDbEntity
  8
0
100
AcDbVertex
100
AcDb3dPolylineVertex
 10
3.700217485427856
 20
3.360897541046142
 30
0.0
 70
    32
  0
VERTEX
  5
192
330
181
100
AcDbEntity
  8
0
100
AcDbVertex
100
AcDb3dPolylineVertex
 10
3.53459882736206
 20
3.53459882736206
 30
0.0
 70
    32
  0
VERTEX
  5
193
330
181
100
AcDbEntity
  8
0
100
AcDbVertex
100
AcDb3dPolylineVertex
 10
3.360897302627563
 20
3.700217723846435
 30
0.0000009536743164
 70
    32
  0
VERTEX
  5
194
330
181
100
AcDbEntity
  8
0
100
AcDbVertex
100
AcDb3dPolylineVertex
 10
3.179428815841674
 20
3.857438087463378
 30
0.0000009536743164
 70
    32
  0
VERTEX
  5
195
330
181
100
AcDbEntity
  8
0
100
AcDbVertex
100
AcDb3dPolylineVertex
 10
2.990508556365966
 20
4.00594425201416
 30
0.0
 70
    32
  0
VERTEX
  5
196
330
181
100
AcDbEntity
  8
0
100
AcDbVertex
100
AcDb3dPolylineVertex
 10
2.79445195198059
 20
4.145421504974365
 30
0.0
 70
    32
  0
VERTEX
  5
197
330
181
100
AcDbEntity
  8
0
100
AcDbVertex
100
AcDb3dPolylineVertex
 10
2.591574668884277
 20
4.275553226470947
 30
0.0
 70
    32
  0
VERTEX
  5
198
330
181
100
AcDbEntity
  8
0
100
AcDbVertex
100
AcDb3dPolylineVertex
 10
2.382192373275756
 20
4.396024703979492
 30
0.0
 70
    32
  0
VERTEX
  5
199
330
181
100
AcDbEntity
  8
0
100
AcDbVertex
100
AcDb3dPolylineVertex
 10
2.166620254516601
 20
4.506520271301269
 30
0.0
 70
    32
  0
VERTEX
  5
19A
330
181
100
AcDbEntity
  8
0
100
AcDbVertex
100
AcDb3dPolylineVertex
 10
1.945173740386962
 20
4.606724739074707
 30
0.0
 70
    32
  0
VERTEX
  5
19B
330
181
100
AcDbEntity
  8
0
100
AcDbVertex
100
AcDb3dPolylineVertex
 10
1.718169093132019
 20
4.696321487426757
 30
0.0
 70
    32
  0
VERTEX
  5
19C
330
181
100
AcDbEntity
  8
0
100
AcDbVertex
100
AcDb3dPolylineVertex
 10
1.485921144485473
 20
4.774996757507324
 30
0.0
 70
    32
  0
VERTEX
  5
19D
330
181
100
AcDbEntity
  8
0
100
AcDbVertex
100
AcDb3dPolylineVertex
 10
1.248745799064636
 20
4.842432975769042
 30
0.0
 70
    32
  0
VERTEX
  5
19E
330
181
100
AcDbEntity
  8
0
100
AcDbVertex
100
AcDb3dPolylineVertex
 10
1.006958484649658
 20
4.8983154296875
 30
0.0
 70
    32
  0
VERTEX
  5
19F
330
181
100
AcDbEntity
  8
0
100
AcDbVertex
100
AcDb3dPolylineVertex
 10
0.7608746886253357
 20
4.942329406738281
 30
0.0
 70
    32
  0
VERTEX
  5
1A0
330
181
100
AcDbEntity
  8
0
100
AcDbVertex
100
AcDb3dPolylineVertex
 10
0.5108098983764649
 20
4.974158287048339
 30
0.0
 70
    32
  0
VERTEX
  5
1A1
330
181
100
AcDbEntity
  8
0
100
AcDbVertex
100
AcDb3dPolylineVertex
 10
0.2570797801017761
 20
4.993486881256103
 30
0.0
 70
    32
  0
VERTEX
  5
1A2
330
181
100
AcDbEntity
  8
0
100
AcDbVertex
100
AcDb3dPolylineVertex
 10
-0.0000002235174179
 20
5.0
 30
0.0
 70
    32
  0
VERTEX
  5
1A3
330
181
100
AcDbEntity
  8
0
100
AcDbVertex
100
AcDb3dPolylineVertex
 10
-0.2570802271366119
 20
4.993486881256103
 30
-0.0000009536743164
 70
    32
  0
VERTEX
  5
1A4
330
181
100
AcDbEntity
  8
0
100
AcDbVertex
100
AcDb3dPolylineVertex
 10
-0.5108103752136231
 20
4.974157810211181
 30
0.0
 70
    32
  0
VERTEX
  5
1A5
330
181
100
AcDbEntity
  8
0
100
AcDbVertex
100
AcDb3dPolylineVertex
 10
-0.7608752250671387
 20
4.942328929901123
 30
0.0
 70
    32
  0
VERTEX
  5
1A6
330
181
100
AcDbEntity
  8
0
100
AcDbVertex
100
AcDb3dPolylineVertex
 10
-1.006958961486816
 20
4.8983154296875
 30
0.0
 70
    32
  0
VERTEX
  5
1A7
330
181
100
AcDbEntity
  8
0
100
AcDbVertex
100
AcDb3dPolylineVertex
 10
-1.248746275901794
 20
4.842432498931884
 30
0.0
 70
    32
  0
VERTEX
  5
1A8
330
181
100
AcDbEntity
  8
0
100
AcDbVertex
100
AcDb3dPolylineVertex
 10
-1.485921621322631
 20
4.774996280670166
 30
0.0000009536743164
 70
    32
  0
VERTEX
  5
1A9
330
181
100
AcDbEntity
  8
0
100
AcDbVertex
100
AcDb3dPolylineVertex
 10
-1.718169450759887
 20
4.696321964263916
 30
0.0
 70
    32
  0
VERTEX
  5
1AA
330
181
100
AcDbEntity
  8
0
100
AcDbVertex
100
AcDb3dPolylineVertex
 10
-1.945174217224121
 20
4.606724262237548
 30
0.0
 70
    32
  0
VERTEX
  5
1AB
330
181
100
AcDbEntity
  8
0
100
AcDbVertex
100
AcDb3dPolylineVertex
 10
-2.16662049293518
 20
4.506520271301269
 30
0.0
 70
    32
  0
VERTEX
  5
1AC
330
181
100
AcDbEntity
  8
0
100
AcDbVertex
100
AcDb3dPolylineVertex
 10
-2.382192611694335
 20
4.396024227142333
 30
0.0
 70
    32
  0
VERTEX
  5
1AD
330
181
100
AcDbEntity
  8
0
100
AcDbVertex
100
AcDb3dPolylineVertex
 10
-2.591575145721435
 20
4.275553226470947
 30
0.0
 70
    32
  0
VERTEX
  5
1AE
330
181
100
AcDbEntity
  8
0
100
AcDbVertex
100
AcDb3dPolylineVertex
 10
-2.794452190399169
 20
4.145420551300048
 30
0.0
 70
    32
  0
VERTEX
  5
1AF
330
181
100
AcDbEntity
  8
0
100
AcDbVertex
100
AcDb3dPolylineVertex
 10
-2.990508794784545
 20
4.00594425201416
 30
-0.0000009536743164
 70
    32
  0
VERTEX
  5
1B0
330
181
100
AcDbEntity
  8
0
100
AcDbVertex
100
AcDb3dPolylineVertex
 10
-3.179429292678833
 20
3.857437372207641
 30
0.0000009536743164
 70
    32
  0
VERTEX
  5
1B1
330
181
100
AcDbEntity
  8
0
100
AcDbVertex
100
AcDb3dPolylineVertex
 10
-3.360898256301879
 20
3.700217485427856
 30
0.0
 70
    32
  0
VERTEX
  5
1B2
330
181
100
AcDbEntity
  8
0
100
AcDbVertex
100
AcDb3dPolylineVertex
 10
-3.534599304199218
 20
3.53459882736206
 30
0.0
 70
    32
  0
VERTEX
  5
1B3
330
181
100
AcDbEntity
  8
0
100
AcDbVertex
100
AcDb3dPolylineVertex
 10
-3.700217723846435
 20
3.360897302627563
 30
0.0000009536743164
 70
    32
  0
VERTEX
  5
1B4
330
181
100
AcDbEntity
  8
0
100
AcDbVertex
100
AcDb3dPolylineVertex
 10
-3.857438087463378
 20
3.179428577423095
 30
0.0000009536743164
 70
    32
  0
VERTEX
  5
1B5
330
181
100
AcDbEntity
  8
0
100
AcDbVertex
100
AcDb3dPolylineVertex
 10
-4.005944728851318
 20
2.990508556365966
 30
0.0
 70
    32
  0
VERTEX
  5
1B6
330
181
100
AcDbEntity
  8
0
100
AcDbVertex
100
AcDb3dPolylineVertex
 10
-4.145421504974365
 20
2.794451713562011
 30
0.0
 70
    32
  0
VERTEX
  5
1B7
330
181
100
AcDbEntity
  8
0
100
AcDbVertex
100
AcDb3dPolylineVertex
 10
-4.275553703308105
 20
2.591574430465698
 30
0.0
 70
    32
  0
VERTEX
  5
1B8
330
181
100
AcDbEntity
  8
0
100
AcDbVertex
100
AcDb3dPolylineVertex
 10
-4.396025657653808
 20
2.382191896438598
 30
0.0
 70
    32
  0
VERTEX
  5
1B9
330
181
100
AcDbEntity
  8
0
100
AcDbVertex
100
AcDb3dPolylineVertex
 10
-4.506520748138427
 20
2.166619777679443
 30
0.0
 70
    32
  0
VERTEX
  5
1BA
330
181
100
AcDbEntity
  8
0
100
AcDbVertex
100
AcDb3dPolylineVertex
 10
-4.606724739074707
 20
1.945173501968383
 30
0.0
 70
    32
  0
VERTEX
  5
1BB
330
181
100
AcDbEntity
  8
0
100
AcDbVertex
100
AcDb3dPolylineVertex
 10
-4.696321964263916
 20
1.718168854713439
 30
0.0
 70
    32
  0
VERTEX
  5
1BC
330
181
100
AcDbEntity
  8
0
100
AcDbVertex
100
AcDb3dPolylineVertex
 10
-4.774996280670166
 20
1.485921025276184
 30
0.0
 70
    32
  0
VERTEX
  5
1BD
330
181
100
AcDbEntity
  8
0
100
AcDbVertex
100
AcDb3dPolylineVertex
 10
-4.842432975769042
 20
1.248745679855346
 30
0.0
 70
    32
  0
VERTEX
  5
1BE
330
181
100
AcDbEntity
  8
0
100
AcDbVertex
100
AcDb3dPolylineVertex
 10
-4.8983154296875
 20
1.006958246231079
 30
0.0
 70
    32
  0
VERTEX
  5
1BF
330
181
100
AcDbEntity
  8
0
100
AcDbVertex
100
AcDb3dPolylineVertex
 10
-4.942329406738281
 20
0.7608745098114014
 30
0.0
 70
    32
  0
VERTEX
  5
1C0
330
181
100
AcDbEntity
  8
0
100
AcDbVertex
100
AcDb3dPolylineVertex
 10
-4.974158287048339
 20
0.5108097195625306
 30
0.0
 70
    32
  0
VERTEX
  5
1C1
330
181
100
AcDbEntity
  8
0
100
AcDbVertex
100
AcDb3dPolylineVertex
 10
-4.993486881256103
 20
0.2570795714855194
 30
0.0
 70
    32
  0
VERTEX
  5
1C2
330
181
100
AcDbEntity
  8
0
100
AcDbVertex
100
AcDb3dPolylineVertex
 10
-5.0
 20
-0.0000004321336746
 30
0.0
 70
    32
  0
VERTEX
  5
1C3
330
181
100
AcDbEntity
  8
0
100
AcDbVertex
100
AcDb3dPolylineVertex
 10
-4.993486404418945
 20
-0.257080465555191
 30
-0.0000009536743164
 70
    32
  0
VERTEX
  5
1C4
330
181
100
AcDbEntity
  8
0
100
AcDbVertex
100
AcDb3dPolylineVertex
 10
-4.974158763885498
 20
-0.5108106136322022
 30
0.0
 70
    32
  0
VERTEX
  5
1C5
330
181
100
AcDbEntity
  8
0
100
AcDbVertex
100
AcDb3dPolylineVertex
 10
-4.942328929901123
 20
-0.7608753442764283
 30
0.0
 70
    32
  0
VERTEX
  5
1C6
330
181
100
AcDbEntity
  8
0
100
AcDbVertex
100
AcDb3dPolylineVertex
 10
-4.8983154296875
 20
-1.006959080696105
 30
0.0
 70
    32
  0
VERTEX
  5
1C7
330
181
100
AcDbEntity
  8
0
100
AcDbVertex
100
AcDb3dPolylineVertex
 10
-4.842432975769042
 20
-1.248746275901794
 30
0.0
 70
    32
  0
VERTEX
  5
1C8
330
181
100
AcDbEntity
  8
0
100
AcDbVertex
100
AcDb3dPolylineVertex
 10
-4.774996280670166
 20
-1.48592185974121
 30
0.0000009536743164
 70
    32
  0
VERTEX
  5
1C9
330
181
100
AcDbEntity
  8
0
100
AcDbVertex
100
AcDb3dPolylineVertex
 10
-4.696321487426757
 20
-1.718169569969177
 30
0.0
 70
    32
  0
VERTEX
  5
1CA
330
181
100
AcDbEntity
  8
0
100
AcDbVertex
100
AcDb3dPolylineVertex
 10
-4.606724739074707
 20
-1.945174217224121
 30
0.0
 70
    32
  0
VERTEX
  5
1CB
330
181
100
AcDbEntity
  8
0
100
AcDbVertex
100
AcDb3dPolylineVertex
 10
-4.506520748138427
 20
-2.16662049293518
 30
0.0
 70
    32
  0
VERTEX
  5
1CC
330
181
100
AcDbEntity
  8
0
100
AcDbVertex
100
AcDb3dPolylineVertex
 10
-4.39602518081665
 20
-2.382192611694335
 30
0.0
 70
    32
  0
VERTEX
  5
1CD
330
181
100
AcDbEntity
  8
0
100
AcDbVertex
100
AcDb3dPolylineVertex
 10
-4.275552749633789
 20
-2.591575145721435
 30
0.0
 70
    32
  0
VERTEX
  5
1CE
330
181
100
AcDbEntity
  8
0
100
AcDbVertex
100
AcDb3dPolylineVertex
 10
-4.145421504974365
 20
-2.794452667236328
 30
0.0
 70
    32
  0
VERTEX
  5
1CF
330
181
100
AcDbEntity
  8
0
100
AcDbVertex
100
AcDb3dPolylineVertex
 10
-4.00594425201416
 20
-2.990508794784545
 30
-0.0000009536743164
 70
    32
  0
VERTEX
  5
1D0
330
181
100
AcDbEntity
  8
0
100
AcDbVertex
100
AcDb3dPolylineVertex
 10
-3.857438087463378
 20
-3.179429292678833
 30
0.0000009536743164
 70
    32
  0
VERTEX
  5
1D1
330
181
100
AcDbEntity
  8
0
100
AcDbVertex
100
AcDb3dPolylineVertex
 10
-3.700217723846435
 20
-3.360898256301879
 30
0.0
 70
    32
  0
VERTEX
  5
1D2
330
181
100
AcDbEntity
  8
0
100
AcDbVertex
100
AcDb3dPolylineVertex
 10
-3.534599065780639
 20
-3.534599304199218
 30
0.0
 70
    32
  0
VERTEX
  5
1D3
330
181
100
AcDbEntity
  8
0
100
AcDbVertex
100
AcDb3dPolylineVertex
 10
-3.360897779464721
 20
-3.700217723846435
 30
0.0000009536743164
 70
    32
  0
VERTEX
  5
1D4
330
181
100
AcDbEntity
  8
0
100
AcDbVertex
100
AcDb3dPolylineVertex
 10
-3.179428815841674
 20
-3.857438087463378
 30
0.0000009536743164
 70
    32
  0
VERTEX
  5
1D5
330
181
100
AcDbEntity
  8
0
100
AcDbVertex
100
AcDb3dPolylineVertex
 10
-2.990508317947387
 20
-4.00594425201416
 30
0.0
 70
    32
  0
VERTEX
  5
1D6
330
181
100
AcDbEntity
  8
0
100
AcDbVertex
100
AcDb3dPolylineVertex
 10
-2.79445195198059
 20
-4.145421504974365
 30
0.0
 70
    32
  0
VERTEX
  5
1D7
330
181
100
AcDbEntity
  8
0
100
AcDbVertex
100
AcDb3dPolylineVertex
 10
-2.591574430465698
 20
-4.275553703308105
 30
0.0
 70
    32
  0
VERTEX
  5
1D8
330
181
100
AcDbEntity
  8
0
100
AcDbVertex
100
AcDb3dPolylineVertex
 10
-2.382192373275756
 20
-4.396024703979492
 30
0.0
 70
    32
  0
VERTEX
  5
1D9
330
181
100
AcDbEntity
  8
0
100
AcDbVertex
100
AcDb3dPolylineVertex
 10
-2.166620016098022
 20
-4.506520748138427
 30
0.0
 70
    32
  0
VERTEX
  5
1DA
330
181
100
AcDbEntity
  8
0
100
AcDbVertex
100
AcDb3dPolylineVertex
 10
-1.945173740386962
 20
-4.606724739074707
 30
0.0
 70
    32
  0
VERTEX
  5
1DB
330
181
100
AcDbEntity
  8
0
100
AcDbVertex
100
AcDb3dPolylineVertex
 10
-1.718169093132019
 20
-4.696321487426757
 30
0.0
 70
    32
  0
VERTEX
  5
1DC
330
181
100
AcDbEntity
  8
0
100
AcDbVertex
100
AcDb3dPolylineVertex
 10
-1.485921382904052
 20
-4.774995803833007
 30
0.0
 70
    32
  0
VERTEX
  5
1DD
330
181
100
AcDbEntity
  8
0
100
AcDbVertex
100
AcDb3dPolylineVertex
 10
-1.248746037483215
 20
-4.842432975769042
 30
0.0
 70
    32
  0
VERTEX
  5
1DE
330
181
100
AcDbEntity
  8
0
100
AcDbVertex
100
AcDb3dPolylineVertex
 10
-1.006958603858947
 20
-4.8983154296875
 30
0.0
 70
    32
  0
VERTEX
  5
1DF
330
181
100
AcDbEntity
  8
0
100
AcDbVertex
100
AcDb3dPolylineVertex
 10
-0.7608748674392701
 20
-4.942329406738281
 30
0.0
 70
    32
  0
VERTEX
  5
1E0
330
181
100
AcDbEntity
  8
0
100
AcDbVertex
100
AcDb3dPolylineVertex
 10
-0.510810136795044
 20
-4.974158287048339
 30
0.0
 70
    32
  0
VERTEX
  5
1E1
330
181
100
AcDbEntity
  8
0
100
AcDbVertex
100
AcDb3dPolylineVertex
 10
-0.2570799589157104
 20
-4.993486881256103
 30
0.0
 70
    32
  0
VERTEX
  5
1E2
330
181
100
AcDbEntity
  8
0
100
AcDbVertex
100
AcDb3dPolylineVertex
 10
0.0000000596046448
 20
-5.0
 30
0.0
 70
    32
  0
VERTEX
  5
1E3
330
181
100
AcDbEntity
  8
0
100
AcDbVertex
100
AcDb3dPolylineVertex
 10
0.257080078125
 20
-4.993486404418945
 30
-0.0000009536743164
 70
    32
  0
VERTEX
  5
1E4
330
181
100
AcDbEntity
  8
0
100
AcDbVertex
100
AcDb3dPolylineVertex
 10
0.5108101963996888
 20
-4.974158763885498
 30
0.0
 70
    32
  0
VERTEX
  5
1E5
330
181
100
AcDbEntity
  8
0
100
AcDbVertex
100
AcDb3dPolylineVertex
 10
0.7608749866485596
 20
-4.942328929901123
 30
0.0
 70
    32
  0
VERTEX
  5
1E6
330
181
100
AcDbEntity
  8
0
100
AcDbVertex
100
AcDb3dPolylineVertex
 10
1.006958723068237
 20
-4.8983154296875
 30
0.0
 70
    32
  0
VERTEX
  5
1E7
330
181
100
AcDbEntity
  8
0
100
AcDbVertex
100
AcDb3dPolylineVertex
 10
1.248746156692504
 20
-4.842432975769042
 30
0.0
 70
    32
  0
VERTEX
  5
1E8
330
181
100
AcDbEntity
  8
0
100
AcDbVertex
100
AcDb3dPolylineVertex
 10
1.485921382904052
 20
-4.774996280670166
 30
0.0000009536743164
 70
    32
  0
VERTEX
  5
1E9
330
181
100
AcDbEntity
  8
0
100
AcDbVertex
100
AcDb3dPolylineVertex
 10
1.718169212341308
 20
-4.696321487426757
 30
0.0
 70
    32
  0
VERTEX
  5
1EA
330
181
100
AcDbEntity
  8
0
100
AcDbVertex
100
AcDb3dPolylineVertex
 10
1.945174098014831
 20
-4.606724739074707
 30
0.0
 70
    32
  0
VERTEX
  5
1EB
330
181
100
AcDbEntity
  8
0
100
AcDbVertex
100
AcDb3dPolylineVertex
 10
2.166620254516601
 20
-4.506520748138427
 30
0.0
 70
    32
  0
VERTEX
  5
1EC
330
181
100
AcDbEntity
  8
0
100
AcDbVertex
100
AcDb3dPolylineVertex
 10
2.382192611694335
 20
-4.39602518081665
 30
0.0
 70
    32
  0
VERTEX
  5
1ED
330
181
100
AcDbEntity
  8
0
100
AcDbVertex
100
AcDb3dPolylineVertex
 10
2.591574668884277
 20
-4.275553703308105
 30
0.0
 70
    32
  0
VERTEX
  5
1EE
330
181
100
AcDbEntity
  8
0
100
AcDbVertex
100
AcDb3dPolylineVertex
 10
2.794451713562011
 20
-4.145421504974365
 30
0.0
 70
    32
  0
VERTEX
  5
1EF
330
181
100
AcDbEntity
  8
0
100
AcDbVertex
100
AcDb3dPolylineVertex
 10
2.990509033203125
 20
-4.005944728851318
 30
-0.0000009536743164
 70
    32
  0
VERTEX
  5
1F0
330
181
100
AcDbEntity
  8
0
100
AcDbVertex
100
AcDb3dPolylineVertex
 10
3.179429054260253
 20
-3.857438087463378
 30
0.0000009536743164
 70
    32
  0
VERTEX
  5
1F1
330
181
100
AcDbEntity
  8
0
100
AcDbVertex
100
AcDb3dPolylineVertex
 10
3.360897541046142
 20
-3.700217723846435
 30
0.0
 70
    32
  0
VERTEX
  5
1F2
330
181
100
AcDbEntity
  8
0
100
AcDbVertex
100
AcDb3dPolylineVertex
 10
3.53459882736206
 20
-3.534599304199218
 30
0.0
 70
    32
  0
VERTEX
  5
1F3
330
181
100
AcDbEntity
  8
0
100
AcDbVertex
100
AcDb3dPolylineVertex
 10
3.700217723846435
 20
-3.3608980178833
 30
0.0000009536743164
 70
    32
  0
VERTEX
  5
1F4
330
181
100
AcDbEntity
  8
0
100
AcDbVertex
100
AcDb3dPolylineVertex
 10
3.857438087463378
 20
-3.179429054260253
 30
0.0000009536743164
 70
    32
  0
VERTEX
  5
1F5
330
181
100
AcDbEntity
  8
0
100
AcDbVertex
100
AcDb3dPolylineVertex
 10
4.00594425201416
 20
-2.990508556365966
 30
0.0
 70
    32
  0
VERTEX
  5
1F6
330
181
100
AcDbEntity
  8
0
100
AcDbVertex
100
AcDb3dPolylineVertex
 10
4.145421504974365
 20
-2.794452190399169
 30
0.0
 70
    32
  0
VERTEX
  5
1F7
330
181
100
AcDbEntity
  8
0
100
AcDbVertex
100
AcDb3dPolylineVertex
 10
4.275553226470947
 20
-2.591574668884277
 30
0.0
 70
    32
  0
VERTEX
  5
1F8
330
181
100
AcDbEntity
  8
0
100
AcDbVertex
100
AcDb3dPolylineVertex
 10
4.396024703979492
 20
-2.382192373275756
 30
0.0
 70
    32
  0
VERTEX
  5
1F9
330
181
100
AcDbEntity
  8
0
100
AcDbVertex
100
AcDb3dPolylineVertex
 10
4.506520271301269
 20
-2.166620254516601
 30
0.0
 70
    32
  0
VERTEX
  5
1FA
330
181
100
AcDbEntity
  8
0
100
AcDbVertex
100
AcDb3dPolylineVertex
 10
4.606724739074707
 20
-1.945174217224121
 30
0.0
 70
    32
  0
VERTEX
  5
1FB
330
181
100
AcDbEntity
  8
0
100
AcDbVertex
100
AcDb3dPolylineVertex
 10
4.696321487426757
 20
-1.718169212341308
 30
0.0
 70
    32
  0
VERTEX
  5
1FC
330
181
100
AcDbEntity
  8
0
100
AcDbVertex
100
AcDb3dPolylineVertex
 10
4.774996757507324
 20
-1.485921382904052
 30
0.0
 70
    32
  0
VERTEX
  5
1FD
330
181
100
AcDbEntity
  8
0
100
AcDbVertex
100
AcDb3dPolylineVertex
 10
4.842432975769042
 20
-1.248746037483215
 30
0.0
 70
    32
  0
VERTEX
  5
1FE
330
181
100
AcDbEntity
  8
0
100
AcDbVertex
100
AcDb3dPolylineVertex
 10
4.8983154296875
 20
-1.006958603858947
 30
0.0
 70
    32
  0
VERTEX
  5
1FF
330
181
100
AcDbEntity
  8
0
100
AcDbVertex
100
AcDb3dPolylineVertex
 10
4.942329406738281
 20
-0.7608749270439148
 30
0.0
 70
    32
  0
VERTEX
  5
200
330
181
100
AcDbEntity
  8
0
100
AcDbVertex
100
AcDb3dPolylineVertex
 10
4.974158287048339
 20
-0.510810136795044
 30
0.0
 70
    32
  0
VERTEX
  5
201
330
181
100
AcDbEntity
  8
0
100
AcDbVertex
100
AcDb3dPolylineVertex
 10
4.993486881256103
 20
-0.2570800185203552
 30
0.0
 70
    32
  0
SEQEND
  5
306
330
181
100
AcDbEntity
  8
0
  0
POLYLINE
  5
202
330
1F
100
AcDbEntity
  8
0
100
AcDb3dPolyline
 66
     1
 10
0.0
 20
0.0
 30
0.0
 70
     9
  0
VERTEX
  5
203
330
202
100
AcDbEntity
  8
0
100
AcDbVertex
100
AcDb3dPolylineVertex
 10
20.6633415222168
 20
-19.80533218383789
 30
-5.6024751663208
 70
    32
  0
VERTEX
  5
204
330
202
100
AcDbEntity
  8
0
100
AcDbVertex
100
AcDb3dPolylineVertex
 10
20.50875473022461
 20
-19.80192565917969
 30
-5.447967529296875
 70
    32
  0
VERTEX
  5
205
330
202
100
AcDbEntity
  8
0
100
AcDbVertex
100
AcDb3dPolylineVertex
 10
20.35603713989258
 20
-19.78759384155273
 30
-5.295472145080566
 70
    32
  0
VERTEX
  5
206
330
202
100
AcDbEntity
  8
0
100
AcDbVertex
100
AcDb3dPolylineVertex
 10
20.20536804199219
 20
-19.76261520385742
 30
-5.145179748535156
 70
    32
  0
VERTEX
  5
207
330
202
100
AcDbEntity
  8
0
100
AcDbVertex
100
AcDb3dPolylineVertex
 10
20.05695724487305
 20
-19.72724151611328
 30
-4.997280597686767
 70
    32
  0
VERTEX
  5
208
330
202
100
AcDbEntity
  8
0
100
AcDbVertex
100
AcDb3dPolylineVertex
 10
19.91098403930664
 20
-19.68174743652344
 30
-4.851963996887207
 70
    32
  0
VERTEX
  5
209
330
202
100
AcDbEntity
  8
0
100
AcDbVertex
100
AcDb3dPolylineVertex
 10
19.76765060424805
 20
-19.62639617919922
 30
-4.709417819976806
 70
    32
  0
VERTEX
  5
20A
330
202
100
AcDbEntity
  8
0
100
AcDbVertex
100
AcDb3dPolylineVertex
 10
19.62714767456055
 20
-19.56145095825195
 30
-4.569834232330322
 70
    32
  0
VERTEX
  5
20B
330
202
100
AcDbEntity
  8
0
100
AcDbVertex
100
AcDb3dPolylineVertex
 10
19.48966598510742
 20
-19.48717880249023
 30
-4.433401584625244
 70
    32
  0
VERTEX
  5
20C
330
202
100
AcDbEntity
  8
0
100
AcDbVertex
100
AcDb3dPolylineVertex
 10
19.35540008544922
 20
-19.40384292602539
 30
-4.300309658050537
 70
    32
  0
VERTEX
  5
20D
330
202
100
AcDbEntity
  8
0
100
AcDbVertex
100
AcDb3dPolylineVertex
 10
19.22454833984375
 20
-19.31171798706055
 30
-4.170748233795166
 70
    32
  0
VERTEX
  5
20E
330
202
100
AcDbEntity
  8
0
100
AcDbVertex
100
AcDb3dPolylineVertex
 10
19.09729385375976
 20
-19.2110595703125
 30
-4.044906616210937
 70
    32
  0
VERTEX
  5
20F
330
202
100
AcDbEntity
  8
0
100
AcDbVertex
100
AcDb3dPolylineVertex
 10
18.97383880615234
 20
-19.10213470458984
 30
-3.922975540161132
 70
    32
  0
VERTEX
  5
210
330
202
100
AcDbEntity
  8
0
100
AcDbVertex
100
AcDb3dPolylineVertex
 10
18.85437774658203
 20
-18.98521423339843
 30
-3.805142879486083
 70
    32
  0
VERTEX
  5
211
330
202
100
AcDbEntity
  8
0
100
AcDbVertex
100
AcDb3dPolylineVertex
 10
18.73909759521484
 20
-18.86055755615234
 30
-3.691598892211914
 70
    32
  0
VERTEX
  5
212
330
202
100
AcDbEntity
  8
0
100
AcDbVertex
100
AcDb3dPolylineVertex
 10
18.62819290161133
 20
-18.72843551635742
 30
-3.582534790039062
 70
    32
  0
VERTEX
  5
213
330
202
100
AcDbEntity
  8
0
100
AcDbVertex
100
AcDb3dPolylineVertex
 10
18.52185821533203
 20
-18.589111328125
 30
-3.478137969970703
 70
    32
  0
VERTEX
  5
214
330
202
100
AcDbEntity
  8
0
100
AcDbVertex
100
AcDb3dPolylineVertex
 10
18.42028427124023
 20
-18.4428482055664
 30
-3.378598690032958
 70
    32
  0
VERTEX
  5
215
330
202
100
AcDbEntity
  8
0
100
AcDbVertex
100
AcDb3dPolylineVertex
 10
18.32366943359375
 20
-18.28991317749023
 30
-3.284108161926269
 70
    32
  0
VERTEX
  5
216
330
202
100
AcDbEntity
  8
0
100
AcDbVertex
100
AcDb3dPolylineVertex
 10
18.23220443725586
 20
-18.13057708740234
 30
-3.19485330581665
 70
    32
  0
VERTEX
  5
217
330
202
100
AcDbEntity
  8
0
100
AcDbVertex
100
AcDb3dPolylineVertex
 10
18.14608383178711
 20
-17.96509552001953
 30
-3.111026287078857
 70
    32
  0
VERTEX
  5
218
330
202
100
AcDbEntity
  8
0
100
AcDbVertex
100
AcDb3dPolylineVertex
 10
18.06549835205078
 20
-17.79374694824219
 30
-3.032814979553222
 70
    32
  0
VERTEX
  5
219
330
202
100
AcDbEntity
  8
0
100
AcDbVertex
100
AcDb3dPolylineVertex
 10
17.99064636230468
 20
-17.61678314208984
 30
-2.960410118103027
 70
    32
  0
VERTEX
  5
21A
330
202
100
AcDbEntity
  8
0
100
AcDbVertex
100
AcDb3dPolylineVertex
 10
17.92171478271484
 20
-17.43447875976562
 30
-2.894001007080078
 70
    32
  0
VERTEX
  5
21B
330
202
100
AcDbEntity
  8
0
100
AcDbVertex
100
AcDb3dPolylineVertex
 10
17.8588981628418
 20
-17.24709701538086
 30
-2.833777427673339
 70
    32
  0
VERTEX
  5
21C
330
202
100
AcDbEntity
  8
0
100
AcDbVertex
100
AcDb3dPolylineVertex
 10
17.80239105224609
 20
-17.05490112304687
 30
-2.77992820739746
 70
    32
  0
VERTEX
  5
21D
330
202
100
AcDbEntity
  8
0
100
AcDbVertex
100
AcDb3dPolylineVertex
 10
17.75239181518555
 20
-16.85816192626953
 30
-2.732644081115722
 70
    32
  0
VERTEX
  5
21E
330
202
100
AcDbEntity
  8
0
100
AcDbVertex
100
AcDb3dPolylineVertex
 10
17.70908737182617
 20
-16.65713882446289
 30
-2.692113876342773
 70
    32
  0
VERTEX
  5
21F
330
202
100
AcDbEntity
  8
0
100
AcDbVertex
100
AcDb3dPolylineVertex
 10
17.67266845703125
 20
-16.45210266113281
 30
-2.658527374267578
 70
    32
  0
VERTEX
  5
220
330
202
100
AcDbEntity
  8
0
100
AcDbVertex
100
AcDb3dPolylineVertex
 10
17.64333724975586
 20
-16.24331283569336
 30
-2.632074832916259
 70
    32
  0
VERTEX
  5
221
330
202
100
AcDbEntity
  8
0
100
AcDbVertex
100
AcDb3dPolylineVertex
 10
17.62128067016601
 20
-16.03104400634765
 30
-2.612945079803466
 70
    32
  0
VERTEX
  5
222
330
202
100
AcDbEntity
  8
0
100
AcDbVertex
100
AcDb3dPolylineVertex
 10
17.60669708251953
 20
-15.81555271148681
 30
-2.601328372955322
 70
    32
  0
VERTEX
  5
223
330
202
100
AcDbEntity
  8
0
100
AcDbVertex
100
AcDb3dPolylineVertex
 10
17.59977340698242
 20
-15.59710884094238
 30
-2.597414016723632
 70
    32
  0
VERTEX
  5
224
330
202
100
AcDbEntity
  8
0
100
AcDbVertex
100
AcDb3dPolylineVertex
 10
17.60068130493164
 20
-15.37855625152588
 30
-2.60132884979248
 70
    32
  0
VERTEX
  5
225
330
202
100
AcDbEntity
  8
0
100
AcDbVertex
100
AcDb3dPolylineVertex
 10
17.60932540893555
 20
-15.16274833679199
 30
-2.612944602966308
 70
    32
  0
VERTEX
  5
226
330
202
100
AcDbEntity
  8
0
100
AcDbVertex
100
AcDb3dPolylineVertex
 10
17.62553024291992
 20
-14.94994926452636
 30
-2.632074356079101
 70
    32
  0
VERTEX
  5
227
330
202
100
AcDbEntity
  8
0
100
AcDbVertex
100
AcDb3dPolylineVertex
 10
17.64910507202148
 20
-14.74043369293213
 30
-2.658528327941894
 70
    32
  0
VERTEX
  5
228
330
202
100
AcDbEntity
  8
0
100
AcDbVertex
100
AcDb3dPolylineVertex
 10
17.67985916137695
 20
-14.53447151184082
 30
-2.692113399505615
 70
    32
  0
VERTEX
  5
229
330
202
100
AcDbEntity
  8
0
100
AcDbVertex
100
AcDb3dPolylineVertex
 10
17.71761703491211
 20
-14.3323335647583
 30
-2.732643604278564
 70
    32
  0
VERTEX
  5
22A
330
202
100
AcDbEntity
  8
0
100
AcDbVertex
100
AcDb3dPolylineVertex
 10
17.7621841430664
 20
-14.13429164886474
 30
-2.77992820739746
 70
    32
  0
VERTEX
  5
22B
330
202
100
AcDbEntity
  8
0
100
AcDbVertex
100
AcDb3dPolylineVertex
 10
17.81337738037109
 20
-13.94061279296875
 30
-2.833777904510498
 70
    32
  0
VERTEX
  5
22C
330
202
100
AcDbEntity
  8
0
100
AcDbVertex
100
AcDb3dPolylineVertex
 10
17.87100982666015
 20
-13.75157260894775
 30
-2.894001007080078
 70
    32
  0
VERTEX
  5
22D
330
202
100
AcDbEntity
  8
0
100
AcDbVertex
100
AcDb3dPolylineVertex
 10
17.93489837646484
 20
-13.56744003295898
 30
-2.960410118103027
 70
    32
  0
VERTEX
  5
22E
330
202
100
AcDbEntity
  8
0
100
AcDbVertex
100
AcDb3dPolylineVertex
 10
18.00485229492187
 20
-13.38848400115967
 30
-3.03281545639038
 70
    32
  0
VERTEX
  5
22F
330
202
100
AcDbEntity
  8
0
100
AcDbVertex
100
AcDb3dPolylineVertex
 10
18.0806884765625
 20
-13.21497917175293
 30
-3.111026287078857
 70
    32
  0
VERTEX
  5
230
330
202
100
AcDbEntity
  8
0
100
AcDbVertex
100
AcDb3dPolylineVertex
 10
18.1622200012207
 20
-13.04719161987305
 30
-3.19485330581665
 70
    32
  0
VERTEX
  5
231
330
202
100
AcDbEntity
  8
0
100
AcDbVertex
100
AcDb3dPolylineVertex
 10
18.24926376342773
 20
-12.88539505004883
 30
-3.284107685089111
 70
    32
  0
VERTEX
  5
232
330
202
100
AcDbEntity
  8
0
100
AcDbVertex
100
AcDb3dPolylineVertex
 10
18.34163284301758
 20
-12.72986030578613
 30
-3.378599166870117
 70
    32
  0
VERTEX
  5
233
330
202
100
AcDbEntity
  8
0
100
AcDbVertex
100
AcDb3dPolylineVertex
 10
18.43914031982422
 20
-12.58085918426514
 30
-3.478137969970703
 70
    32
  0
VERTEX
  5
234
330
202
100
AcDbEntity
  8
0
100
AcDbVertex
100
AcDb3dPolylineVertex
 10
18.54159927368164
 20
-12.43865966796875
 30
-3.582534790039062
 70
    32
  0
VERTEX
  5
235
330
202
100
AcDbEntity
  8
0
100
AcDbVertex
100
AcDb3dPolylineVertex
 10
18.64882278442383
 20
-12.30353355407715
 30
-3.691599369049072
 70
    32
  0
VERTEX
  5
236
330
202
100
AcDbEntity
  8
0
100
AcDbVertex
100
AcDb3dPolylineVertex
 10
18.76062774658203
 20
-12.17575168609619
 30
-3.805143356323242
 70
    32
  0
VERTEX
  5
237
330
202
100
AcDbEntity
  8
0
100
AcDbVertex
100
AcDb3dPolylineVertex
 10
18.8768310546875
 20
-12.05558490753174
 30
-3.922975063323974
 70
    32
  0
VERTEX
  5
238
330
202
100
AcDbEntity
  8
0
100
AcDbVertex
100
AcDb3dPolylineVertex
 10
18.99723815917969
 20
-11.94330501556396
 30
-4.044907569885253
 70
    32
  0
VERTEX
  5
239
330
202
100
AcDbEntity
  8
0
100
AcDbVertex
100
AcDb3dPolylineVertex
 10
19.12166976928711
 20
-11.8391809463501
 30
-4.170748710632324
 70
    32
  0
VERTEX
  5
23A
330
202
100
AcDbEntity
  8
0
100
AcDbVertex
100
AcDb3dPolylineVertex
 10
19.24993896484375
 20
-11.74348545074463
 30
-4.300310134887695
 70
    32
  0
VERTEX
  5
23B
330
202
100
AcDbEntity
  8
0
100
AcDbVertex
100
AcDb3dPolylineVertex
 10
19.38185882568359
 20
-11.65648746490478
 30
-4.433402061462402
 70
    32
  0
VERTEX
  5
23C
330
202
100
AcDbEntity
  8
0
100
AcDbVertex
100
AcDb3dPolylineVertex
 10
19.51724243164062
 20
-11.57845783233642
 30
-4.56983470916748
 70
    32
  0
VERTEX
  5
23D
330
202
100
AcDbEntity
  8
0
100
AcDbVertex
100
AcDb3dPolylineVertex
 10
19.65590667724609
 20
-11.50967121124267
 30
-4.709418773651123
 70
    32
  0
VERTEX
  5
23E
330
202
100
AcDbEntity
  8
0
100
AcDbVertex
100
AcDb3dPolylineVertex
 10
19.79766082763672
 20
-11.45039272308349
 30
-4.851963996887207
 70
    32
  0
VERTEX
  5
23F
330
202
100
AcDbEntity
  8
0
100
AcDbVertex
100
AcDb3dPolylineVertex
 10
19.94232559204101
 20
-11.40089607238769
 30
-4.997281074523925
 70
    32
  0
VERTEX
  5
240
330
202
100
AcDbEntity
  8
0
100
AcDbVertex
100
AcDb3dPolylineVertex
 10
20.08971023559571
 20
-11.36145210266113
 30
-5.145180702209472
 70
    32
  0
VERTEX
  5
241
330
202
100
AcDbEntity
  8
0
100
AcDbVertex
100
AcDb3dPolylineVertex
 10
20.23962783813477
 20
-11.33233070373535
 30
-5.295472145080566
 70
    32
  0
VERTEX
  5
242
330
202
100
AcDbEntity
  8
0
100
AcDbVertex
100
AcDb3dPolylineVertex
 10
20.39189529418945
 20
-11.31380367279053
 30
-5.447967529296875
 70
    32
  0
VERTEX
  5
243
330
202
100
AcDbEntity
  8
0
100
AcDbVertex
100
AcDb3dPolylineVertex
 10
20.54632949829102
 20
-11.3061408996582
 30
-5.602475643157958
 70
    32
  0
VERTEX
  5
244
330
202
100
AcDbEntity
  8
0
100
AcDbVertex
100
AcDb3dPolylineVertex
 10
20.70091247558594
 20
-11.30955028533935
 30
-5.756983757019042
 70
    32
  0
VERTEX
  5
245
330
202
100
AcDbEntity
  8
0
100
AcDbVertex
100
AcDb3dPolylineVertex
 10
20.85363388061523
 20
-11.32387733459472
 30
-5.909478664398193
 70
    32
  0
VERTEX
  5
246
330
202
100
AcDbEntity
  8
0
100
AcDbVertex
100
AcDb3dPolylineVertex
 10
21.00429916381836
 20
-11.34886169433594
 30
-6.059770584106445
 70
    32
  0
VERTEX
  5
247
330
202
100
AcDbEntity
  8
0
100
AcDbVertex
100
AcDb3dPolylineVertex
 10
21.15271377563477
 20
-11.38423252105713
 30
-6.207670211791992
 70
    32
  0
VERTEX
  5
248
330
202
100
AcDbEntity
  8
0
100
AcDbVertex
100
AcDb3dPolylineVertex
 10
21.29868316650391
 20
-11.4297285079956
 30
-6.35298728942871
 70
    32
  0
VERTEX
  5
249
330
202
100
AcDbEntity
  8
0
100
AcDbVertex
100
AcDb3dPolylineVertex
 10
21.4420166015625
 20
-11.48508071899414
 30
-6.495532512664794
 70
    32
  0
VERTEX
  5
24A
330
202
100
AcDbEntity
  8
0
100
AcDbVertex
100
AcDb3dPolylineVertex
 10
21.58252334594727
 20
-11.5500259399414
 30
-6.635116100311279
 70
    32
  0
VERTEX
  5
24B
330
202
100
AcDbEntity
  8
0
100
AcDbVertex
100
AcDb3dPolylineVertex
 10
21.72000503540039
 20
-11.62429714202881
 30
-6.771549224853515
 70
    32
  0
VERTEX
  5
24C
330
202
100
AcDbEntity
  8
0
100
AcDbVertex
100
AcDb3dPolylineVertex
 10
21.85426712036133
 20
-11.7076301574707
 30
-6.904640674591064
 70
    32
  0
VERTEX
  5
24D
330
202
100
AcDbEntity
  8
0
100
AcDbVertex
100
AcDb3dPolylineVertex
 10
21.98512268066406
 20
-11.79975986480713
 30
-7.034202098846435
 70
    32
  0
VERTEX
  5
24E
330
202
100
AcDbEntity
  8
0
100
AcDbVertex
100
AcDb3dPolylineVertex
 10
22.11237716674805
 20
-11.90041732788086
 30
-7.160043716430664
 70
    32
  0
VERTEX
  5
24F
330
202
100
AcDbEntity
  8
0
100
AcDbVertex
100
AcDb3dPolylineVertex
 10
22.23583221435547
 20
-12.0093412399292
 30
-7.281975269317626
 70
    32
  0
VERTEX
  5
250
330
202
100
AcDbEntity
  8
0
100
AcDbVertex
100
AcDb3dPolylineVertex
 10
22.35529327392578
 20
-12.12626266479492
 30
-7.399807929992675
 70
    32
  0
VERTEX
  5
251
330
202
100
AcDbEntity
  8
0
100
AcDbVertex
100
AcDb3dPolylineVertex
 10
22.47057342529297
 20
-12.2509183883667
 30
-7.513351440429687
 70
    32
  0
VERTEX
  5
252
330
202
100
AcDbEntity
  8
0
100
AcDbVertex
100
AcDb3dPolylineVertex
 10
22.58148193359375
 20
-12.38304042816162
 30
-7.622416019439697
 70
    32
  0
VERTEX
  5
253
330
202
100
AcDbEntity
  8
0
100
AcDbVertex
100
AcDb3dPolylineVertex
 10
22.68781280517578
 20
-12.52236652374267
 30
-7.726812362670898
 70
    32
  0
VERTEX
  5
254
330
202
100
AcDbEntity
  8
0
100
AcDbVertex
100
AcDb3dPolylineVertex
 10
22.78938293457031
 20
-12.66862773895264
 30
-7.826351165771484
 70
    32
  0
VERTEX
  5
255
330
202
100
AcDbEntity
  8
0
100
AcDbVertex
100
AcDb3dPolylineVertex
 10
22.88600158691406
 20
-12.82156085968017
 30
-7.92084264755249
 70
    32
  0
VERTEX
  5
256
330
202
100
AcDbEntity
  8
0
100
AcDbVertex
100
AcDb3dPolylineVertex
 10
22.97746276855469
 20
-12.9808988571167
 30
-8.010096549987792
 70
    32
  0
VERTEX
  5
257
330
202
100
AcDbEntity
  8
0
100
AcDbVertex
100
AcDb3dPolylineVertex
 10
23.0635871887207
 20
-13.14637756347656
 30
-8.093924522399902
 70
    32
  0
VERTEX
  5
258
330
202
100
AcDbEntity
  8
0
100
AcDbVertex
100
AcDb3dPolylineVertex
 10
23.14417266845703
 20
-13.31773090362549
 30
-8.172135353088378
 70
    32
  0
VERTEX
  5
259
330
202
100
AcDbEntity
  8
0
100
AcDbVertex
100
AcDb3dPolylineVertex
 10
23.21902465820313
 20
-13.4946928024292
 30
-8.244540214538574
 70
    32
  0
VERTEX
  5
25A
330
202
100
AcDbEntity
  8
0
100
AcDbVertex
100
AcDb3dPolylineVertex
 10
23.28795623779297
 20
-13.67699718475342
 30
-8.310949325561523
 70
    32
  0
VERTEX
  5
25B
330
202
100
AcDbEntity
  8
0
100
AcDbVertex
100
AcDb3dPolylineVertex
 10
23.35077285766602
 20
-13.86437892913818
 30
-8.371172904968261
 70
    32
  0
VERTEX
  5
25C
330
202
100
AcDbEntity
  8
0
100
AcDbVertex
100
AcDb3dPolylineVertex
 10
23.40727615356446
 20
-14.05657291412353
 30
-8.42502212524414
 70
    32
  0
VERTEX
  5
25D
330
202
100
AcDbEntity
  8
0
100
AcDbVertex
100
AcDb3dPolylineVertex
 10
23.45727920532227
 20
-14.25331401824951
 30
-8.472306251525878
 70
    32
  0
VERTEX
  5
25E
330
202
100
AcDbEntity
  8
0
100
AcDbVertex
100
AcDb3dPolylineVertex
 10
23.50058364868164
 20
-14.45433521270752
 30
-8.512836456298828
 70
    32
  0
VERTEX
  5
25F
330
202
100
AcDbEntity
  8
0
100
AcDbVertex
100
AcDb3dPolylineVertex
 10
23.5369987487793
 20
-14.65937328338623
 30
-8.546422958374023
 70
    32
  0
VERTEX
  5
260
330
202
100
AcDbEntity
  8
0
100
AcDbVertex
100
AcDb3dPolylineVertex
 10
23.56633377075195
 20
-14.86816120147705
 30
-8.5728759765625
 70
    32
  0
VERTEX
  5
261
330
202
100
AcDbEntity
  8
0
100
AcDbVertex
100
AcDb3dPolylineVertex
 10
23.5883903503418
 20
-15.0804328918457
 30
-8.592004776000976
 70
    32
  0
VERTEX
  5
262
330
202
100
AcDbEntity
  8
0
100
AcDbVertex
100
AcDb3dPolylineVertex
 10
23.60297393798828
 20
-15.29592227935791
 30
-8.603621482849121
 70
    32
  0
VERTEX
  5
263
330
202
100
AcDbEntity
  8
0
100
AcDbVertex
100
AcDb3dPolylineVertex
 10
23.60989761352539
 20
-15.51436614990234
 30
-8.607536315917968
 70
    32
  0
VERTEX
  5
264
330
202
100
AcDbEntity
  8
0
100
AcDbVertex
100
AcDb3dPolylineVertex
 10
23.60898971557617
 20
-15.73291683197021
 30
-8.603621482849121
 70
    32
  0
VERTEX
  5
265
330
202
100
AcDbEntity
  8
0
100
AcDbVertex
100
AcDb3dPolylineVertex
 10
23.600341796875
 20
-15.94872760772705
 30
-8.592004776000976
 70
    32
  0
VERTEX
  5
266
330
202
100
AcDbEntity
  8
0
100
AcDbVertex
100
AcDb3dPolylineVertex
 10
23.58413696289062
 20
-16.16152572631836
 30
-8.572875022888183
 70
    32
  0
VERTEX
  5
267
330
202
100
AcDbEntity
  8
0
100
AcDbVertex
100
AcDb3dPolylineVertex
 10
23.56056594848633
 20
-16.37104034423828
 30
-8.546422958374023
 70
    32
  0
VERTEX
  5
268
330
202
100
AcDbEntity
  8
0
100
AcDbVertex
100
AcDb3dPolylineVertex
 10
23.52980804443359
 20
-16.5770034790039
 30
-8.512836456298828
 70
    32
  0
VERTEX
  5
269
330
202
100
AcDbEntity
  8
0
100
AcDbVertex
100
AcDb3dPolylineVertex
 10
23.4920539855957
 20
-16.77914047241211
 30
-8.472306251525878
 70
    32
  0
VERTEX
  5
26A
330
202
100
AcDbEntity
  8
0
100
AcDbVertex
100
AcDb3dPolylineVertex
 10
23.44749069213867
 20
-16.97718429565429
 30
-8.42502212524414
 70
    32
  0
VERTEX
  5
26B
330
202
100
AcDbEntity
  8
0
100
AcDbVertex
100
AcDb3dPolylineVertex
 10
23.39629364013672
 20
-17.17086029052734
 30
-8.371172904968261
 70
    32
  0
VERTEX
  5
26C
330
202
100
AcDbEntity
  8
0
100
AcDbVertex
100
AcDb3dPolylineVertex
 10
23.33866119384766
 20
-17.35990142822265
 30
-8.310949325561523
 70
    32
  0
VERTEX
  5
26D
330
202
100
AcDbEntity
  8
0
100
AcDbVertex
100
AcDb3dPolylineVertex
 10
23.27477645874024
 20
-17.54403686523437
 30
-8.244540214538574
 70
    32
  0
VERTEX
  5
26E
330
202
100
AcDbEntity
  8
0
100
AcDbVertex
100
AcDb3dPolylineVertex
 10
23.2048225402832
 20
-17.72298812866211
 30
-8.172135353088378
 70
    32
  0
VERTEX
  5
26F
330
202
100
AcDbEntity
  8
0
100
AcDbVertex
100
AcDb3dPolylineVertex
 10
23.12898254394531
 20
-17.89649200439453
 30
-8.093923568725585
 70
    32
  0
VERTEX
  5
270
330
202
100
AcDbEntity
  8
0
100
AcDbVertex
100
AcDb3dPolylineVertex
 10
23.04745101928711
 20
-18.06428146362305
 30
-8.010096549987792
 70
    32
  0
VERTEX
  5
271
330
202
100
AcDbEntity
  8
0
100
AcDbVertex
100
AcDb3dPolylineVertex
 10
22.96040725708008
 20
-18.22607803344726
 30
-7.92084264755249
 70
    32
  0
VERTEX
  5
272
330
202
100
AcDbEntity
  8
0
100
AcDbVertex
100
AcDb3dPolylineVertex
 10
22.86803817749023
 20
-18.38161087036133
 30
-7.826351165771484
 70
    32
  0
VERTEX
  5
273
330
202
100
AcDbEntity
  8
0
100
AcDbVertex
100
AcDb3dPolylineVertex
 10
22.77053070068359
 20
-18.53061294555664
 30
-7.726812362670898
 70
    32
  0
VERTEX
  5
274
330
202
100
AcDbEntity
  8
0
100
AcDbVertex
100
AcDb3dPolylineVertex
 10
22.66807174682617
 20
-18.67281723022461
 30
-7.622416019439697
 70
    32
  0
VERTEX
  5
275
330
202
100
AcDbEntity
  8
0
100
AcDbVertex
100
AcDb3dPolylineVertex
 10
22.56084823608398
 20
-18.80794143676758
 30
-7.513350963592529
 70
    32
  0
VERTEX
  5
276
330
202
100
AcDbEntity
  8
0
100
AcDbVertex
100
AcDb3dPolylineVertex
 10
22.44904327392578
 20
-18.93572235107422
 30
-7.399807453155517
 70
    32
  0
VERTEX
  5
277
330
202
100
AcDbEntity
  8
0
100
AcDbVertex
100
AcDb3dPolylineVertex
 10
22.33284378051758
 20
-19.05588912963867
 30
-7.281975269317626
 70
    32
  0
VERTEX
  5
278
330
202
100
AcDbEntity
  8
0
100
AcDbVertex
100
AcDb3dPolylineVertex
 10
22.21243286132812
 20
-19.16816711425781
 30
-7.160043716430664
 70
    32
  0
VERTEX
  5
279
330
202
100
AcDbEntity
  8
0
100
AcDbVertex
100
AcDb3dPolylineVertex
 10
22.08800125122071
 20
-19.27229309082031
 30
-7.034202098846435
 70
    32
  0
VERTEX
  5
27A
330
202
100
AcDbEntity
  8
0
100
AcDbVertex
100
AcDb3dPolylineVertex
 10
21.95973205566406
 20
-19.36798858642578
 30
-6.904640674591064
 70
    32
  0
VERTEX
  5
27B
330
202
100
AcDbEntity
  8
0
100
AcDbVertex
100
AcDb3dPolylineVertex
 10
21.82781219482422
 20
-19.45498657226562
 30
-6.771548748016357
 70
    32
  0
VERTEX
  5
27C
330
202
100
AcDbEntity
  8
0
100
AcDbVertex
100
AcDb3dPolylineVertex
 10
21.69242858886719
 20
-19.53301620483398
 30
-6.635116100311279
 70
    32
  0
VERTEX
  5
27D
330
202
100
AcDbEntity
  8
0
100
AcDbVertex
100
AcDb3dPolylineVertex
 10
21.55376815795898
 20
-19.60180282592773
 30
-6.495532035827636
 70
    32
  0
VERTEX
  5
27E
330
202
100
AcDbEntity
  8
0
100
AcDbVertex
100
AcDb3dPolylineVertex
 10
21.41201019287109
 20
-19.66108322143554
 30
-6.35298728942871
 70
    32
  0
VERTEX
  5
27F
330
202
100
AcDbEntity
  8
0
100
AcDbVertex
100
AcDb3dPolylineVertex
 10
21.2673454284668
 20
-19.71057891845703
 30
-6.207669734954833
 70
    32
  0
VERTEX
  5
280
330
202
100
AcDbEntity
  8
0
100
AcDbVertex
100
AcDb3dPolylineVertex
 10
21.11996078491211
 20
-19.75002288818359
 30
-6.059770584106445
 70
    32
  0
VERTEX
  5
281
330
202
100
AcDbEntity
  8
0
100
AcDbVertex
100
AcDb3dPolylineVertex
 10
20.97003936767578
 20
-19.77914428710937
 30
-5.909478187561035
 70
    32
  0
VERTEX
  5
282
330
202
100
AcDbEntity
  8
0
100
AcDbVertex
100
AcDb3dPolylineVertex
 10
20.81777191162109
 20
-19.79767227172851
 30
-5.756983757019042
 70
    32
  0
SEQEND
  5
307
330
202
100
AcDbEntity
  8
0
  0
POLYLINE
  5
283
330
1F
100
AcDbEntity
  8
0
100
AcDb3dPolyline
 66
     1
 10
0.0
 20
0.0
 30
0.0
 70
     9
  0
VERTEX
  5
284
330
283
100
AcDbEntity
  8
0
100
AcDbVertex
100
AcDb3dPolylineVertex
 10
23.7342414855957
 20
17.72383499145508
 30
-26.23832702636719
 70
    32
  0
VERTEX
  5
285
330
283
100
AcDbEntity
  8
0
100
AcDbVertex
100
AcDb3dPolylineVertex
 10
23.73032760620117
 20
17.72775268554687
 30
-26.01980972290039
 70
    32
  0
VERTEX
  5
286
330
283
100
AcDbEntity
  8
0
100
AcDbVertex
100
AcDb3dPolylineVertex
 10
23.71870803833008
 20
17.73936462402344
 30
-25.80413818359375
 70
    32
  0
VERTEX
  5
287
330
283
100
AcDbEntity
  8
0
100
AcDbVertex
100
AcDb3dPolylineVertex
 10
23.69957733154297
 20
17.75849914550781
 30
-25.59158325195312
 70
    32
  0
VERTEX
  5
288
330
283
100
AcDbEntity
  8
0
100
AcDbVertex
100
AcDb3dPolylineVertex
 10
23.67312240600586
 20
17.78495025634765
 30
-25.38241577148438
 70
    32
  0
VERTEX
  5
289
330
283
100
AcDbEntity
  8
0
100
AcDbVertex
100
AcDb3dPolylineVertex
 10
23.6395378112793
 20
17.81853866577148
 30
-25.1768913269043
 70
    32
  0
VERTEX
  5
28A
330
283
100
AcDbEntity
  8
0
100
AcDbVertex
100
AcDb3dPolylineVertex
 10
23.59900665283203
 20
17.85906982421875
 30
-24.97529602050781
 70
    32
  0
VERTEX
  5
28B
330
283
100
AcDbEntity
  8
0
100
AcDbVertex
100
AcDb3dPolylineVertex
 10
23.55171585083008
 20
17.90635681152344
 30
-24.77788543701172
 70
    32
  0
VERTEX
  5
28C
330
283
100
AcDbEntity
  8
0
100
AcDbVertex
100
AcDb3dPolylineVertex
 10
23.49786758422852
 20
17.96020889282226
 30
-24.58493041992188
 70
    32
  0
VERTEX
  5
28D
330
283
100
AcDbEntity
  8
0
100
AcDbVertex
100
AcDb3dPolylineVertex
 10
23.43764114379883
 20
18.02043533325195
 30
-24.39670181274414
 70
    32
  0
VERTEX
  5
28E
330
283
100
AcDbEntity
  8
0
100
AcDbVertex
100
AcDb3dPolylineVertex
 10
23.37122344970703
 20
18.08684539794922
 30
-24.21346473693848
 70
    32
  0
VERTEX
  5
28F
330
283
100
AcDbEntity
  8
0
100
AcDbVertex
100
AcDb3dPolylineVertex
 10
23.29882049560547
 20
18.15925598144531
 30
-24.03549194335937
 70
    32
  0
VERTEX
  5
290
330
283
100
AcDbEntity
  8
0
100
AcDbVertex
100
AcDb3dPolylineVertex
 10
23.2206039428711
 20
18.23747253417969
 30
-23.86304473876953
 70
    32
  0
VERTEX
  5
291
330
283
100
AcDbEntity
  8
0
100
AcDbVertex
100
AcDb3dPolylineVertex
 10
23.13677215576172
 20
18.32130432128906
 30
-23.69639587402344
 70
    32
  0
VERTEX
  5
292
330
283
100
AcDbEntity
  8
0
100
AcDbVertex
100
AcDb3dPolylineVertex
 10
23.04751586914063
 20
18.41056060791015
 30
-23.53581428527832
 70
    32
  0
VERTEX
  5
293
330
283
100
AcDbEntity
  8
0
100
AcDbVertex
100
AcDb3dPolylineVertex
 10
22.95301818847656
 20
18.50505828857422
 30
-23.38156509399414
 70
    32
  0
VERTEX
  5
294
330
283
100
AcDbEntity
  8
0
100
AcDbVertex
100
AcDb3dPolylineVertex
 10
22.85347747802735
 20
18.60459899902344
 30
-23.23391914367676
 70
    32
  0
VERTEX
  5
295
330
283
100
AcDbEntity
  8
0
100
AcDbVertex
100
AcDb3dPolylineVertex
 10
22.74907302856445
 20
18.70900344848633
 30
-23.09314346313477
 70
    32
  0
VERTEX
  5
296
330
283
100
AcDbEntity
  8
0
100
AcDbVertex
100
AcDb3dPolylineVertex
 10
22.6400032043457
 20
18.81806945800781
 30
-22.95950698852539
 70
    32
  0
VERTEX
  5
297
330
283
100
AcDbEntity
  8
0
100
AcDbVertex
100
AcDb3dPolylineVertex
 10
22.52645492553711
 20
18.93162155151367
 30
-22.83327674865723
 70
    32
  0
VERTEX
  5
298
330
283
100
AcDbEntity
  8
0
100
AcDbVertex
100
AcDb3dPolylineVertex
 10
22.40861511230469
 20
19.04945755004883
 30
-22.7147216796875
 70
    32
  0
VERTEX
  5
299
330
283
100
AcDbEntity
  8
0
100
AcDbVertex
100
AcDb3dPolylineVertex
 10
22.28667831420898
 20
19.17139434814453
 30
-22.60410881042481
 70
    32
  0
VERTEX
  5
29A
330
283
100
AcDbEntity
  8
0
100
AcDbVertex
100
AcDb3dPolylineVertex
 10
22.16083145141602
 20
19.29724502563476
 30
-22.501708984375
 70
    32
  0
VERTEX
  5
29B
330
283
100
AcDbEntity
  8
0
100
AcDbVertex
100
AcDb3dPolylineVertex
 10
22.03126525878906
 20
19.42681121826172
 30
-22.40778732299805
 70
    32
  0
VERTEX
  5
29C
330
283
100
AcDbEntity
  8
0
100
AcDbVertex
100
AcDb3dPolylineVertex
 10
21.89816665649414
 20
19.55990982055664
 30
-22.32261276245117
 70
    32
  0
VERTEX
  5
29D
330
283
100
AcDbEntity
  8
0
100
AcDbVertex
100
AcDb3dPolylineVertex
 10
21.76172637939453
 20
19.69634628295898
 30
-22.24645614624023
 70
    32
  0
VERTEX
  5
29E
330
283
100
AcDbEntity
  8
0
100
AcDbVertex
100
AcDb3dPolylineVertex
 10
21.62213516235352
 20
19.8359375
 30
-22.1795825958252
 70
    32
  0
VERTEX
  5
29F
330
283
100
AcDbEntity
  8
0
100
AcDbVertex
100
AcDb3dPolylineVertex
 10
21.47958374023438
 20
19.97848892211914
 30
-22.12226104736328
 70
    32
  0
VERTEX
  5
2A0
330
283
100
AcDbEntity
  8
0
100
AcDbVertex
100
AcDb3dPolylineVertex
 10
21.33426284790039
 20
20.12381362915039
 30
-22.07476043701172
 70
    32
  0
VERTEX
  5
2A1
330
283
100
AcDbEntity
  8
0
100
AcDbVertex
100
AcDb3dPolylineVertex
 10
21.18635559082031
 20
20.27172088623047
 30
-22.03734970092773
 70
    32
  0
VERTEX
  5
2A2
330
283
100
AcDbEntity
  8
0
100
AcDbVertex
100
AcDb3dPolylineVertex
 10
21.03605270385742
 20
20.42201995849609
 30
-22.01029396057129
 70
    32
  0
VERTEX
  5
2A3
330
283
100
AcDbEntity
  8
0
100
AcDbVertex
100
AcDb3dPolylineVertex
 10
20.88355255126953
 20
20.57452011108399
 30
-21.99386596679687
 70
    32
  0
VERTEX
  5
2A4
330
283
100
AcDbEntity
  8
0
100
AcDbVertex
100
AcDb3dPolylineVertex
 10
20.72903823852539
 20
20.72903823852539
 30
-21.98832893371582
 70
    32
  0
VERTEX
  5
2A5
330
283
100
AcDbEntity
  8
0
100
AcDbVertex
100
AcDb3dPolylineVertex
 10
20.57452011108399
 20
20.88355255126953
 30
-21.99386596679687
 70
    32
  0
VERTEX
  5
2A6
330
283
100
AcDbEntity
  8
0
100
AcDbVertex
100
AcDb3dPolylineVertex
 10
20.42201995849609
 20
21.03605651855469
 30
-22.01029586791992
 70
    32
  0
VERTEX
  5
2A7
330
283
100
AcDbEntity
  8
0
100
AcDbVertex
100
AcDb3dPolylineVertex
 10
20.27172088623047
 20
21.18635559082031
 30
-22.03734970092773
 70
    32
  0
VERTEX
  5
2A8
330
283
100
AcDbEntity
  8
0
100
AcDbVertex
100
AcDb3dPolylineVertex
 10
20.12381362915039
 20
21.33425903320313
 30
-22.07476043701172
 70
    32
  0
VERTEX
  5
2A9
330
283
100
AcDbEntity
  8
0
100
AcDbVertex
100
AcDb3dPolylineVertex
 10
19.97848892211914
 20
21.47958374023438
 30
-22.12226104736328
 70
    32
  0
VERTEX
  5
2AA
330
283
100
AcDbEntity
  8
0
100
AcDbVertex
100
AcDb3dPolylineVertex
 10
19.8359375
 20
21.62213516235352
 30
-22.1795825958252
 70
    32
  0
VERTEX
  5
2AB
330
283
100
AcDbEntity
  8
0
100
AcDbVertex
100
AcDb3dPolylineVertex
 10
19.69635009765625
 20
21.7617301940918
 30
-22.24645614624023
 70
    32
  0
VERTEX
  5
2AC
330
283
100
AcDbEntity
  8
0
100
AcDbVertex
100
AcDb3dPolylineVertex
 10
19.55990982055664
 20
21.89816284179688
 30
-22.32261276245117
 70
    32
  0
VERTEX
  5
2AD
330
283
100
AcDbEntity
  8
0
100
AcDbVertex
100
AcDb3dPolylineVertex
 10
19.42681121826172
 20
22.03126525878906
 30
-22.40778732299805
 70
    32
  0
VERTEX
  5
2AE
330
283
100
AcDbEntity
  8
0
100
AcDbVertex
100
AcDb3dPolylineVertex
 10
19.29724502563476
 20
22.16083145141602
 30
-22.501708984375
 70
    32
  0
VERTEX
  5
2AF
330
283
100
AcDbEntity
  8
0
100
AcDbVertex
100
AcDb3dPolylineVertex
 10
19.17139434814453
 20
22.28668212890625
 30
-22.60410690307617
 70
    32
  0
VERTEX
  5
2B0
330
283
100
AcDbEntity
  8
0
100
AcDbVertex
100
AcDb3dPolylineVertex
 10
19.04945755004883
 20
22.40861892700195
 30
-22.7147216796875
 70
    32
  0
VERTEX
  5
2B1
330
283
100
AcDbEntity
  8
0
100
AcDbVertex
100
AcDb3dPolylineVertex
 10
18.9316177368164
 20
22.52645492553711
 30
-22.83327484130859
 70
    32
  0
VERTEX
  5
2B2
330
283
100
AcDbEntity
  8
0
100
AcDbVertex
100
AcDb3dPolylineVertex
 10
18.81807327270507
 20
22.6400032043457
 30
-22.95950698852539
 70
    32
  0
VERTEX
  5
2B3
330
283
100
AcDbEntity
  8
0
100
AcDbVertex
100
AcDb3dPolylineVertex
 10
18.70899963378906
 20
22.74907302856445
 30
-23.0931453704834
 70
    32
  0
VERTEX
  5
2B4
330
283
100
AcDbEntity
  8
0
100
AcDbVertex
100
AcDb3dPolylineVertex
 10
18.6046028137207
 20
22.85347747802735
 30
-23.23391914367676
 70
    32
  0
VERTEX
  5
2B5
330
283
100
AcDbEntity
  8
0
100
AcDbVertex
100
AcDb3dPolylineVertex
 10
18.50505828857422
 20
22.95301818847656
 30
-23.38156509399414
 70
    32
  0
VERTEX
  5
2B6
330
283
100
AcDbEntity
  8
0
100
AcDbVertex
100
AcDb3dPolylineVertex
 10
18.41056060791015
 20
23.04751586914063
 30
-23.53581428527832
 70
    32
  0
VERTEX
  5
2B7
330
283
100
AcDbEntity
  8
0
100
AcDbVertex
100
AcDb3dPolylineVertex
 10
18.3213005065918
 20
23.13677215576172
 30
-23.69639587402344
 70
    32
  0
VERTEX
  5
2B8
330
283
100
AcDbEntity
  8
0
100
AcDbVertex
100
AcDb3dPolylineVertex
 10
18.23747253417969
 20
23.2206039428711
 30
-23.86304473876953
 70
    32
  0
VERTEX
  5
2B9
330
283
100
AcDbEntity
  8
0
100
AcDbVertex
100
AcDb3dPolylineVertex
 10
18.15925598144531
 20
23.2988166809082
 30
-24.03549194335937
 70
    32
  0
VERTEX
  5
2BA
330
283
100
AcDbEntity
  8
0
100
AcDbVertex
100
AcDb3dPolylineVertex
 10
18.08684921264648
 20
23.3712272644043
 30
-24.21346664428711
 70
    32
  0
VERTEX
  5
2BB
330
283
100
AcDbEntity
  8
0
100
AcDbVertex
100
AcDb3dPolylineVertex
 10
18.02043533325195
 20
23.43763732910156
 30
-24.39670181274414
 70
    32
  0
VERTEX
  5
2BC
330
283
100
AcDbEntity
  8
0
100
AcDbVertex
100
AcDb3dPolylineVertex
 10
17.96020889282226
 20
23.49786758422852
 30
-24.58493041992188
 70
    32
  0
VERTEX
  5
2BD
330
283
100
AcDbEntity
  8
0
100
AcDbVertex
100
AcDb3dPolylineVertex
 10
17.90635681152344
 20
23.55171585083008
 30
-24.77788543701172
 70
    32
  0
VERTEX
  5
2BE
330
283
100
AcDbEntity
  8
0
100
AcDbVertex
100
AcDb3dPolylineVertex
 10
17.85906982421875
 20
23.59900283813477
 30
-24.97529602050781
 70
    32
  0
VERTEX
  5
2BF
330
283
100
AcDbEntity
  8
0
100
AcDbVertex
100
AcDb3dPolylineVertex
 10
17.81853866577148
 20
23.6395378112793
 30
-25.17689514160156
 70
    32
  0
VERTEX
  5
2C0
330
283
100
AcDbEntity
  8
0
100
AcDbVertex
100
AcDb3dPolylineVertex
 10
17.78495025634765
 20
23.67312622070313
 30
-25.38241195678711
 70
    32
  0
VERTEX
  5
2C1
330
283
100
AcDbEntity
  8
0
100
AcDbVertex
100
AcDb3dPolylineVertex
 10
17.75849533081055
 20
23.69957733154297
 30
-25.59158325195312
 70
    32
  0
VERTEX
  5
2C2
330
283
100
AcDbEntity
  8
0
100
AcDbVertex
100
AcDb3dPolylineVertex
 10
17.73936462402344
 20
23.71870803833008
 30
-25.80413818359375
 70
    32
  0
VERTEX
  5
2C3
330
283
100
AcDbEntity
  8
0
100
AcDbVertex
100
AcDb3dPolylineVertex
 10
17.72774887084961
 20
23.73032379150391
 30
-26.01980972290039
 70
    32
  0
VERTEX
  5
2C4
330
283
100
AcDbEntity
  8
0
100
AcDbVertex
100
AcDb3dPolylineVertex
 10
17.72383499145508
 20
23.7342414855957
 30
-26.23832702636719
 70
    32
  0
VERTEX
  5
2C5
330
283
100
AcDbEntity
  8
0
100
AcDbVertex
100
AcDb3dPolylineVertex
 10
17.72775268554687
 20
23.73032760620117
 30
-26.45684814453125
 70
    32
  0
VERTEX
  5
2C6
330
283
100
AcDbEntity
  8
0
100
AcDbVertex
100
AcDb3dPolylineVertex
 10
17.73936462402344
 20
23.71870803833008
 30
-26.67251586914062
 70
    32
  0
VERTEX
  5
2C7
330
283
100
AcDbEntity
  8
0
100
AcDbVertex
100
AcDb3dPolylineVertex
 10
17.75849914550781
 20
23.69957733154297
 30
-26.88507080078125
 70
    32
  0
VERTEX
  5
2C8
330
283
100
AcDbEntity
  8
0
100
AcDbVertex
100
AcDb3dPolylineVertex
 10
17.78495025634765
 20
23.67312240600586
 30
-27.09424209594727
 70
    32
  0
VERTEX
  5
2C9
330
283
100
AcDbEntity
  8
0
100
AcDbVertex
100
AcDb3dPolylineVertex
 10
17.81853866577148
 20
23.6395378112793
 30
-27.29976272583008
 70
    32
  0
VERTEX
  5
2CA
330
283
100
AcDbEntity
  8
0
100
AcDbVertex
100
AcDb3dPolylineVertex
 10
17.85906982421875
 20
23.59900665283203
 30
-27.50136184692383
 70
    32
  0
VERTEX
  5
2CB
330
283
100
AcDbEntity
  8
0
100
AcDbVertex
100
AcDb3dPolylineVertex
 10
17.90635681152344
 20
23.55171585083008
 30
-27.69877243041992
 70
    32
  0
VERTEX
  5
2CC
330
283
100
AcDbEntity
  8
0
100
AcDbVertex
100
AcDb3dPolylineVertex
 10
17.96020889282226
 20
23.49786758422852
 30
-27.89172744750977
 70
    32
  0
VERTEX
  5
2CD
330
283
100
AcDbEntity
  8
0
100
AcDbVertex
100
AcDb3dPolylineVertex
 10
18.02043533325195
 20
23.43764114379883
 30
-28.0799560546875
 70
    32
  0
VERTEX
  5
2CE
330
283
100
AcDbEntity
  8
0
100
AcDbVertex
100
AcDb3dPolylineVertex
 10
18.08684539794922
 20
23.37122344970703
 30
-28.26319122314453
 70
    32
  0
VERTEX
  5
2CF
330
283
100
AcDbEntity
  8
0
100
AcDbVertex
100
AcDb3dPolylineVertex
 10
18.15925598144531
 20
23.29882049560547
 30
-28.44116592407227
 70
    32
  0
VERTEX
  5
2D0
330
283
100
AcDbEntity
  8
0
100
AcDbVertex
100
AcDb3dPolylineVertex
 10
18.23747253417969
 20
23.2206039428711
 30
-28.61361312866211
 70
    32
  0
VERTEX
  5
2D1
330
283
100
AcDbEntity
  8
0
100
AcDbVertex
100
AcDb3dPolylineVertex
 10
18.32130432128906
 20
23.13677215576172
 30
-28.78026199340821
 70
    32
  0
VERTEX
  5
2D2
330
283
100
AcDbEntity
  8
0
100
AcDbVertex
100
AcDb3dPolylineVertex
 10
18.41056060791015
 20
23.04751586914063
 30
-28.94084548950195
 70
    32
  0
VERTEX
  5
2D3
330
283
100
AcDbEntity
  8
0
100
AcDbVertex
100
AcDb3dPolylineVertex
 10
18.50505828857422
 20
22.95301818847656
 30
-29.0950927734375
 70
    32
  0
VERTEX
  5
2D4
330
283
100
AcDbEntity
  8
0
100
AcDbVertex
100
AcDb3dPolylineVertex
 10
18.60459899902344
 20
22.85347747802735
 30
-29.24273681640625
 70
    32
  0
VERTEX
  5
2D5
330
283
100
AcDbEntity
  8
0
100
AcDbVertex
100
AcDb3dPolylineVertex
 10
18.70900344848633
 20
22.74907302856445
 30
-29.38351440429688
 70
    32
  0
VERTEX
  5
2D6
330
283
100
AcDbEntity
  8
0
100
AcDbVertex
100
AcDb3dPolylineVertex
 10
18.81806945800781
 20
22.6400032043457
 30
-29.51715087890625
 70
    32
  0
VERTEX
  5
2D7
330
283
100
AcDbEntity
  8
0
100
AcDbVertex
100
AcDb3dPolylineVertex
 10
18.93162155151367
 20
22.52645492553711
 30
-29.64337921142578
 70
    32
  0
VERTEX
  5
2D8
330
283
100
AcDbEntity
  8
0
100
AcDbVertex
100
AcDb3dPolylineVertex
 10
19.04945755004883
 20
22.40861511230469
 30
-29.76193618774414
 70
    32
  0
VERTEX
  5
2D9
330
283
100
AcDbEntity
  8
0
100
AcDbVertex
100
AcDb3dPolylineVertex
 10
19.17139434814453
 20
22.28667831420898
 30
-29.87255096435547
 70
    32
  0
VERTEX
  5
2DA
330
283
100
AcDbEntity
  8
0
100
AcDbVertex
100
AcDb3dPolylineVertex
 10
19.29724502563476
 20
22.16083145141602
 30
-29.97494888305664
 70
    32
  0
VERTEX
  5
2DB
330
283
100
AcDbEntity
  8
0
100
AcDbVertex
100
AcDb3dPolylineVertex
 10
19.42681121826172
 20
22.03126525878906
 30
-30.06887054443359
 70
    32
  0
VERTEX
  5
2DC
330
283
100
AcDbEntity
  8
0
100
AcDbVertex
100
AcDb3dPolylineVertex
 10
19.55990982055664
 20
21.89816665649414
 30
-30.15404510498047
 70
    32
  0
VERTEX
  5
2DD
330
283
100
AcDbEntity
  8
0
100
AcDbVertex
100
AcDb3dPolylineVertex
 10
19.69634628295898
 20
21.76172637939453
 30
-30.23020172119141
 70
    32
  0
VERTEX
  5
2DE
330
283
100
AcDbEntity
  8
0
100
AcDbVertex
100
AcDb3dPolylineVertex
 10
19.8359375
 20
21.62213516235352
 30
-30.29707336425782
 70
    32
  0
VERTEX
  5
2DF
330
283
100
AcDbEntity
  8
0
100
AcDbVertex
100
AcDb3dPolylineVertex
 10
19.97848892211914
 20
21.47958374023438
 30
-30.35439682006836
 70
    32
  0
VERTEX
  5
2E0
330
283
100
AcDbEntity
  8
0
100
AcDbVertex
100
AcDb3dPolylineVertex
 10
20.12381362915039
 20
21.33426284790039
 30
-30.40189743041992
 70
    32
  0
VERTEX
  5
2E1
330
283
100
AcDbEntity
  8
0
100
AcDbVertex
100
AcDb3dPolylineVertex
 10
20.27172088623047
 20
21.18635559082031
 30
-30.43930816650391
 70
    32
  0
VERTEX
  5
2E2
330
283
100
AcDbEntity
  8
0
100
AcDbVertex
100
AcDb3dPolylineVertex
 10
20.42201995849609
 20
21.03605270385742
 30
-30.46636199951172
 70
    32
  0
VERTEX
  5
2E3
330
283
100
AcDbEntity
  8
0
100
AcDbVertex
100
AcDb3dPolylineVertex
 10
20.57452011108399
 20
20.88355255126953
 30
-30.48279190063477
 70
    32
  0
VERTEX
  5
2E4
330
283
100
AcDbEntity
  8
0
100
AcDbVertex
100
AcDb3dPolylineVertex
 10
20.72903823852539
 20
20.72903823852539
 30
-30.48832702636719
 70
    32
  0
VERTEX
  5
2E5
330
283
100
AcDbEntity
  8
0
100
AcDbVertex
100
AcDb3dPolylineVertex
 10
20.88355255126953
 20
20.57452011108399
 30
-30.48279190063477
 70
    32
  0
VERTEX
  5
2E6
330
283
100
AcDbEntity
  8
0
100
AcDbVertex
100
AcDb3dPolylineVertex
 10
21.03605651855469
 20
20.42201995849609
 30
-30.46636199951172
 70
    32
  0
VERTEX
  5
2E7
330
283
100
AcDbEntity
  8
0
100
AcDbVertex
100
AcDb3dPolylineVertex
 10
21.18635559082031
 20
20.27172088623047
 30
-30.43930816650391
 70
    32
  0
VERTEX
  5
2E8
330
283
100
AcDbEntity
  8
0
100
AcDbVertex
100
AcDb3dPolylineVertex
 10
21.33425903320313
 20
20.12381362915039
 30
-30.40189361572266
 70
    32
  0
VERTEX
  5
2E9
330
283
100
AcDbEntity
  8
0
100
AcDbVertex
100
AcDb3dPolylineVertex
 10
21.47958374023438
 20
19.97848892211914
 30
-30.35439682006836
 70
    32
  0
VERTEX
  5
2EA
330
283
100
AcDbEntity
  8
0
100
AcDbVertex
100
AcDb3dPolylineVertex
 10
21.62213516235352
 20
19.8359375
 30
-30.29707717895508
 70
    32
  0
VERTEX
  5
2EB
330
283
100
AcDbEntity
  8
0
100
AcDbVertex
100
AcDb3dPolylineVertex
 10
21.7617301940918
 20
19.69635009765625
 30
-30.23020172119141
 70
    32
  0
VERTEX
  5
2EC
330
283
100
AcDbEntity
  8
0
100
AcDbVertex
100
AcDb3dPolylineVertex
 10
21.89816284179688
 20
19.55990982055664
 30
-30.15404510498047
 70
    32
  0
VERTEX
  5
2ED
330
283
100
AcDbEntity
  8
0
100
AcDbVertex
100
AcDb3dPolylineVertex
 10
22.03126525878906
 20
19.42681121826172
 30
-30.06887054443359
 70
    32
  0
VERTEX
  5
2EE
330
283
100
AcDbEntity
  8
0
100
AcDbVertex
100
AcDb3dPolylineVertex
 10
22.16083145141602
 20
19.29724502563476
 30
-29.97495269775391
 70
    32
  0
VERTEX
  5
2EF
330
283
100
AcDbEntity
  8
0
100
AcDbVertex
100
AcDb3dPolylineVertex
 10
22.28668212890625
 20
19.17139434814453
 30
-29.8725471496582
 70
    32
  0
VERTEX
  5
2F0
330
283
100
AcDbEntity
  8
0
100
AcDbVertex
100
AcDb3dPolylineVertex
 10
22.40861892700195
 20
19.04945755004883
 30
-29.76194000244141
 70
    32
  0
VERTEX
  5
2F1
330
283
100
AcDbEntity
  8
0
100
AcDbVertex
100
AcDb3dPolylineVertex
 10
22.52645492553711
 20
18.9316177368164
 30
-29.64337921142578
 70
    32
  0
VERTEX
  5
2F2
330
283
100
AcDbEntity
  8
0
100
AcDbVertex
100
AcDb3dPolylineVertex
 10
22.6400032043457
 20
18.81807327270507
 30
-29.51715087890625
 70
    32
  0
VERTEX
  5
2F3
330
283
100
AcDbEntity
  8
0
100
AcDbVertex
100
AcDb3dPolylineVertex
 10
22.74907302856445
 20
18.70899963378906
 30
-29.38351440429688
 70
    32
  0
VERTEX
  5
2F4
330
283
100
AcDbEntity
  8
0
100
AcDbVertex
100
AcDb3dPolylineVertex
 10
22.85347747802735
 20
18.6046028137207
 30
-29.24273681640625
 70
    32
  0
VERTEX
  5
2F5
330
283
100
AcDbEntity
  8
0
100
AcDbVertex
100
AcDb3dPolylineVertex
 10
22.95301818847656
 20
18.50505828857422
 30
-29.0950927734375
 70
    32
  0
VERTEX
  5
2F6
330
283
100
AcDbEntity
  8
0
100
AcDbVertex
100
AcDb3dPolylineVertex
 10
23.04751586914063
 20
18.41056060791015
 30
-28.94084167480469
 70
    32
  0
VERTEX
  5
2F7
330
283
100
AcDbEntity
  8
0
100
AcDbVertex
100
AcDb3dPolylineVertex
 10
23.13677215576172
 20
18.3213005065918
 30
-28.78025817871094
 70
    32
  0
VERTEX
  5
2F8
330
283
100
AcDbEntity
  8
0
100
AcDbVertex
100
AcDb3dPolylineVertex
 10
23.2206039428711
 20
18.23747253417969
 30
-28.61361312866211
 70
    32
  0
VERTEX
  5
2F9
330
283
100
AcDbEntity
  8
0
100
AcDbVertex
100
AcDb3dPolylineVertex
 10
23.2988166809082
 20
18.15925598144531
 30
-28.44116592407227
 70
    32
  0
VERTEX
  5
2FA
330
283
100
AcDbEntity
  8
0
100
AcDbVertex
100
AcDb3dPolylineVertex
 10
23.3712272644043
 20
18.08684921264648
 30
-28.26319122314453
 70
    32
  0
VERTEX
  5
2FB
330
283
100
AcDbEntity
  8
0
100
AcDbVertex
100
AcDb3dPolylineVertex
 10
23.43763732910156
 20
18.02043533325195
 30
-28.0799560546875
 70
    32
  0
VERTEX
  5
2FC
330
283
100
AcDbEntity
  8
0
100
AcDbVertex
100
AcDb3dPolylineVertex
 10
23.49786758422852
 20
17.96020889282226
 30
-27.89172744750977
 70
    32
  0
VERTEX
  5
2FD
330
283
100
AcDbEntity
  8
0
100
AcDbVertex
100
AcDb3dPolylineVertex
 10
23.55171585083008
 20
17.90635681152344
 30
-27.69877243041992
 70
    32
  0
VERTEX
  5
2FE
330
283
100
AcDbEntity
  8
0
100
AcDbVertex
100
AcDb3dPolylineVertex
 10
23.59900283813477
 20
17.85906982421875
 30
-27.50136184692383
 70
    32
  0
VERTEX
  5
2FF
330
283
100
AcDbEntity
  8
0
100
AcDbVertex
100
AcDb3dPolylineVertex
 10
23.6395378112793
 20
17.81853866577148
 30
-27.29976272583008
 70
    32
  0
VERTEX
  5
300
330
283
100
AcDbEntity
  8
0
100
AcDbVertex
100
AcDb3dPolylineVertex
 10
23.67312622070313
 20
17.78495025634765
 30
-27.09424209594727
 70
    32
  0
VERTEX
  5
301
330
283
100
AcDbEntity
  8
0
100
AcDbVertex
100
AcDb3dPolylineVertex
 10
23.69957733154297
 20
17.75849533081055
 30
-26.88507080078125
 70
    32
  0
VERTEX
  5
302
330
283
100
AcDbEntity
  8
0
100
AcDbVertex
100
AcDb3dPolylineVertex
 10
23.71870803833008
 20
17.73936462402344
 30
-26.67251586914062
 70
    32
  0
VERTEX
  5
303
330
283
100
AcDbEntity
  8
0
100
AcDbVertex
100
AcDb3dPolylineVertex
 10
23.73032379150391
 20
17.72774887084961
 30
-26.45684432983399
 70
    32
  0
SEQEND
  5
308
330
283
100
AcDbEntity
  8
0
  0
ENDSEC
  0
SECTION
  2
OBJECTS
  0
DICTIONARY
  5
C
330
0
100
AcDbDictionary
281
     1
  3
ACAD_COLOR
350
DC
  3
ACAD_DETAILVIEWSTYLE
350
F5
  3
ACAD_GROUP
350
D
  3
ACAD_LAYOUT
350
1A
  3
ACAD_MATERIAL
350
AA
  3
ACAD_MLEADERSTYLE
350
F1
  3
ACAD_MLINESTYLE
350
17
  3
ACAD_PLOTSETTINGS
350
19
  3
ACAD_PLOTSTYLENAME
350
E
  3
ACAD_SCALELIST
350
DF
  3
ACAD_SECTIONVIEWSTYLE
350
F3
  3
ACAD_TABLESTYLE
350
DD
  3
ACAD_VISUALSTYLE
350
C3
  3
ACDB_RECOMPOSE_DATA
350
315
  3
AcDbVariableDictionary
350
309
  0
DICTIONARY
  5
DC
102
{ACAD_REACTORS
330
C
102
}
330
C
100
AcDbDictionary
281
     1
  0
DICTIONARY
  5
F5
102
{ACAD_REACTORS
330
C
102
}
330
C
100
AcDbDictionary
281
     1
  3
Imperial24
350
F6
  0
DICTIONARY
  5
D
102
{ACAD_REACTORS
330
C
102
}
330
C
100
AcDbDictionary
281
     1
  0
DICTIONARY
  5
1A
102
{ACAD_REACTORS
330
C
102
}
330
C
100
AcDbDictionary
281
     1
  3
Layout1
350
1E
  3
Layout2
350
26
  3
Model
350
22
  0
DICTIONARY
  5
AA
102
{ACAD_REACTORS
330
C
102
}
330
C
100
AcDbDictionary
281
     1
  3
ByBlock
350
B3
  3
ByLayer
350
AB
  3
Global
350
BB
  0
DICTIONARY
  5
F1
102
{ACAD_REACTORS
330
C
102
}
330
C
100
AcDbDictionary
281
     1
  3
Standard
350
F2
  0
DICTIONARY
  5
17
102
{ACAD_REACTORS
330
C
102
}
330
C
100
AcDbDictionary
281
     1
  3
Standard
350
18
  0
DICTIONARY
  5
19
102
{ACAD_REACTORS
330
C
102
}
330
C
100
AcDbDictionary
281
     1
  0
ACDBDICTIONARYWDFLT
  5
E
102
{ACAD_REACTORS
330
C
102
}
330
C
100
AcDbDictionary
281
     1
  3
ByLayer
350
2D
  3
Normal
350
F
100
AcDbDictionaryWithDefault
340
F
  0
DICTIONARY
  5
DF
102
{ACAD_REACTORS
330
C
102
}
330
C
100
AcDbDictionary
281
     1
  3
A0
350
E0
  3
A1
350
E1
  3
A2
350
E2
  3
A3
350
E3
  3
A4
350
E4
  3
A5
350
E5
  3
A6
350
E6
  3
A7
350
E7
  3
A8
350
E8
  3
A9
350
E9
  3
B0
350
EA
  3
B1
350
EB
  3
B2
350
EC
  3
B3
350
ED
  3
B4
350
EE
  3
B5
350
EF
  3
B6
350
F0
  0
DICTIONARY
  5
F3
102
{ACAD_REACTORS
330
C
102
}
330
C
100
AcDbDictionary
281
     1
  3
Imperial24
350
F4
  0
DICTIONARY
  5
DD
102
{ACAD_REACTORS
330
C
102
}
330
C
100
AcDbDictionary
281
     1
  3
Standard
350
DE
  0
DICTIONARY
  5
C3
102
{ACAD_REACTORS
330
C
102
}
330
C
100
AcDbDictionary
281
     1
  3
2dWireframe
350
C9
  3
Basic
350
C8
  3
Brighten
350
CF
  3
ColorChange
350
D3
  3
Conceptual
350
CC
  3
Dim
350
CE
  3
EdgeColorOff
350
DB
  3
Facepattern
350
D2
  3
Flat
350
C4
  3
FlatWithEdges
350
C5
  3
Gouraud
350
C6
  3
GouraudWithEdges
350
C7
  3
Hidden
350
CB
  3
JitterOff
350
D9
  3
Linepattern
350
D1
  3
OverhangOff
350
DA
  3
Realistic
350
CD
  3
Shaded
350
D8
  3
Shaded with edges
350
D7
  3
Shades of Gray
350
D4
  3
Sketchy
350
D5
  3
Thicken
350
D0
  3
Wireframe
350
CA
  3
X-Ray
350
D6
  0
XRECORD
  5
315
102
{ACAD_REACTORS
330
C
102
}
330
C
100
AcDbXrecord
280
     1
 90
        1
330
DE
  0
DICTIONARY
  5
309
102
{ACAD_REACTORS
330
C
102
}
330
C
100
AcDbDictionary
281
     1
  3
CANNOSCALE
350
30F
  3
CMLEADERSTYLE
350
30B
  3
CTABLESTYLE
350
30A
  3
CVIEWDETAILSTYLE
350
30C
  3
CVIEWSECTIONSTYLE
350
30D
  3
LAYEREVAL
350
311
  3
LAYERNOTIFY
350
312
  3
LIGHTINGUNITS
350
310
  3
MSLTSCALE
350
30E
  0
ACDBDETAILVIEWSTYLE
  5
F6
102
{ACAD_XDICTIONARY
360
34A
102
}
102
{ACAD_REACTORS
330
F5
102
}
330
F5
100
AcDbModelDocViewStyle
 70
     0
  3
Imperial24
290
     0
100
AcDbDetailViewStyle
 70
     0
 71
     0
 90
        3
 71
     1
340
11
 62
   256
 40
0.24
340
0
 62
   256
 40
0.24
300

 40
0.36
280
     3
 71
     2
340
16
 90
       25
 62
   256
 71
     3
340
11
 62
   256
 40
0.24
 90
        1
 40
0.75
 90
        1
300
%<\AcVar ViewType \f "%tc1">% %<\AcVar ViewDetailId>%\PSCALE %<\AcVar ViewScale \f "%sn">%
 71
     4
340
16
 90
       25
 62
   256
340
16
 90
       25
 62
   256
280
     0
  0
LAYOUT
  5
1E
102
{ACAD_REACTORS
330
1A
102
}
330
1A
100
AcDbPlotSettings
  1

  2
\\KTXNTBDC\CASF2PN1
  4

  6

 40
0.0
 41
0.0
 42
0.0
 43
0.0
 44
0.0
 45
0.0
 46
0.0
 47
0.0
 48
0.0
 49
0.0
140
0.0
141
0.0
142
1.0
143
1.0
 70
   688
 72
     0
 73
     0
 74
     5
  7

 75
    16
147
1.0
 76
     0
 77
     2
 78
   300
148
0.0
149
0.0
100
AcDbLayout
  1
Layout1
 70
     1
 71
     1
 10
0.0
 20
0.0
 11
12.0
 21
9.0
 12
0.0
 22
0.0
 32
0.0
 14
1.000000000000000E+20
 24
1.000000000000000E+20
 34
1.000000000000000E+20
 15
-1.000000000000000E+20
 25
-1.000000000000000E+20
 35
-1.000000000000000E+20
146
0.0
 13
0.0
 23
0.0
 33
0.0
 16
1.0
 26
0.0
 36
0.0
 17
0.0
 27
1.0
 37
0.0
 76
     0
330
1B
  0
LAYOUT
  5
26
102
{ACAD_REACTORS
330
1A
102
}
330
1A
100
AcDbPlotSettings
  1

  2
\\KTXNTBDC\CASF2PN1
  4

  6

 40
0.0
 41
0.0
 42
0.0
 43
0.0
 44
0.0
 45
0.0
 46
0.0
 47
0.0
 48
0.0
 49
0.0
140
0.0
141
0.0
142
1.0
143
1.0
 70
   688
 72
     0
 73
     0
 74
     5
  7

 75
    16
147
1.0
 76
     0
 77
     2
 78
   300
148
0.0
149
0.0
100
AcDbLayout
  1
Layout2
 70
     1
 71
     2
 10
0.0
 20
0.0
 11
12.0
 21
9.0
 12
0.0
 22
0.0
 32
0.0
 14
0.0
 24
0.0
 34
0.0
 15
0.0
 25
0.0
 35
0.0
146
0.0
 13
0.0
 23
0.0
 33
0.0
 16
1.0
 26
0.0
 36
0.0
 17
0.0
 27
1.0
 37
0.0
 76
     0
330
23
  0
LAYOUT
  5
22
102
{ACAD_REACTORS
330
1A
102
}
330
1A
100
AcDbPlotSettings
  1

  2
\\KTXNTBDC\CASF2PN1
  4

  6

 40
0.0
 41
0.0
 42
0.0
 43
0.0
 44
0.0
 45
0.0
 46
0.0
 47
0.0
 48
0.0
 49
0.0
140
0.0
141
0.0
142
1.0
143
1.0
 70
  1712
 72
     0
 73
     0
 74
     0
  7

 75
     0
147
1.0
 76
     0
 77
     2
 78
   300
148
0.0
149
0.0
100
AcDbLayout
  1
Model
 70
     1
 71
     0
 10
0.0
 20
0.0
 11
12.0
 21
9.0
 12
0.0
 22
0.0
 32
0.0
 14
0.0
 24
0.0
 34
0.0
 15
0.0
 25
0.0
 35
0.0
146
0.0
 13
0.0
 23
0.0
 33
0.0
 16
1.0
 26
0.0
 36
0.0
 17
0.0
 27
1.0
 37
0.0
 76
     0
330
1F
  0
MATERIAL
  5
B3
102
{ACAD_XDICTIONARY
360
B4
102
}
102
{ACAD_REACTORS
330
AA
102
}
330
AA
100
AcDbMaterial
  1
ByBlock
 72
     0
 43
0.0208333333333333
 43
0.0
 43
0.0
 43
0.0
 43
0.0
 43
0.0208333333333333
 43
0.0
 43
0.0
 43
0.0
 43
0.0
 43
1.0
 43
0.0
 43
0.0
 43
0.0
 43
0.0
 43
1.0
 77
     0
 47
0.0208333333333333
 47
0.0
 47
0.0
 47
0.0
 47
0.0
 47
0.0208333333333333
 47
0.0
 47
0.0
 47
0.0
 47
0.0
 47
1.0
 47
0.0
 47
0.0
 47
0.0
 47
0.0
 47
1.0
171
     0
 49
0.0208333333333333
 49
0.0
 49
0.0
 49
0.0
 49
0.0
 49
0.0208333333333333
 49
0.0
 49
0.0
 49
0.0
 49
0.0
 49
1.0
 49
0.0
 49
0.0
 49
0.0
 49
0.0
 49
1.0
175
     0
142
0.0208333333333333
142
0.0
142
0.0
142
0.0
142
0.0
142
0.0208333333333333
142
0.0
142
0.0
142
0.0
142
0.0
142
1.0
142
0.0
142
0.0
142
0.0
142
0.0
142
1.0
179
     0
144
0.0208333333333333
144
0.0
144
0.0
144
0.0
144
0.0
144
0.0208333333333333
144
0.0
144
0.0
144
0.0
144
0.0
144
1.0
144
0.0
144
0.0
144
0.0
144
0.0
144
1.0
147
0.0208333333333333
147
0.0
147
0.0
147
0.0
147
0.0
147
0.0208333333333333
147
0.0
147
0.0
147
0.0
147
0.0
147
1.0
147
0.0
147
0.0
147
0.0
147
0.0
147
1.0
  0
MATERIAL
  5
AB
102
{ACAD_XDICTIONARY
360
AC
102
}
102
{ACAD_REACTORS
330
AA
102
}
330
AA
100
AcDbMaterial
  1
ByLayer
 72
     0
 43
0.0208333333333333
 43
0.0
 43
0.0
 43
0.0
 43
0.0
 43
0.0208333333333333
 43
0.0
 43
0.0
 43
0.0
 43
0.0
 43
1.0
 43
0.0
 43
0.0
 43
0.0
 43
0.0
 43
1.0
 77
     0
 47
0.0208333333333333
 47
0.0
 47
0.0
 47
0.0
 47
0.0
 47
0.0208333333333333
 47
0.0
 47
0.0
 47
0.0
 47
0.0
 47
1.0
 47
0.0
 47
0.0
 47
0.0
 47
0.0
 47
1.0
171
     0
 49
0.0208333333333333
 49
0.0
 49
0.0
 49
0.0
 49
0.0
 49
0.0208333333333333
 49
0.0
 49
0.0
 49
0.0
 49
0.0
 49
1.0
 49
0.0
 49
0.0
 49
0.0
 49
0.0
 49
1.0
175
     0
142
0.0208333333333333
142
0.0
142
0.0
142
0.0
142
0.0
142
0.0208333333333333
142
0.0
142
0.0
142
0.0
142
0.0
142
1.0
142
0.0
142
0.0
142
0.0
142
0.0
142
1.0
179
     0
144
0.0208333333333333
144
0.0
144
0.0
144
0.0
144
0.0
144
0.0208333333333333
144
0.0
144
0.0
144
0.0
144
0.0
144
1.0
144
0.0
144
0.0
144
0.0
144
0.0
144
1.0
147
0.0208333333333333
147
0.0
147
0.0
147
0.0
147
0.0
147
0.0208333333333333
147
0.0
147
0.0
147
0.0
147
0.0
147
1.0
147
0.0
147
0.0
147
0.0
147
0.0
147
1.0
  0
MATERIAL
  5
BB
102
{ACAD_XDICTIONARY
360
BC
102
}
102
{ACAD_REACTORS
330
AA
102
}
330
AA
100
AcDbMaterial
  1
Global
 72
     0
 43
0.0208333333333333
 43
0.0
 43
0.0
 43
0.0
 43
0.0
 43
0.0208333333333333
 43
0.0
 43
0.0
 43
0.0
 43
0.0
 43
1.0
 43
0.0
 43
0.0
 43
0.0
 43
0.0
 43
1.0
 77
     0
 47
0.0208333333333333
 47
0.0
 47
0.0
 47
0.0
 47
0.0
 47
0.0208333333333333
 47
0.0
 47
0.0
 47
0.0
 47
0.0
 47
1.0
 47
0.0
 47
0.0
 47
0.0
 47
0.0
 47
1.0
171
     0
 49
0.0208333333333333
 49
0.0
 49
0.0
 49
0.0
 49
0.0
 49
0.0208333333333333
 49
0.0
 49
0.0
 49
0.0
 49
0.0
 49
1.0
 49
0.0
 49
0.0
 49
0.0
 49
0.0
 49
1.0
175
     0
142
0.0208333333333333
142
0.0
142
0.0
142
0.0
142
0.0
142
0.0208333333333333
142
0.0
142
0.0
142
0.0
142
0.0
142
1.0
142
0.0
142
0.0
142
0.0
142
0.0
142
1.0
179
     0
144
0.0208333333333333
144
0.0
144
0.0
144
0.0
144
0.0
144
0.0208333333333333
144
0.0
144
0.0
144
0.0
144
0.0
144
1.0
144
0.0
144
0.0
144
0.0
144
0.0
144
1.0
147
0.0208333333333333
147
0.0
147
0.0
147
0.0
147
0.0
147
0.0208333333333333
147
0.0
147
0.0
147
0.0
147
0.0
147
1.0
147
0.0
147
0.0
147
0.0
147
0.0
147
1.0
  0
MLEADERSTYLE
  5
F2
102
{ACAD_XDICTIONARY
360
346
102
}
102
{ACAD_REACTORS
330
F1
102
}
330
F1
100
AcDbMLeaderStyle
179
     2
170
     2
171
     1
172
     0
 90
        2
 40
0.0
 41
0.0
173
     1
 91
-1056964608
340
14
 92
       -2
290
     1
 42
0.09
291
     1
 43
0.36
  3
Standard
 44
0.18
300

342
11
174
     1
178
     6
175
     1
176
     0
 93
-1056964608
 45
0.18
292
     0
297
     0
 46
0.18
 94
-1056964608
 47
1.0
 49
1.0
140
1.0
293
     1
141
0.0
294
     1
177
     0
142
1.0
295
     0
296
     0
143
0.125
271
     0
272
     9
273
     9
  0
MLINESTYLE
  5
18
102
{ACAD_REACTORS
330
17
102
}
330
17
100
AcDbMlineStyle
  2
STANDARD
 70
     0
  3

 62
   256
 51
90.0
 52
90.0
 71
     2
 49
0.5
 62
   256
  6
BYLAYER
 49
-0.5
 62
   256
  6
BYLAYER
  0
ACDBPLACEHOLDER
  5
2D
102
{ACAD_REACTORS
330
E
102
}
330
E
  0
ACDBPLACEHOLDER
  5
F
102
{ACAD_REACTORS
330
E
102
}
330
E
  0
SCALE
  5
E0
102
{ACAD_REACTORS
330
DF
102
}
330
DF
100
AcDbScale
 70
     0
300
1:1
140
1.0
141
1.0
290
     1
  0
SCALE
  5
E1
102
{ACAD_REACTORS
330
DF
102
}
330
DF
100
AcDbScale
 70
     0
300
1/128" = 1'-0"
140
0.0078125
141
12.0
290
     0
  0
SCALE
  5
E2
102
{ACAD_REACTORS
330
DF
102
}
330
DF
100
AcDbScale
 70
     0
300
1/64" = 1'-0"
140
0.015625
141
12.0
290
     0
  0
SCALE
  5
E3
102
{ACAD_REACTORS
330
DF
102
}
330
DF
100
AcDbScale
 70
     0
300
1/32" = 1'-0"
140
0.03125
141
12.0
290
     0
  0
SCALE
  5
E4
102
{ACAD_REACTORS
330
DF
102
}
330
DF
100
AcDbScale
 70
     0
300
1/16" = 1'-0"
140
0.0625
141
12.0
290
     0
  0
SCALE
  5
E5
102
{ACAD_REACTORS
330
DF
102
}
330
DF
100
AcDbScale
 70
     0
300
3/32" = 1'-0"
140
0.09375
141
12.0
290
     0
  0
SCALE
  5
E6
102
{ACAD_REACTORS
330
DF
102
}
330
DF
100
AcDbScale
 70
     0
300
1/8" = 1'-0"
140
0.125
141
12.0
290
     0
  0
SCALE
  5
E7
102
{ACAD_REACTORS
330
DF
102
}
330
DF
100
AcDbScale
 70
     0
300
3/16" = 1'-0"
140
0.1875
141
12.0
290
     0
  0
SCALE
  5
E8
102
{ACAD_REACTORS
330
DF
102
}
330
DF
100
AcDbScale
 70
     0
300
1/4" = 1'-0"
140
0.25
141
12.0
290
     0
  0
SCALE
  5
E9
102
{ACAD_REACTORS
330
DF
102
}
330
DF
100
AcDbScale
 70
     0
300
3/8" = 1'-0"
140
0.375
141
12.0
290
     0
  0
SCALE
  5
EA
102
{ACAD_REACTORS
330
DF
102
}
330
DF
100
AcDbScale
 70
     0
300
1/2" = 1'-0"
140
0.5
141
12.0
290
     0
  0
SCALE
  5
EB
102
{ACAD_REACTORS
330
DF
102
}
330
DF
100
AcDbScale
 70
     0
300
3/4" = 1'-0"
140
0.75
141
12.0
290
     0
  0
SCALE
  5
EC
102
{ACAD_REACTORS
330
DF
102
}
330
DF
100
AcDbScale
 70
     0
300
1" = 1'-0"
140
1.0
141
12.0
290
     0
  0
SCALE
  5
ED
102
{ACAD_REACTORS
330
DF
102
}
330
DF
100
AcDbScale
 70
     0
300
1-1/2" = 1'-0"
140
1.5
141
12.0
290
     0
  0
SCALE
  5
EE
102
{ACAD_REACTORS
330
DF
102
}
330
DF
100
AcDbScale
 70
     0
300
3" = 1'-0"
140
3.0
141
12.0
290
     0
  0
SCALE
  5
EF
102
{ACAD_REACTORS
330
DF
102
}
330
DF
100
AcDbScale
 70
     0
300
6" = 1'-0"
140
6.0
141
12.0
290
     0
  0
SCALE
  5
F0
102
{ACAD_REACTORS
330
DF
102
}
330
DF
100
AcDbScale
 70
     0
300
1'-0" = 1'-0"
140
12.0
141
12.0
290
     0
  0
ACDBSECTIONVIEWSTYLE
  5
F4
102
{ACAD_XDICTIONARY
360
348
102
}
102
{ACAD_REACTORS
330
F3
102
}
330
F3
100
AcDbModelDocViewStyle
 70
     0
  3
Imperial24
290
     0
100
AcDbSectionViewStyle
 70
     0
 71
     0
 90
       78
 71
     1
340
11
 62
   256
 40
0.24
340
0
340
0
 62
   256
 40
0.24
300
I, O, Q, S, X, Z
 40
0.48
 90
        3
 40
0.18
 90
        1
 71
     2
340
16
 90
       25
 62
   256
340
16
 90
       50
 62
   256
 40
0.24
 40
0.0
 40
0.24
 71
     3
340
11
 62
   256
 40
0.24
 90
        1
 40
0.75
 90
        1
300
%<\AcVar ViewType \f "%tc1">% %<\AcVar ViewSectionStartId>%-%<\AcVar ViewSectionEndId>%\PSCALE %<\AcVar ViewScale \f "%sn">%
 71
     4
 62
   256
 62
   257
300
ANSI31
 40
1.0
 90
        0
290
     0
290
     0
 90
        6
 40
0.0
 40
1.570796326794896
 40
0.2617993877991494
 40
1.308996938995747
 40
-0.2617993877991494
 40
1.832595714594046
  0
TABLESTYLE
  5
DE
102
{ACAD_XDICTIONARY
360
313
102
}
102
{ACAD_REACTORS
330
DD
102
}
330
DD
100
AcDbTableStyle
280
     0
  3
Standard
 70
     0
 71
     0
 40
0.06
 41
0.06
280
     0
281
     0
  7
Standard
140
0.18
170
     2
 62
     0
 63
     7
283
     0
 90
      512
 91
        0
  1

274
    -2
284
     1
 64
     0
275
    -2
285
     1
 65
     0
276
    -2
286
     1
 66
     0
277
    -2
287
     1
 67
     0
278
    -2
288
     1
 68
     0
279
    -2
289
     1
 69
     0
  7
Standard
140
0.25
170
     5
 62
     0
 63
     7
283
     0
 90
      512
 91
        0
  1

274
    -2
284
     1
 64
     0
275
    -2
285
     1
 65
     0
276
    -2
286
     1
 66
     0
277
    -2
287
     1
 67
     0
278
    -2
288
     1
 68
     0
279
    -2
289
     1
 69
     0
  7
Standard
140
0.18
170
     5
 62
     0
 63
     7
283
     0
 90
      512
 91
        0
  1

274
    -2
284
     1
 64
     0
275
    -2
285
     1
 65
     0
276
    -2
286
     1
 66
     0
277
    -2
287
     1
 67
     0
278
    -2
288
     1
 68
     0
279
    -2
289
     1
 69
     0
  0
VISUALSTYLE
  5
C9
102
{ACAD_XDICTIONARY
360
320
102
}
102
{ACAD_REACTORS
330
C3
102
}
330
C3
100
AcDbVisualStyle
  2
2dWireframe
 70
     4
177
     2
291
     0
 71
     0
176
     1
 72
     2
176
     1
 73
     0
176
     1
 90
        0
176
     1
 40
0.6
176
     1
 41
30.0
176
     1
 63
     7
421
 16777215
176
     1
 74
     1
176
     1
 91
        4
176
     1
 64
     7
176
     1
 65
   257
176
     1
 75
     1
176
     1
175
     1
176
     1
 42
1.0
176
     1
 92
        0
176
     1
 66
   257
176
     1
 43
1.0
176
     1
 76
     1
176
     1
 77
     6
176
     1
 78
     2
176
     1
 67
     7
176
     1
 79
     5
176
     1
170
     0
176
     1
171
     0
176
     1
290
     0
176
     1
 93
        1
176
     1
 44
0.0
176
     1
173
     0
176
     1
1001
ACAD
1000
AcDbSavedByObjectVersion
1070
     0
  0
VISUALSTYLE
  5
C8
102
{ACAD_XDICTIONARY
360
31E
102
}
102
{ACAD_REACTORS
330
C3
102
}
330
C3
100
AcDbVisualStyle
  2
Basic
 70
     7
177
     2
291
     1
 71
     1
176
     1
 72
     0
176
     1
 73
     1
176
     1
 90
        0
176
     1
 40
0.6
176
     1
 41
30.0
176
     1
 63
     7
421
 16777215
176
     1
 74
     0
176
     1
 91
        4
176
     1
 64
     7
176
     1
 65
   257
176
     1
 75
     1
176
     1
175
     1
176
     1
 42
1.0
176
     1
 92
        8
176
     1
 66
     7
176
     1
 43
1.0
176
     1
 76
     1
176
     1
 77
     6
176
     1
 78
     2
176
     1
 67
     7
176
     1
 79
     5
176
     1
170
     0
176
     1
171
     0
176
     1
290
     0
176
     1
 93
        1
176
     1
 44
0.0
176
     1
173
     0
176
     1
1001
ACAD
1000
AcDbSavedByObjectVersion
1070
     0
  0
VISUALSTYLE
  5
CF
102
{ACAD_XDICTIONARY
360
32C
102
}
102
{ACAD_REACTORS
330
C3
102
}
330
C3
100
AcDbVisualStyle
  2
Brighten
 70
    12
177
     2
291
     1
 71
     2
176
     1
 72
     2
176
     1
 73
     0
176
     1
 90
        0
176
     1
 40
0.6
176
     1
 41
30.0
176
     1
 63
     7
421
 16777215
176
     1
 74
     1
176
     1
 91
        4
176
     1
 64
     7
176
     1
 65
   257
176
     1
 75
     1
176
     1
175
     1
176
     1
 42
1.0
176
     1
 92
        8
176
     1
 66
     7
176
     1
 43
1.0
176
     1
 76
     1
176
     1
 77
     6
176
     1
 78
     2
176
     1
 67
     7
176
     1
 79
     5
176
     1
170
     0
176
     1
171
     0
176
     1
290
     0
176
     1
 93
        1
176
     1
 44
50.0
176
     1
173
     0
176
     1
1001
ACAD
1000
AcDbSavedByObjectVersion
1070
     0
  0
VISUALSTYLE
  5
D3
102
{ACAD_XDICTIONARY
360
334
102
}
102
{ACAD_REACTORS
330
C3
102
}
330
C3
100
AcDbVisualStyle
  2
ColorChange
 70
    16
177
     2
291
     1
 71
     2
176
     1
 72
     2
176
     1
 73
     3
176
     1
 90
        0
176
     1
 40
0.6
176
     1
 41
30.0
176
     1
 63
     8
421
  8421504
176
     1
 74
     1
176
     1
 91
        4
176
     1
 64
     7
176
     1
 65
   257
176
     1
 75
     1
176
     1
175
     1
176
     1
 42
1.0
176
     1
 92
        8
176
     1
 66
     8
424
  8421504
176
     1
 43
1.0
176
     1
 76
     1
176
     1
 77
     6
176
     1
 78
     2
176
     1
 67
     7
176
     1
 79
     5
176
     1
170
     0
176
     1
171
     0
176
     1
290
     0
176
     1
 93
        1
176
     1
 44
0.0
176
     1
173
     0
176
     1
1001
ACAD
1000
AcDbSavedByObjectVersion
1070
     0
  0
VISUALSTYLE
  5
CC
102
{ACAD_XDICTIONARY
360
326
102
}
102
{ACAD_REACTORS
330
C3
102
}
330
C3
100
AcDbVisualStyle
  2
Conceptual
 70
     9
177
     2
291
     0
 71
     3
176
     1
 72
     2
176
     1
 73
     0
176
     1
 90
        0
176
     1
 40
0.6
176
     1
 41
30.0
176
     1
 63
     7
421
 16777215
176
     1
 74
     2
176
     1
 91
        2
176
     1
 64
     7
176
     1
 65
   257
176
     1
 75
     1
176
     1
175
     1
176
     1
 42
179.0
176
     1
 92
        8
176
     1
 66
     7
176
     1
 43
1.0
176
     1
 76
     1
176
     1
 77
     6
176
     1
 78
     2
176
     1
 67
     7
176
     1
 79
     3
176
     1
170
     0
176
     1
171
     0
176
     1
290
     0
176
     1
 93
        1
176
     1
 44
0.0
176
     1
173
     0
176
     1
1001
ACAD
1000
AcDbSavedByObjectVersion
1070
     0
  0
VISUALSTYLE
  5
CE
102
{ACAD_XDICTIONARY
360
32A
102
}
102
{ACAD_REACTORS
330
C3
102
}
330
C3
100
AcDbVisualStyle
  2
Dim
 70
    11
177
     2
291
     1
 71
     2
176
     1
 72
     2
176
     1
 73
     0
176
     1
 90
        0
176
     1
 40
0.6
176
     1
 41
30.0
176
     1
 63
     7
421
 16777215
176
     1
 74
     1
176
     1
 91
        4
176
     1
 64
     7
176
     1
 65
   257
176
     1
 75
     1
176
     1
175
     1
176
     1
 42
1.0
176
     1
 92
        8
176
     1
 66
     7
176
     1
 43
1.0
176
     1
 76
     1
176
     1
 77
     6
176
     1
 78
     2
176
     1
 67
     7
176
     1
 79
     5
176
     1
170
     0
176
     1
171
     0
176
     1
290
     0
176
     1
 93
        1
176
     1
 44
-50.0
176
     1
173
     0
176
     1
1001
ACAD
1000
AcDbSavedByObjectVersion
1070
     0
  0
VISUALSTYLE
  5
DB
102
{ACAD_XDICTIONARY
360
344
102
}
102
{ACAD_REACTORS
330
C3
102
}
330
C3
100
AcDbVisualStyle
  2
EdgeColorOff
 70
    22
177
     2
291
     1
 71
     2
176
     0
 72
     2
176
     0
 73
     0
176
     0
 90
        0
176
     0
 40
0.6
176
     0
 41
30.0
176
     0
 63
     7
421
 16777215
176
     0
 74
     1
176
     0
 91
        4
176
     0
 64
     7
176
     0
 65
   257
176
     0
 75
     1
176
     0
175
     1
176
     0
 42
1.0
176
     0
 92
        8
176
     2
 66
     7
176
     0
 43
1.0
176
     0
 76
     1
176
     0
 77
     6
176
     0
 78
     2
176
     0
 67
     7
176
     0
 79
     5
176
     0
170
     0
176
     0
171
     0
176
     0
290
     0
176
     0
 93
        1
176
     0
 44
0.0
176
     0
173
     0
176
     0
1001
ACAD
1000
AcDbSavedByObjectVersion
1070
     0
  0
VISUALSTYLE
  5
D2
102
{ACAD_XDICTIONARY
360
332
102
}
102
{ACAD_REACTORS
330
C3
102
}
330
C3
100
AcDbVisualStyle
  2
Facepattern
 70
    15
177
     2
291
     1
 71
     2
176
     1
 72
     2
176
     1
 73
     0
176
     1
 90
        0
176
     1
 40
0.6
176
     1
 41
30.0
176
     1
 63
     7
421
 16777215
176
     1
 74
     1
176
     1
 91
        4
176
     1
 64
     7
176
     1
 65
   257
176
     1
 75
     1
176
     1
175
     1
176
     1
 42
1.0
176
     1
 92
        8
176
     1
 66
     7
176
     1
 43
1.0
176
     1
 76
     1
176
     1
 77
     6
176
     1
 78
     2
176
     1
 67
     7
176
     1
 79
     5
176
     1
170
     0
176
     1
171
     0
176
     1
290
     0
176
     1
 93
        1
176
     1
 44
0.0
176
     1
173
     0
176
     1
1001
ACAD
1000
AcDbSavedByObjectVersion
1070
     0
  0
VISUALSTYLE
  5
C4
102
{ACAD_XDICTIONARY
360
316
102
}
102
{ACAD_REACTORS
330
C3
102
}
330
C3
100
AcDbVisualStyle
  2
Flat
 70
     0
177
     2
291
     1
 71
     2
176
     1
 72
     1
176
     1
 73
     1
176
     1
 90
        2
176
     1
 40
0.6
176
     1
 41
30.0
176
     1
 63
     7
421
 16777215
176
     1
 74
     0
176
     1
 91
        0
176
     1
 64
     7
176
     1
 65
   257
176
     1
 75
     1
176
     1
175
     1
176
     1
 42
1.0
176
     1
 92
        8
176
     1
 66
     7
176
     1
 43
1.0
176
     1
 76
     1
176
     1
 77
     6
176
     1
 78
     2
176
     1
 67
     7
176
     1
 79
     5
176
     1
170
     0
176
     1
171
     0
176
     1
290
     0
176
     1
 93
       13
176
     1
 44
0.0
176
     1
173
     0
176
     1
1001
ACAD
1000
AcDbSavedByObjectVersion
1070
     0
  0
VISUALSTYLE
  5
C5
102
{ACAD_XDICTIONARY
360
318
102
}
102
{ACAD_REACTORS
330
C3
102
}
330
C3
100
AcDbVisualStyle
  2
FlatWithEdges
 70
     1
177
     2
291
     1
 71
     2
176
     1
 72
     1
176
     1
 73
     1
176
     1
 90
        2
176
     1
 40
0.6
176
     1
 41
30.0
176
     1
 63
     7
421
 16777215
176
     1
 74
     1
176
     1
 91
        0
176
     1
 64
     7
176
     1
 65
   257
176
     1
 75
     1
176
     1
175
     1
176
     1
 42
1.0
176
     1
 92
        0
176
     1
 66
   257
176
     1
 43
1.0
176
     1
 76
     1
176
     1
 77
     6
176
     1
 78
     2
176
     1
 67
     7
176
     1
 79
     5
176
     1
170
     0
176
     1
171
     0
176
     1
290
     0
176
     1
 93
       13
176
     1
 44
0.0
176
     1
173
     0
176
     1
1001
ACAD
1000
AcDbSavedByObjectVersion
1070
     0
  0
VISUALSTYLE
  5
C6
102
{ACAD_XDICTIONARY
360
31A
102
}
102
{ACAD_REACTORS
330
C3
102
}
330
C3
100
AcDbVisualStyle
  2
Gouraud
 70
     2
177
     2
291
     1
 71
     2
176
     1
 72
     2
176
     1
 73
     1
176
     1
 90
        2
176
     1
 40
0.6
176
     1
 41
30.0
176
     1
 63
     7
421
 16777215
176
     1
 74
     0
176
     1
 91
        0
176
     1
 64
     7
176
     1
 65
   257
176
     1
 75
     1
176
     1
175
     1
176
     1
 42
1.0
176
     1
 92
        0
176
     1
 66
     7
176
     1
 43
1.0
176
     1
 76
     1
176
     1
 77
     6
176
     1
 78
     2
176
     1
 67
     7
176
     1
 79
     5
176
     1
170
     0
176
     1
171
     0
176
     1
290
     0
176
     1
 93
       13
176
     1
 44
0.0
176
     1
173
     0
176
     1
1001
ACAD
1000
AcDbSavedByObjectVersion
1070
     0
  0
VISUALSTYLE
  5
C7
102
{ACAD_XDICTIONARY
360
31C
102
}
102
{ACAD_REACTORS
330
C3
102
}
330
C3
100
AcDbVisualStyle
  2
GouraudWithEdges
 70
     3
177
     2
291
     1
 71
     2
176
     1
 72
     2
176
     1
 73
     1
176
     1
 90
        2
176
     1
 40
0.6
176
     1
 41
30.0
176
     1
 63
     7
421
 16777215
176
     1
 74
     1
176
     1
 91
        0
176
     1
 64
     7
176
     1
 65
   257
176
     1
 75
     1
176
     1
175
     1
176
     1
 42
1.0
176
     1
 92
        0
176
     1
 66
   257
176
     1
 43
1.0
176
     1
 76
     1
176
     1
 77
     6
176
     1
 78
     2
176
     1
 67
     7
176
     1
 79
     5
176
     1
170
     0
176
     1
171
     0
176
     1
290
     0
176
     1
 93
       13
176
     1
 44
0.0
176
     1
173
     0
176
     1
1001
ACAD
1000
AcDbSavedByObjectVersion
1070
     0
  0
VISUALSTYLE
  5
CB
102
{ACAD_XDICTIONARY
360
324
102
}
102
{ACAD_REACTORS
330
C3
102
}
330
C3
100
AcDbVisualStyle
  2
Hidden
 70
     6
177
     2
291
     0
 71
     1
176
     1
 72
     2
176
     1
 73
     2
176
     1
 90
        0
176
     1
 40
0.6
176
     1
 41
30.0
176
     1
 63
     7
421
 16777215
176
     1
 74
     2
176
     1
 91
        2
176
     1
 64
     7
176
     1
 65
   257
176
     1
 75
     2
176
     1
175
     1
176
     1
 42
40.0
176
     1
 92
        0
176
     1
 66
   257
176
     1
 43
1.0
176
     1
 76
     1
176
     1
 77
     6
176
     1
 78
     2
176
     1
 67
     7
176
     1
 79
     3
176
     1
170
     0
176
     1
171
     0
176
     1
290
     0
176
     1
 93
        1
176
     1
 44
0.0
176
     1
173
     0
176
     1
1001
ACAD
1000
AcDbSavedByObjectVersion
1070
     0
  0
VISUALSTYLE
  5
D9
102
{ACAD_XDICTIONARY
360
340
102
}
102
{ACAD_REACTORS
330
C3
102
}
330
C3
100
AcDbVisualStyle
  2
JitterOff
 70
    20
177
     2
291
     1
 71
     2
176
     0
 72
     2
176
     0
 73
     0
176
     0
 90
        0
176
     0
 40
0.6
176
     0
 41
30.0
176
     0
 63
     7
421
 16777215
176
     0
 74
     1
176
     0
 91
        4
176
     0
 64
     7
176
     0
 65
   257
176
     0
 75
     1
176
     0
175
     1
176
     0
 42
1.0
176
     0
 92
       10
176
     2
 66
     7
176
     0
 43
1.0
176
     0
 76
     1
176
     0
 77
     6
176
     0
 78
     2
176
     0
 67
     7
176
     0
 79
     5
176
     0
170
     0
176
     0
171
     0
176
     0
290
     0
176
     0
 93
        1
176
     0
 44
0.0
176
     0
173
     0
176
     0
1001
ACAD
1000
AcDbSavedByObjectVersion
1070
     0
  0
VISUALSTYLE
  5
D1
102
{ACAD_XDICTIONARY
360
330
102
}
102
{ACAD_REACTORS
330
C3
102
}
330
C3
100
AcDbVisualStyle
  2
Linepattern
 70
    14
177
     2
291
     1
 71
     2
176
     1
 72
     2
176
     1
 73
     0
176
     1
 90
        0
176
     1
 40
0.6
176
     1
 41
30.0
176
     1
 63
     7
421
 16777215
176
     1
 74
     1
176
     1
 91
        4
176
     1
 64
     7
176
     1
 65
   257
176
     1
 75
     7
176
     1
175
     7
176
     1
 42
1.0
176
     1
 92
        8
176
     1
 66
     7
176
     1
 43
1.0
176
     1
 76
     1
176
     1
 77
     6
176
     1
 78
     2
176
     1
 67
     7
176
     1
 79
     5
176
     1
170
     0
176
     1
171
     0
176
     1
290
     0
176
     1
 93
        1
176
     1
 44
0.0
176
     1
173
     0
176
     1
1001
ACAD
1000
AcDbSavedByObjectVersion
1070
     0
  0
VISUALSTYLE
  5
DA
102
{ACAD_XDICTIONARY
360
342
102
}
102
{ACAD_REACTORS
330
C3
102
}
330
C3
100
AcDbVisualStyle
  2
OverhangOff
 70
    21
177
     2
291
     1
 71
     2
176
     0
 72
     2
176
     0
 73
     0
176
     0
 90
        0
176
     0
 40
0.6
176
     0
 41
30.0
176
     0
 63
     7
421
 16777215
176
     0
 74
     1
176
     0
 91
        4
176
     0
 64
     7
176
     0
 65
   257
176
     0
 75
     1
176
     0
175
     1
176
     0
 42
1.0
176
     0
 92
        9
176
     2
 66
     7
176
     0
 43
1.0
176
     0
 76
     1
176
     0
 77
     6
176
     0
 78
     2
176
     0
 67
     7
176
     0
 79
     5
176
     0
170
     0
176
     0
171
     0
176
     0
290
     0
176
     0
 93
        1
176
     0
 44
0.0
176
     0
173
     0
176
     0
1001
ACAD
1000
AcDbSavedByObjectVersion
1070
     0
  0
VISUALSTYLE
  5
CD
102
{ACAD_XDICTIONARY
360
328
102
}
102
{ACAD_REACTORS
330
C3
102
}
330
C3
100
AcDbVisualStyle
  2
Realistic
 70
     8
177
     2
291
     0
 71
     2
176
     1
 72
     3
176
     1
 73
     0
176
     1
 90
        2
176
     1
 40
0.6
176
     1
 41
30.0
176
     1
 63
     7
421
 16777215
176
     1
 74
     0
176
     1
 91
        0
176
     1
 64
     7
176
     1
 65
   257
176
     1
 75
     1
176
     1
175
     1
176
     1
 42
1.0
176
     1
 92
        8
176
     1
 66
   257
176
     1
 43
1.0
176
     1
 76
     1
176
     1
 77
     6
176
     1
 78
     2
176
     1
 67
     7
176
     1
 79
     3
176
     1
170
     0
176
     1
171
     0
176
     1
290
     0
176
     1
 93
       13
176
     1
 44
0.0
176
     1
173
     0
176
     1
1001
ACAD
1000
AcDbSavedByObjectVersion
1070
     0
  0
VISUALSTYLE
  5
D8
102
{ACAD_XDICTIONARY
360
33E
102
}
102
{ACAD_REACTORS
330
C3
102
}
330
C3
100
AcDbVisualStyle
  2
Shaded
 70
    27
177
     2
291
     0
 71
     2
176
     1
 72
     2
176
     1
 73
     1
176
     1
 90
        2
176
     1
 40
0.6
176
     1
 41
30.0
176
     1
 63
     7
421
 16777215
176
     1
 74
     0
176
     1
 91
        4
176
     1
 64
     7
176
     1
 65
   257
176
     1
 75
     1
176
     1
175
     1
176
     1
 42
1.0
176
     1
 92
        8
176
     1
 66
   257
176
     1
 43
1.0
176
     1
 76
     1
176
     1
 77
     6
176
     1
 78
     2
176
     1
 67
     8
425
  7895160
176
     1
 79
     3
176
     1
170
     0
176
     1
171
     0
176
     1
290
     0
176
     1
 93
        5
176
     1
 44
0.0
176
     1
173
     0
176
     1
1001
ACAD
1000
AcDbSavedByObjectVersion
1070
     0
  0
VISUALSTYLE
  5
D7
102
{ACAD_XDICTIONARY
360
33C
102
}
102
{ACAD_REACTORS
330
C3
102
}
330
C3
100
AcDbVisualStyle
  2
Shaded with edges
 70
    26
177
     2
291
     0
 71
     2
176
     1
 72
     2
176
     1
 73
     1
176
     1
 90
        2
176
     1
 40
0.6
176
     1
 41
30.0
176
     1
 63
     7
421
 16777215
176
     1
 74
     1
176
     1
 91
        2
176
     1
 64
     7
176
     1
 65
   257
176
     1
 75
     2
176
     1
175
     1
176
     1
 42
1.0
176
     1
 92
        8
176
     1
 66
   257
176
     1
 43
1.0
176
     1
 76
     1
176
     1
 77
     6
176
     1
 78
     2
176
     1
 67
     7
176
     1
 79
     3
176
     1
170
     0
176
     1
171
     0
176
     1
290
     0
176
     1
 93
        5
176
     1
 44
0.0
176
     1
173
     0
176
     1
1001
ACAD
1000
AcDbSavedByObjectVersion
1070
     0
  0
VISUALSTYLE
  5
D4
102
{ACAD_XDICTIONARY
360
336
102
}
102
{ACAD_REACTORS
330
C3
102
}
330
C3
100
AcDbVisualStyle
  2
Shades of Gray
 70
    23
177
     2
291
     0
 71
     2
176
     1
 72
     2
176
     1
 73
     3
176
     1
 90
        0
176
     1
 40
0.6
176
     1
 41
30.0
176
     1
 63
     7
421
 16777215
176
     1
 74
     2
176
     1
 91
        2
176
     1
 64
     7
176
     1
 65
     7
176
     1
 75
     1
176
     1
175
     1
176
     1
 42
40.0
176
     1
 92
        8
176
     1
 66
     7
176
     1
 43
1.0
176
     1
 76
     1
176
     1
 77
     6
176
     1
 78
     2
176
     1
 67
     7
176
     1
 79
     3
176
     1
170
     0
176
     1
171
     0
176
     1
290
     0
176
     1
 93
        1
176
     1
 44
0.0
176
     1
173
     0
176
     1
1001
ACAD
1000
AcDbSavedByObjectVersion
1070
     0
  0
VISUALSTYLE
  5
D5
102
{ACAD_XDICTIONARY
360
338
102
}
102
{ACAD_REACTORS
330
C3
102
}
330
C3
100
AcDbVisualStyle
  2
Sketchy
 70
    24
177
     2
291
     0
 71
     1
176
     1
 72
     2
176
     1
 73
     2
176
     1
 90
        0
176
     1
 40
0.6
176
     1
 41
30.0
176
     1
 63
     7
421
 16777215
176
     1
 74
     2
176
     1
 91
        2
176
     1
 64
     7
176
     1
 65
     7
176
     1
 75
     1
176
     1
175
     1
176
     1
 42
40.0
176
     1
 92
       11
176
     1
 66
     7
176
     1
 43
1.0
176
     1
 76
     1
176
     1
 77
     6
176
     1
 78
     2
176
     1
 67
     7
176
     1
 79
     6
176
     1
170
     0
176
     1
171
     0
176
     1
290
     0
176
     1
 93
        1
176
     1
 44
0.0
176
     1
173
     0
176
     1
1001
ACAD
1000
AcDbSavedByObjectVersion
1070
     0
  0
VISUALSTYLE
  5
D0
102
{ACAD_XDICTIONARY
360
32E
102
}
102
{ACAD_REACTORS
330
C3
102
}
330
C3
100
AcDbVisualStyle
  2
Thicken
 70
    13
177
     2
291
     1
 71
     2
176
     1
 72
     2
176
     1
 73
     0
176
     1
 90
        0
176
     1
 40
0.6
176
     1
 41
30.0
176
     1
 63
     7
421
 16777215
176
     1
 74
     1
176
     1
 91
        4
176
     1
 64
     7
176
     1
 65
   257
176
     1
 75
     1
176
     1
175
     1
176
     1
 42
1.0
176
     1
 92
       12
176
     1
 66
     7
176
     1
 43
1.0
176
     1
 76
     1
176
     1
 77
     6
176
     1
 78
     2
176
     1
 67
     7
176
     1
 79
     5
176
     1
170
     0
176
     1
171
     0
176
     1
290
     0
176
     1
 93
        1
176
     1
 44
0.0
176
     1
173
     0
176
     1
1001
ACAD
1000
AcDbSavedByObjectVersion
1070
     0
  0
VISUALSTYLE
  5
CA
102
{ACAD_XDICTIONARY
360
322
102
}
102
{ACAD_REACTORS
330
C3
102
}
330
C3
100
AcDbVisualStyle
  2
Wireframe
 70
     5
177
     2
291
     0
 71
     0
176
     1
 72
     2
176
     1
 73
     0
176
     1
 90
        0
176
     1
 40
0.6
176
     1
 41
30.0
176
     1
 63
     7
421
 16777215
176
     1
 74
     1
176
     1
 91
        4
176
     1
 64
     7
176
     1
 65
   257
176
     1
 75
     1
176
     1
175
     1
176
     1
 42
1.0
176
     1
 92
        0
176
     1
 66
   257
176
     1
 43
1.0
176
     1
 76
     1
176
     1
 77
     6
176
     1
 78
     2
176
     1
 67
     7
176
     1
 79
     3
176
     1
170
     0
176
     1
171
     0
176
     1
290
     0
176
     1
 93
        1
176
     1
 44
0.0
176
     1
173
     0
176
     1
1001
ACAD
1000
AcDbSavedByObjectVersion
1070
     0
  0
VISUALSTYLE
  5
D6
102
{ACAD_XDICTIONARY
360
33A
102
}
102
{ACAD_REACTORS
330
C3
102
}
330
C3
100
AcDbVisualStyle
  2
X-Ray
 70
    25
177
     2
291
     0
 71
     2
176
     1
 72
     2
176
     1
 73
     1
176
     1
 90
        1
176
     1
 40
0.5
176
     1
 41
30.0
176
     1
 63
     7
421
 16777215
176
     1
 74
     1
176
     1
 91
        0
176
     1
 64
     7
176
     1
 65
   257
176
     1
 75
     1
176
     1
175
     1
176
     1
 42
1.0
176
     1
 92
        8
176
     1
 66
     7
176
     1
 43
1.0
176
     1
 76
     1
176
     1
 77
     6
176
     1
 78
     2
176
     1
 67
     7
176
     1
 79
     3
176
     1
170
     0
176
     1
171
     0
176
     1
290
     0
176
     1
 93
       13
176
     1
 44
0.0
176
     1
173
     0
176
     1
1001
ACAD
1000
AcDbSavedByObjectVersion
1070
     0
  0
DICTIONARYVAR
  5
30F
102
{ACAD_REACTORS
330
309
102
}
330
309
100
DictionaryVariables
280
     0
  1
1:1
  0
DICTIONARYVAR
  5
30B
102
{ACAD_REACTORS
330
309
102
}
330
309
100
DictionaryVariables
280
     0
  1
STANDARD
  0
DICTIONARYVAR
  5
30A
102
{ACAD_REACTORS
330
309
102
}
330
309
100
DictionaryVariables
280
     0
  1
STANDARD
  0
DICTIONARYVAR
  5
30C
102
{ACAD_REACTORS
330
309
102
}
330
309
100
DictionaryVariables
280
     0
  1
Imperial24
  0
DICTIONARYVAR
  5
30D
102
{ACAD_REACTORS
330
309
102
}
330
309
100
DictionaryVariables
280
     0
  1
Imperial24
  0
DICTIONARYVAR
  5
311
102
{ACAD_REACTORS
330
309
102
}
330
309
100
DictionaryVariables
280
     0
  1
1
  0
DICTIONARYVAR
  5
312
102
{ACAD_REACTORS
330
309
102
}
330
309
100
DictionaryVariables
280
     0
  1
15
  0
DICTIONARYVAR
  5
310
102
{ACAD_REACTORS
330
309
102
}
330
309
100
DictionaryVariables
280
     0
  1
0
  0
DICTIONARYVAR
  5
30E
102
{ACAD_REACTORS
330
309
102
}
330
309
100
DictionaryVariables
280
     0
  1
0
  0
DICTIONARY
  5
34A
330
F6
100
AcDbDictionary
280
     1
281
     1
  3
ACAD_XREC_ROUNDTRIP
360
34B
  0
DICTIONARY
  5
B4
330
B3
100
AcDbDictionary
280
     1
281
     1
  3
BUMPTILE
360
B6
  3
DIFFUSETILE
360
B5
  3
OPACITYTILE
360
B9
  3
REFLECTIONTILE
360
B8
  3
REFRACTIONTILE
360
BA
  3
SPECULARTILE
360
B7
  0
DICTIONARY
  5
AC
330
AB
100
AcDbDictionary
280
     1
281
     1
  3
BUMPTILE
360
AE
  3
DIFFUSETILE
360
AD
  3
OPACITYTILE
360
B1
  3
REFLECTIONTILE
360
B0
  3
REFRACTIONTILE
360
B2
  3
SPECULARTILE
360
AF
  0
DICTIONARY
  5
BC
330
BB
100
AcDbDictionary
280
     1
281
     1
  3
BUMPTILE
360
BE
  3
DIFFUSETILE
360
BD
  3
OPACITYTILE
360
C1
  3
REFLECTIONTILE
360
C0
  3
REFRACTIONTILE
360
C2
  3
SPECULARTILE
360
BF
  0
DICTIONARY
  5
346
330
F2
100
AcDbDictionary
280
     1
281
     1
  3
ACAD_XREC_ROUNDTRIP
360
347
  0
DICTIONARY
  5
348
330
F4
100
AcDbDictionary
280
     1
281
     1
  3
ACAD_XREC_ROUNDTRIP
360
349
  0
DICTIONARY
  5
313
330
DE
100
AcDbDictionary
280
     1
281
     1
  3
ACAD_ROUNDTRIP_2008_TABLESTYLE_CELLSTYLEMAP
360
314
  0
DICTIONARY
  5
320
330
C9
100
AcDbDictionary
280
     1
281
     1
  3
ACAD_XREC_ROUNDTRIP
360
321
  0
DICTIONARY
  5
31E
330
C8
100
AcDbDictionary
280
     1
281
     1
  3
ACAD_XREC_ROUNDTRIP
360
31F
  0
DICTIONARY
  5
32C
330
CF
100
AcDbDictionary
280
     1
281
     1
  3
ACAD_XREC_ROUNDTRIP
360
32D
  0
DICTIONARY
  5
334
330
D3
100
AcDbDictionary
280
     1
281
     1
  3
ACAD_XREC_ROUNDTRIP
360
335
  0
DICTIONARY
  5
326
330
CC
100
AcDbDictionary
280
     1
281
     1
  3
ACAD_XREC_ROUNDTRIP
360
327
  0
DICTIONARY
  5
32A
330
CE
100
AcDbDictionary
280
     1
281
     1
  3
ACAD_XREC_ROUNDTRIP
360
32B
  0
DICTIONARY
  5
344
330
DB
100
AcDbDictionary
280
     1
281
     1
  3
ACAD_XREC_ROUNDTRIP
360
345
  0
DICTIONARY
  5
332
330
D2
100
AcDbDictionary
280
     1
281
     1
  3
ACAD_XREC_ROUNDTRIP
360
333
  0
DICTIONARY
  5
316
330
C4
100
AcDbDictionary
280
     1
281
     1
  3
ACAD_XREC_ROUNDTRIP
360
317
  0
DICTIONARY
  5
318
330
C5
100
AcDbDictionary
280
     1
281
     1
  3
ACAD_XREC_ROUNDTRIP
360
319
  0
DICTIONARY
  5
31A
330
C6
100
AcDbDictionary
280
     1
281
     1
  3
ACAD_XREC_ROUNDTRIP
360
31B
  0
DICTIONARY
  5
31C
330
C7
100
AcDbDictionary
280
     1
281
     1
  3
ACAD_XREC_ROUNDTRIP
360
31D
  0
DICTIONARY
  5
324
330
CB
100
AcDbDictionary
280
     1
281
     1
  3
ACAD_XREC_ROUNDTRIP
360
325
  0
DICTIONARY
  5
340
330
D9
100
AcDbDictionary
280
     1
281
     1
  3
ACAD_XREC_ROUNDTRIP
360
341
  0
DICTIONARY
  5
330
330
D1
100
AcDbDictionary
280
     1
281
     1
  3
ACAD_XREC_ROUNDTRIP
360
331
  0
DICTIONARY
  5
342
330
DA
100
AcDbDictionary
280
     1
281
     1
  3
ACAD_XREC_ROUNDTRIP
360
343
  0
DICTIONARY
  5
328
330
CD
100
AcDbDictionary
280
     1
281
     1
  3
ACAD_XREC_ROUNDTRIP
360
329
  0
DICTIONARY
  5
33E
330
D8
100
AcDbDictionary
280
     1
281
     1
  3
ACAD_XREC_ROUNDTRIP
360
33F
  0
DICTIONARY
  5
33C
330
D7
100
AcDbDictionary
280
     1
281
     1
  3
ACAD_XREC_ROUNDTRIP
360
33D
  0
DICTIONARY
  5
336
330
D4
100
AcDbDictionary
280
     1
281
     1
  3
ACAD_XREC_ROUNDTRIP
360
337
  0
DICTIONARY
  5
338
330
D5
100
AcDbDictionary
280
     1
281
     1
  3
ACAD_XREC_ROUNDTRIP
360
339
  0
DICTIONARY
  5
32E
330
D0
100
AcDbDictionary
280
     1
281
     1
  3
ACAD_XREC_ROUNDTRIP
360
32F
  0
DICTIONARY
  5
322
330
CA
100
AcDbDictionary
280
     1
281
     1
  3
ACAD_XREC_ROUNDTRIP
360
323
  0
DICTIONARY
  5
33A
330
D6
100
AcDbDictionary
280
     1
281
     1
  3
ACAD_XREC_ROUNDTRIP
360
33B
  0
XRECORD
  5
34B
102
{ACAD_REACTORS
330
34A
102
}
330
34A
100
AcDbXrecord
280
     1
102
DISPLAYNAME
  1
Imperial24
102
FLAGS
 90
        0
  0
XRECORD
  5
B6
102
{ACAD_REACTORS
330
B4
102
}
330
B4
100
AcDbXrecord
280
     1
270
     1
271
     1
  0
XRECORD
  5
B5
102
{ACAD_REACTORS
330
B4
102
}
330
B4
100
AcDbXrecord
280
     1
270
     1
271
     1
  0
XRECORD
  5
B9
102
{ACAD_REACTORS
330
B4
102
}
330
B4
100
AcDbXrecord
280
     1
270
     1
271
     1
  0
XRECORD
  5
B8
102
{ACAD_REACTORS
330
B4
102
}
330
B4
100
AcDbXrecord
280
     1
270
     1
271
     1
  0
XRECORD
  5
BA
102
{ACAD_REACTORS
330
B4
102
}
330
B4
100
AcDbXrecord
280
     1
270
     1
271
     1
  0
XRECORD
  5
B7
102
{ACAD_REACTORS
330
B4
102
}
330
B4
100
AcDbXrecord
280
     1
270
     1
271
     1
  0
XRECORD
  5
AE
102
{ACAD_REACTORS
330
AC
102
}
330
AC
100
AcDbXrecord
280
     1
270
     1
271
     1
  0
XRECORD
  5
AD
102
{ACAD_REACTORS
330
AC
102
}
330
AC
100
AcDbXrecord
280
     1
270
     1
271
     1
  0
XRECORD
  5
B1
102
{ACAD_REACTORS
330
AC
102
}
330
AC
100
AcDbXrecord
280
     1
270
     1
271
     1
  0
XRECORD
  5
B0
102
{ACAD_REACTORS
330
AC
102
}
330
AC
100
AcDbXrecord
280
     1
270
     1
271
     1
  0
XRECORD
  5
B2
102
{ACAD_REACTORS
330
AC
102
}
330
AC
100
AcDbXrecord
280
     1
270
     1
271
     1
  0
XRECORD
  5
AF
102
{ACAD_REACTORS
330
AC
102
}
330
AC
100
AcDbXrecord
280
     1
270
     1
271
     1
  0
XRECORD
  5
BE
102
{ACAD_REACTORS
330
BC
102
}
330
BC
100
AcDbXrecord
280
     1
270
     1
271
     1
  0
XRECORD
  5
BD
102
{ACAD_REACTORS
330
BC
102
}
330
BC
100
AcDbXrecord
280
     1
270
     1
271
     1
  0
XRECORD
  5
C1
102
{ACAD_REACTORS
330
BC
102
}
330
BC
100
AcDbXrecord
280
     1
270
     1
271
     1
  0
XRECORD
  5
C0
102
{ACAD_REACTORS
330
BC
102
}
330
BC
100
AcDbXrecord
280
     1
270
     1
271
     1
  0
XRECORD
  5
C2
102
{ACAD_REACTORS
330
BC
102
}
330
BC
100
AcDbXrecord
280
     1
270
     1
271
     1
  0
XRECORD
  5
BF
102
{ACAD_REACTORS
330
BC
102
}
330
BC
100
AcDbXrecord
280
     1
270
     1
271
     1
  0
XRECORD
  5
347
102
{ACAD_REACTORS
330
346
102
}
330
346
100
AcDbXrecord
280
     1
102
ACAD_ROUNDTRIP_2012_MLEADER_STYLE
298
     1
  0
XRECORD
  5
349
102
{ACAD_REACTORS
330
348
102
}
330
348
100
AcDbXrecord
280
     1
102
DISPLAYNAME
  1
Imperial24
102
FLAGS
 90
        0
  0
CELLSTYLEMAP
  5
314
102
{ACAD_REACTORS
330
313
102
}
330
313
100
AcDbCellStyleMap
 90
        3
300
CELLSTYLE
  1
TABLEFORMAT_BEGIN
 90
        5
170
     1
 91
        0
 92
    32768
 62
   257
 93
        1
300
CONTENTFORMAT
  1
CONTENTFORMAT_BEGIN
 90
        0
 91
        0
 92
      512
 93
        0
300

 40
0.0
140
1.0
 94
        5
 62
     0
340
11
144
0.25
309
CONTENTFORMAT_END
171
     0
 94
        0
309
TABLEFORMAT_END
  1
CELLSTYLE_BEGIN
 90
        1
 91
        1
300
_TITLE
309
CELLSTYLE_END
300
CELLSTYLE
  1
TABLEFORMAT_BEGIN
 90
        5
170
     1
 91
        0
 92
        0
 62
   257
 93
        1
300
CONTENTFORMAT
  1
CONTENTFORMAT_BEGIN
 90
        0
 91
        0
 92
      512
 93
        0
300

 40
0.0
140
1.0
 94
        5
 62
     0
340
11
144
0.18
309
CONTENTFORMAT_END
171
     0
 94
        0
309
TABLEFORMAT_END
  1
CELLSTYLE_BEGIN
 90
        2
 91
        1
300
_HEADER
309
CELLSTYLE_END
300
CELLSTYLE
  1
TABLEFORMAT_BEGIN
 90
        5
170
     1
 91
        0
 92
        0
 62
   257
 93
        1
300
CONTENTFORMAT
  1
CONTENTFORMAT_BEGIN
 90
        0
 91
        0
 92
      512
 93
        0
300

 40
0.0
140
1.0
 94
        2
 62
     0
340
11
144
0.18
309
CONTENTFORMAT_END
171
     0
 94
        0
309
TABLEFORMAT_END
  1
CELLSTYLE_BEGIN
 90
        3
 91
        2
300
_DATA
309
CELLSTYLE_END
  0
XRECORD
  5
321
102
{ACAD_REACTORS
330
320
102
}
330
320
100
AcDbXrecord
280
     1
102
RTVSPost2010Prop28
280
     1
102
RTVSPost2010PropOp28
 70
     1
102
RTVSPost2010Prop29
280
     1
102
RTVSPost2010PropOp29
 70
     1
102
RTVSPost2010Prop30
280
     0
102
RTVSPost2010PropOp30
 70
     1
102
RTVSPost2010Prop31
280
     0
102
RTVSPost2010PropOp31
 70
     1
102
RTVSPost2010Prop32
280
     0
102
RTVSPost2010PropOp32
 70
     1
102
RTVSPost2010Prop33
280
     0
102
RTVSPost2010PropOp33
 70
     1
102
RTVSPost2010Prop34
280
     0
102
RTVSPost2010PropOp34
 70
     1
102
RTVSPost2010Prop35
280
     0
102
RTVSPost2010PropOp35
 70
     1
102
RTVSPost2010Prop36
280
     0
102
RTVSPost2010PropOp36
 70
     1
102
RTVSPost2010Prop37
 90
       50
102
RTVSPost2010PropOp37
 70
     1
102
RTVSPost2010Prop38
140
0.0
102
RTVSPost2010PropOp38
 70
     1
102
RTVSPost2010Prop39
140
1.0
102
RTVSPost2010PropOp39
 70
     1
102
RTVSPost2010Prop40
 90
        0
102
RTVSPost2010PropOp40
 70
     1
102
RTVSPost2010Prop41ColorIndex
 90
       18
102
RTVSPost2010Prop41ColorRGB
 90
        0
102
RTVSPost2010PropOp41
 70
     1
102
RTVSPost2010Prop42
 90
       50
102
RTVSPost2010PropOp42
 70
     1
102
RTVSPost2010Prop43
 90
        3
102
RTVSPost2010PropOp43
 70
     1
102
RTVSPost2010Prop44ColorIndex
 90
        5
102
RTVSPost2010Prop44ColorRGB
 90
      255
102
RTVSPost2010PropOp44
 70
     1
102
RTVSPost2010Prop45
280
     0
102
RTVSPost2010PropOp45
 70
     1
102
RTVSPost2010Prop46
 90
       50
102
RTVSPost2010PropOp46
 70
     1
102
RTVSPost2010Prop47
 90
       50
102
RTVSPost2010PropOp47
 70
     1
102
RTVSPost2010Prop48
 90
       50
102
RTVSPost2010PropOp48
 70
     1
102
RTVSPost2010Prop49
280
     0
102
RTVSPost2010PropOp49
 70
     1
102
RTVSPost2010Prop50
 90
       50
102
RTVSPost2010PropOp50
 70
     1
102
RTVSPost2010Prop51ColorIndex
 90
      256
102
RTVSPost2010Prop51ColorRGB
 90
-16777216
102
RTVSPost2010PropOp51
 70
     0
102
RTVSPost2010Prop52
140
1.0
102
RTVSPost2010PropOp52
 70
     0
102
RTVSPost2010Prop53
 90
        2
102
RTVSPost2010PropOp53
 70
     1
102
RTVSPost2010Prop54
  1
strokes_ogs.tif
102
RTVSPost2010PropOp54
 70
     1
102
RTVSPost2010Prop55
280
     0
102
RTVSPost2010PropOp55
 70
     1
102
RTVSPost2010Prop56
140
1.0
102
RTVSPost2010PropOp56
 70
     1
102
RTVSPost2010Prop57
140
1.0
102
RTVSPost2010PropOp57
 70
     1
  0
XRECORD
  5
31F
102
{ACAD_REACTORS
330
31E
102
}
330
31E
100
AcDbXrecord
280
     1
102
RTVSPost2010Prop28
280
     0
102
RTVSPost2010PropOp28
 70
     1
102
RTVSPost2010Prop29
280
     1
102
RTVSPost2010PropOp29
 70
     1
102
RTVSPost2010Prop30
280
     1
102
RTVSPost2010PropOp30
 70
     1
102
RTVSPost2010Prop31
280
     0
102
RTVSPost2010PropOp31
 70
     1
102
RTVSPost2010Prop32
280
     0
102
RTVSPost2010PropOp32
 70
     1
102
RTVSPost2010Prop33
280
     0
102
RTVSPost2010PropOp33
 70
     1
102
RTVSPost2010Prop34
280
     0
102
RTVSPost2010PropOp34
 70
     1
102
RTVSPost2010Prop35
280
     0
102
RTVSPost2010PropOp35
 70
     1
102
RTVSPost2010Prop36
280
     0
102
RTVSPost2010PropOp36
 70
     1
102
RTVSPost2010Prop37
 90
       50
102
RTVSPost2010PropOp37
 70
     1
102
RTVSPost2010Prop38
140
0.0
102
RTVSPost2010PropOp38
 70
     1
102
RTVSPost2010Prop39
140
1.0
102
RTVSPost2010PropOp39
 70
     1
102
RTVSPost2010Prop40
 90
        0
102
RTVSPost2010PropOp40
 70
     1
102
RTVSPost2010Prop41ColorIndex
 90
       18
102
RTVSPost2010Prop41ColorRGB
 90
        0
102
RTVSPost2010PropOp41
 70
     1
102
RTVSPost2010Prop42
 90
       50
102
RTVSPost2010PropOp42
 70
     1
102
RTVSPost2010Prop43
 90
        3
102
RTVSPost2010PropOp43
 70
     1
102
RTVSPost2010Prop44ColorIndex
 90
        5
102
RTVSPost2010Prop44ColorRGB
 90
      255
102
RTVSPost2010PropOp44
 70
     1
102
RTVSPost2010Prop45
280
     0
102
RTVSPost2010PropOp45
 70
     1
102
RTVSPost2010Prop46
 90
       50
102
RTVSPost2010PropOp46
 70
     1
102
RTVSPost2010Prop47
 90
       50
102
RTVSPost2010PropOp47
 70
     1
102
RTVSPost2010Prop48
 90
       50
102
RTVSPost2010PropOp48
 70
     1
102
RTVSPost2010Prop49
280
     0
102
RTVSPost2010PropOp49
 70
     1
102
RTVSPost2010Prop50
 90
       50
102
RTVSPost2010PropOp50
 70
     1
102
RTVSPost2010Prop51ColorIndex
 90
      256
102
RTVSPost2010Prop51ColorRGB
 90
-16777216
102
RTVSPost2010PropOp51
 70
     0
102
RTVSPost2010Prop52
140
1.0
102
RTVSPost2010PropOp52
 70
     0
102
RTVSPost2010Prop53
 90
        2
102
RTVSPost2010PropOp53
 70
     1
102
RTVSPost2010Prop54
  1
strokes_ogs.tif
102
RTVSPost2010PropOp54
 70
     1
102
RTVSPost2010Prop55
280
     0
102
RTVSPost2010PropOp55
 70
     1
102
RTVSPost2010Prop56
140
1.0
102
RTVSPost2010PropOp56
 70
     1
102
RTVSPost2010Prop57
140
1.0
102
RTVSPost2010PropOp57
 70
     1
  0
XRECORD
  5
32D
102
{ACAD_REACTORS
330
32C
102
}
330
32C
100
AcDbXrecord
280
     1
102
RTVSPost2010Prop28
280
     0
102
RTVSPost2010PropOp28
 70
     1
102
RTVSPost2010Prop29
280
     1
102
RTVSPost2010PropOp29
 70
     1
102
RTVSPost2010Prop30
280
     1
102
RTVSPost2010PropOp30
 70
     1
102
RTVSPost2010Prop31
280
     0
102
RTVSPost2010PropOp31
 70
     1
102
RTVSPost2010Prop32
280
     0
102
RTVSPost2010PropOp32
 70
     1
102
RTVSPost2010Prop33
280
     0
102
RTVSPost2010PropOp33
 70
     1
102
RTVSPost2010Prop34
280
     0
102
RTVSPost2010PropOp34
 70
     1
102
RTVSPost2010Prop35
280
     0
102
RTVSPost2010PropOp35
 70
     1
102
RTVSPost2010Prop36
280
     0
102
RTVSPost2010PropOp36
 70
     1
102
RTVSPost2010Prop37
 90
       50
102
RTVSPost2010PropOp37
 70
     1
102
RTVSPost2010Prop38
140
0.0
102
RTVSPost2010PropOp38
 70
     1
102
RTVSPost2010Prop39
140
1.0
102
RTVSPost2010PropOp39
 70
     1
102
RTVSPost2010Prop40
 90
        0
102
RTVSPost2010PropOp40
 70
     1
102
RTVSPost2010Prop41ColorIndex
 90
       18
102
RTVSPost2010Prop41ColorRGB
 90
        0
102
RTVSPost2010PropOp41
 70
     1
102
RTVSPost2010Prop42
 90
       50
102
RTVSPost2010PropOp42
 70
     1
102
RTVSPost2010Prop43
 90
        3
102
RTVSPost2010PropOp43
 70
     1
102
RTVSPost2010Prop44ColorIndex
 90
        5
102
RTVSPost2010Prop44ColorRGB
 90
      255
102
RTVSPost2010PropOp44
 70
     1
102
RTVSPost2010Prop45
280
     0
102
RTVSPost2010PropOp45
 70
     1
102
RTVSPost2010Prop46
 90
       50
102
RTVSPost2010PropOp46
 70
     1
102
RTVSPost2010Prop47
 90
       50
102
RTVSPost2010PropOp47
 70
     1
102
RTVSPost2010Prop48
 90
       50
102
RTVSPost2010PropOp48
 70
     1
102
RTVSPost2010Prop49
280
     0
102
RTVSPost2010PropOp49
 70
     1
102
RTVSPost2010Prop50
 90
       50
102
RTVSPost2010PropOp50
 70
     1
102
RTVSPost2010Prop51ColorIndex
 90
      256
102
RTVSPost2010Prop51ColorRGB
 90
-16777216
102
RTVSPost2010PropOp51
 70
     0
102
RTVSPost2010Prop52
140
1.0
102
RTVSPost2010PropOp52
 70
     0
102
RTVSPost2010Prop53
 90
        2
102
RTVSPost2010PropOp53
 70
     1
102
RTVSPost2010Prop54
  1
strokes_ogs.tif
102
RTVSPost2010PropOp54
 70
     1
102
RTVSPost2010Prop55
280
     0
102
RTVSPost2010PropOp55
 70
     1
102
RTVSPost2010Prop56
140
1.0
102
RTVSPost2010PropOp56
 70
     1
102
RTVSPost2010Prop57
140
1.0
102
RTVSPost2010PropOp57
 70
     1
  0
XRECORD
  5
335
102
{ACAD_REACTORS
330
334
102
}
330
334
100
AcDbXrecord
280
     1
102
RTVSPost2010Prop28
280
     0
102
RTVSPost2010PropOp28
 70
     1
102
RTVSPost2010Prop29
280
     1
102
RTVSPost2010PropOp29
 70
     1
102
RTVSPost2010Prop30
280
     1
102
RTVSPost2010PropOp30
 70
     1
102
RTVSPost2010Prop31
280
     0
102
RTVSPost2010PropOp31
 70
     1
102
RTVSPost2010Prop32
280
     0
102
RTVSPost2010PropOp32
 70
     1
102
RTVSPost2010Prop33
280
     0
102
RTVSPost2010PropOp33
 70
     1
102
RTVSPost2010Prop34
280
     0
102
RTVSPost2010PropOp34
 70
     1
102
RTVSPost2010Prop35
280
     0
102
RTVSPost2010PropOp35
 70
     1
102
RTVSPost2010Prop36
280
     0
102
RTVSPost2010PropOp36
 70
     1
102
RTVSPost2010Prop37
 90
       50
102
RTVSPost2010PropOp37
 70
     1
102
RTVSPost2010Prop38
140
0.0
102
RTVSPost2010PropOp38
 70
     1
102
RTVSPost2010Prop39
140
1.0
102
RTVSPost2010PropOp39
 70
     1
102
RTVSPost2010Prop40
 90
        0
102
RTVSPost2010PropOp40
 70
     1
102
RTVSPost2010Prop41ColorIndex
 90
       18
102
RTVSPost2010Prop41ColorRGB
 90
        0
102
RTVSPost2010PropOp41
 70
     1
102
RTVSPost2010Prop42
 90
       50
102
RTVSPost2010PropOp42
 70
     1
102
RTVSPost2010Prop43
 90
        3
102
RTVSPost2010PropOp43
 70
     1
102
RTVSPost2010Prop44ColorIndex
 90
        5
102
RTVSPost2010Prop44ColorRGB
 90
      255
102
RTVSPost2010PropOp44
 70
     1
102
RTVSPost2010Prop45
280
     0
102
RTVSPost2010PropOp45
 70
     1
102
RTVSPost2010Prop46
 90
       50
102
RTVSPost2010PropOp46
 70
     1
102
RTVSPost2010Prop47
 90
       50
102
RTVSPost2010PropOp47
 70
     1
102
RTVSPost2010Prop48
 90
       50
102
RTVSPost2010PropOp48
 70
     1
102
RTVSPost2010Prop49
280
     0
102
RTVSPost2010PropOp49
 70
     1
102
RTVSPost2010Prop50
 90
       50
102
RTVSPost2010PropOp50
 70
     1
102
RTVSPost2010Prop51ColorIndex
 90
      256
102
RTVSPost2010Prop51ColorRGB
 90
-16777216
102
RTVSPost2010PropOp51
 70
     0
102
RTVSPost2010Prop52
140
1.0
102
RTVSPost2010PropOp52
 70
     0
102
RTVSPost2010Prop53
 90
        2
102
RTVSPost2010PropOp53
 70
     1
102
RTVSPost2010Prop54
  1
strokes_ogs.tif
102
RTVSPost2010PropOp54
 70
     1
102
RTVSPost2010Prop55
280
     0
102
RTVSPost2010PropOp55
 70
     1
102
RTVSPost2010Prop56
140
1.0
102
RTVSPost2010PropOp56
 70
     1
102
RTVSPost2010Prop57
140
1.0
102
RTVSPost2010PropOp57
 70
     1
  0
XRECORD
  5
327
102
{ACAD_REACTORS
330
326
102
}
330
326
100
AcDbXrecord
280
     1
102
RTVSPost2010Prop28
280
     0
102
RTVSPost2010PropOp28
 70
     1
102
RTVSPost2010Prop29
280
     1
102
RTVSPost2010PropOp29
 70
     1
102
RTVSPost2010Prop30
280
     1
102
RTVSPost2010PropOp30
 70
     1
102
RTVSPost2010Prop31
280
     0
102
RTVSPost2010PropOp31
 70
     1
102
RTVSPost2010Prop32
280
     0
102
RTVSPost2010PropOp32
 70
     1
102
RTVSPost2010Prop33
280
     0
102
RTVSPost2010PropOp33
 70
     1
102
RTVSPost2010Prop34
280
     0
102
RTVSPost2010PropOp34
 70
     1
102
RTVSPost2010Prop35
280
     0
102
RTVSPost2010PropOp35
 70
     1
102
RTVSPost2010Prop36
280
     0
102
RTVSPost2010PropOp36
 70
     1
102
RTVSPost2010Prop37
 90
       50
102
RTVSPost2010PropOp37
 70
     1
102
RTVSPost2010Prop38
140
0.0
102
RTVSPost2010PropOp38
 70
     1
102
RTVSPost2010Prop39
140
1.0
102
RTVSPost2010PropOp39
 70
     1
102
RTVSPost2010Prop40
 90
        0
102
RTVSPost2010PropOp40
 70
     1
102
RTVSPost2010Prop41ColorIndex
 90
       18
102
RTVSPost2010Prop41ColorRGB
 90
        0
102
RTVSPost2010PropOp41
 70
     1
102
RTVSPost2010Prop42
 90
       50
102
RTVSPost2010PropOp42
 70
     1
102
RTVSPost2010Prop43
 90
        3
102
RTVSPost2010PropOp43
 70
     1
102
RTVSPost2010Prop44ColorIndex
 90
        5
102
RTVSPost2010Prop44ColorRGB
 90
      255
102
RTVSPost2010PropOp44
 70
     1
102
RTVSPost2010Prop45
280
     0
102
RTVSPost2010PropOp45
 70
     1
102
RTVSPost2010Prop46
 90
       50
102
RTVSPost2010PropOp46
 70
     1
102
RTVSPost2010Prop47
 90
       50
102
RTVSPost2010PropOp47
 70
     1
102
RTVSPost2010Prop48
 90
       50
102
RTVSPost2010PropOp48
 70
     1
102
RTVSPost2010Prop49
280
     0
102
RTVSPost2010PropOp49
 70
     1
102
RTVSPost2010Prop50
 90
       50
102
RTVSPost2010PropOp50
 70
     1
102
RTVSPost2010Prop51ColorIndex
 90
      256
102
RTVSPost2010Prop51ColorRGB
 90
-16777216
102
RTVSPost2010PropOp51
 70
     0
102
RTVSPost2010Prop52
140
1.0
102
RTVSPost2010PropOp52
 70
     0
102
RTVSPost2010Prop53
 90
        2
102
RTVSPost2010PropOp53
 70
     1
102
RTVSPost2010Prop54
  1
strokes_ogs.tif
102
RTVSPost2010PropOp54
 70
     1
102
RTVSPost2010Prop55
280
     0
102
RTVSPost2010PropOp55
 70
     1
102
RTVSPost2010Prop56
140
1.0
102
RTVSPost2010PropOp56
 70
     1
102
RTVSPost2010Prop57
140
1.0
102
RTVSPost2010PropOp57
 70
     1
  0
XRECORD
  5
32B
102
{ACAD_REACTORS
330
32A
102
}
330
32A
100
AcDbXrecord
280
     1
102
RTVSPost2010Prop28
280
     0
102
RTVSPost2010PropOp28
 70
     1
102
RTVSPost2010Prop29
280
     1
102
RTVSPost2010PropOp29
 70
     1
102
RTVSPost2010Prop30
280
     1
102
RTVSPost2010PropOp30
 70
     1
102
RTVSPost2010Prop31
280
     0
102
RTVSPost2010PropOp31
 70
     1
102
RTVSPost2010Prop32
280
     0
102
RTVSPost2010PropOp32
 70
     1
102
RTVSPost2010Prop33
280
     0
102
RTVSPost2010PropOp33
 70
     1
102
RTVSPost2010Prop34
280
     0
102
RTVSPost2010PropOp34
 70
     1
102
RTVSPost2010Prop35
280
     0
102
RTVSPost2010PropOp35
 70
     1
102
RTVSPost2010Prop36
280
     0
102
RTVSPost2010PropOp36
 70
     1
102
RTVSPost2010Prop37
 90
       50
102
RTVSPost2010PropOp37
 70
     1
102
RTVSPost2010Prop38
140
0.0
102
RTVSPost2010PropOp38
 70
     1
102
RTVSPost2010Prop39
140
1.0
102
RTVSPost2010PropOp39
 70
     1
102
RTVSPost2010Prop40
 90
        0
102
RTVSPost2010PropOp40
 70
     1
102
RTVSPost2010Prop41ColorIndex
 90
       18
102
RTVSPost2010Prop41ColorRGB
 90
        0
102
RTVSPost2010PropOp41
 70
     1
102
RTVSPost2010Prop42
 90
       50
102
RTVSPost2010PropOp42
 70
     1
102
RTVSPost2010Prop43
 90
        3
102
RTVSPost2010PropOp43
 70
     1
102
RTVSPost2010Prop44ColorIndex
 90
        5
102
RTVSPost2010Prop44ColorRGB
 90
      255
102
RTVSPost2010PropOp44
 70
     1
102
RTVSPost2010Prop45
280
     0
102
RTVSPost2010PropOp45
 70
     1
102
RTVSPost2010Prop46
 90
       50
102
RTVSPost2010PropOp46
 70
     1
102
RTVSPost2010Prop47
 90
       50
102
RTVSPost2010PropOp47
 70
     1
102
RTVSPost2010Prop48
 90
       50
102
RTVSPost2010PropOp48
 70
     1
102
RTVSPost2010Prop49
280
     0
102
RTVSPost2010PropOp49
 70
     1
102
RTVSPost2010Prop50
 90
       50
102
RTVSPost2010PropOp50
 70
     1
102
RTVSPost2010Prop51ColorIndex
 90
      256
102
RTVSPost2010Prop51ColorRGB
 90
-16777216
102
RTVSPost2010PropOp51
 70
     0
102
RTVSPost2010Prop52
140
1.0
102
RTVSPost2010PropOp52
 70
     0
102
RTVSPost2010Prop53
 90
        2
102
RTVSPost2010PropOp53
 70
     1
102
RTVSPost2010Prop54
  1
strokes_ogs.tif
102
RTVSPost2010PropOp54
 70
     1
102
RTVSPost2010Prop55
280
     0
102
RTVSPost2010PropOp55
 70
     1
102
RTVSPost2010Prop56
140
1.0
102
RTVSPost2010PropOp56
 70
     1
102
RTVSPost2010Prop57
140
1.0
102
RTVSPost2010PropOp57
 70
     1
  0
XRECORD
  5
345
102
{ACAD_REACTORS
330
344
102
}
330
344
100
AcDbXrecord
280
     1
102
RTVSPost2010Prop28
280
     0
102
RTVSPost2010PropOp28
 70
     0
102
RTVSPost2010Prop29
280
     1
102
RTVSPost2010PropOp29
 70
     0
102
RTVSPost2010Prop30
280
     1
102
RTVSPost2010PropOp30
 70
     0
102
RTVSPost2010Prop31
280
     0
102
RTVSPost2010PropOp31
 70
     0
102
RTVSPost2010Prop32
280
     0
102
RTVSPost2010PropOp32
 70
     0
102
RTVSPost2010Prop33
280
     0
102
RTVSPost2010PropOp33
 70
     0
102
RTVSPost2010Prop34
280
     0
102
RTVSPost2010PropOp34
 70
     0
102
RTVSPost2010Prop35
280
     0
102
RTVSPost2010PropOp35
 70
     0
102
RTVSPost2010Prop36
280
     0
102
RTVSPost2010PropOp36
 70
     0
102
RTVSPost2010Prop37
 90
       50
102
RTVSPost2010PropOp37
 70
     0
102
RTVSPost2010Prop38
140
0.0
102
RTVSPost2010PropOp38
 70
     0
102
RTVSPost2010Prop39
140
1.0
102
RTVSPost2010PropOp39
 70
     0
102
RTVSPost2010Prop40
 90
        0
102
RTVSPost2010PropOp40
 70
     0
102
RTVSPost2010Prop41ColorIndex
 90
       18
102
RTVSPost2010Prop41ColorRGB
 90
        0
102
RTVSPost2010PropOp41
 70
     0
102
RTVSPost2010Prop42
 90
       50
102
RTVSPost2010PropOp42
 70
     0
102
RTVSPost2010Prop43
 90
        3
102
RTVSPost2010PropOp43
 70
     0
102
RTVSPost2010Prop44ColorIndex
 90
        5
102
RTVSPost2010Prop44ColorRGB
 90
      255
102
RTVSPost2010PropOp44
 70
     0
102
RTVSPost2010Prop45
280
     0
102
RTVSPost2010PropOp45
 70
     0
102
RTVSPost2010Prop46
 90
       50
102
RTVSPost2010PropOp46
 70
     0
102
RTVSPost2010Prop47
 90
       50
102
RTVSPost2010PropOp47
 70
     0
102
RTVSPost2010Prop48
 90
       50
102
RTVSPost2010PropOp48
 70
     0
102
RTVSPost2010Prop49
280
     0
102
RTVSPost2010PropOp49
 70
     0
102
RTVSPost2010Prop50
 90
       50
102
RTVSPost2010PropOp50
 70
     0
102
RTVSPost2010Prop51ColorIndex
 90
      256
102
RTVSPost2010Prop51ColorRGB
 90
-16777216
102
RTVSPost2010PropOp51
 70
     0
102
RTVSPost2010Prop52
140
1.0
102
RTVSPost2010PropOp52
 70
     0
102
RTVSPost2010Prop53
 90
        2
102
RTVSPost2010PropOp53
 70
     0
102
RTVSPost2010Prop54
  1
strokes_ogs.tif
102
RTVSPost2010PropOp54
 70
     0
102
RTVSPost2010Prop55
280
     0
102
RTVSPost2010PropOp55
 70
     0
102
RTVSPost2010Prop56
140
1.0
102
RTVSPost2010PropOp56
 70
     0
102
RTVSPost2010Prop57
140
1.0
102
RTVSPost2010PropOp57
 70
     0
  0
XRECORD
  5
333
102
{ACAD_REACTORS
330
332
102
}
330
332
100
AcDbXrecord
280
     1
102
RTVSPost2010Prop28
280
     0
102
RTVSPost2010PropOp28
 70
     1
102
RTVSPost2010Prop29
280
     1
102
RTVSPost2010PropOp29
 70
     1
102
RTVSPost2010Prop30
280
     1
102
RTVSPost2010PropOp30
 70
     1
102
RTVSPost2010Prop31
280
     0
102
RTVSPost2010PropOp31
 70
     1
102
RTVSPost2010Prop32
280
     0
102
RTVSPost2010PropOp32
 70
     1
102
RTVSPost2010Prop33
280
     0
102
RTVSPost2010PropOp33
 70
     1
102
RTVSPost2010Prop34
280
     0
102
RTVSPost2010PropOp34
 70
     1
102
RTVSPost2010Prop35
280
     0
102
RTVSPost2010PropOp35
 70
     1
102
RTVSPost2010Prop36
280
     0
102
RTVSPost2010PropOp36
 70
     1
102
RTVSPost2010Prop37
 90
       50
102
RTVSPost2010PropOp37
 70
     1
102
RTVSPost2010Prop38
140
0.0
102
RTVSPost2010PropOp38
 70
     1
102
RTVSPost2010Prop39
140
1.0
102
RTVSPost2010PropOp39
 70
     1
102
RTVSPost2010Prop40
 90
        0
102
RTVSPost2010PropOp40
 70
     1
102
RTVSPost2010Prop41ColorIndex
 90
       18
102
RTVSPost2010Prop41ColorRGB
 90
        0
102
RTVSPost2010PropOp41
 70
     1
102
RTVSPost2010Prop42
 90
       50
102
RTVSPost2010PropOp42
 70
     1
102
RTVSPost2010Prop43
 90
        3
102
RTVSPost2010PropOp43
 70
     1
102
RTVSPost2010Prop44ColorIndex
 90
        5
102
RTVSPost2010Prop44ColorRGB
 90
      255
102
RTVSPost2010PropOp44
 70
     1
102
RTVSPost2010Prop45
280
     0
102
RTVSPost2010PropOp45
 70
     1
102
RTVSPost2010Prop46
 90
       50
102
RTVSPost2010PropOp46
 70
     1
102
RTVSPost2010Prop47
 90
       50
102
RTVSPost2010PropOp47
 70
     1
102
RTVSPost2010Prop48
 90
       50
102
RTVSPost2010PropOp48
 70
     1
102
RTVSPost2010Prop49
280
     0
102
RTVSPost2010PropOp49
 70
     1
102
RTVSPost2010Prop50
 90
       50
102
RTVSPost2010PropOp50
 70
     1
102
RTVSPost2010Prop51ColorIndex
 90
      256
102
RTVSPost2010Prop51ColorRGB
 90
-16777216
102
RTVSPost2010PropOp51
 70
     0
102
RTVSPost2010Prop52
140
1.0
102
RTVSPost2010PropOp52
 70
     0
102
RTVSPost2010Prop53
 90
        2
102
RTVSPost2010PropOp53
 70
     1
102
RTVSPost2010Prop54
  1
strokes_ogs.tif
102
RTVSPost2010PropOp54
 70
     1
102
RTVSPost2010Prop55
280
     0
102
RTVSPost2010PropOp55
 70
     1
102
RTVSPost2010Prop56
140
1.0
102
RTVSPost2010PropOp56
 70
     1
102
RTVSPost2010Prop57
140
1.0
102
RTVSPost2010PropOp57
 70
     1
  0
XRECORD
  5
317
102
{ACAD_REACTORS
330
316
102
}
330
316
100
AcDbXrecord
280
     1
102
RTVSPost2010Prop28
280
     0
102
RTVSPost2010PropOp28
 70
     1
102
RTVSPost2010Prop29
280
     1
102
RTVSPost2010PropOp29
 70
     1
102
RTVSPost2010Prop30
280
     1
102
RTVSPost2010PropOp30
 70
     1
102
RTVSPost2010Prop31
280
     0
102
RTVSPost2010PropOp31
 70
     1
102
RTVSPost2010Prop32
280
     0
102
RTVSPost2010PropOp32
 70
     1
102
RTVSPost2010Prop33
280
     0
102
RTVSPost2010PropOp33
 70
     1
102
RTVSPost2010Prop34
280
     0
102
RTVSPost2010PropOp34
 70
     1
102
RTVSPost2010Prop35
280
     0
102
RTVSPost2010PropOp35
 70
     1
102
RTVSPost2010Prop36
280
     0
102
RTVSPost2010PropOp36
 70
     1
102
RTVSPost2010Prop37
 90
       50
102
RTVSPost2010PropOp37
 70
     1
102
RTVSPost2010Prop38
140
0.0
102
RTVSPost2010PropOp38
 70
     1
102
RTVSPost2010Prop39
140
1.0
102
RTVSPost2010PropOp39
 70
     1
102
RTVSPost2010Prop40
 90
        0
102
RTVSPost2010PropOp40
 70
     1
102
RTVSPost2010Prop41ColorIndex
 90
       18
102
RTVSPost2010Prop41ColorRGB
 90
        0
102
RTVSPost2010PropOp41
 70
     1
102
RTVSPost2010Prop42
 90
       50
102
RTVSPost2010PropOp42
 70
     1
102
RTVSPost2010Prop43
 90
        3
102
RTVSPost2010PropOp43
 70
     1
102
RTVSPost2010Prop44ColorIndex
 90
        5
102
RTVSPost2010Prop44ColorRGB
 90
      255
102
RTVSPost2010PropOp44
 70
     1
102
RTVSPost2010Prop45
280
     0
102
RTVSPost2010PropOp45
 70
     1
102
RTVSPost2010Prop46
 90
       50
102
RTVSPost2010PropOp46
 70
     1
102
RTVSPost2010Prop47
 90
       50
102
RTVSPost2010PropOp47
 70
     1
102
RTVSPost2010Prop48
 90
       50
102
RTVSPost2010PropOp48
 70
     1
102
RTVSPost2010Prop49
280
     0
102
RTVSPost2010PropOp49
 70
     1
102
RTVSPost2010Prop50
 90
       50
102
RTVSPost2010PropOp50
 70
     1
102
RTVSPost2010Prop51ColorIndex
 90
      256
102
RTVSPost2010Prop51ColorRGB
 90
-16777216
102
RTVSPost2010PropOp51
 70
     0
102
RTVSPost2010Prop52
140
1.0
102
RTVSPost2010PropOp52
 70
     0
102
RTVSPost2010Prop53
 90
        2
102
RTVSPost2010PropOp53
 70
     1
102
RTVSPost2010Prop54
  1
strokes_ogs.tif
102
RTVSPost2010PropOp54
 70
     1
102
RTVSPost2010Prop55
280
     0
102
RTVSPost2010PropOp55
 70
     1
102
RTVSPost2010Prop56
140
1.0
102
RTVSPost2010PropOp56
 70
     1
102
RTVSPost2010Prop57
140
1.0
102
RTVSPost2010PropOp57
 70
     1
  0
XRECORD
  5
319
102
{ACAD_REACTORS
330
318
102
}
330
318
100
AcDbXrecord
280
     1
102
RTVSPost2010Prop28
280
     0
102
RTVSPost2010PropOp28
 70
     1
102
RTVSPost2010Prop29
280
     1
102
RTVSPost2010PropOp29
 70
     1
102
RTVSPost2010Prop30
280
     1
102
RTVSPost2010PropOp30
 70
     1
102
RTVSPost2010Prop31
280
     0
102
RTVSPost2010PropOp31
 70
     1
102
RTVSPost2010Prop32
280
     0
102
RTVSPost2010PropOp32
 70
     1
102
RTVSPost2010Prop33
280
     0
102
RTVSPost2010PropOp33
 70
     1
102
RTVSPost2010Prop34
280
     0
102
RTVSPost2010PropOp34
 70
     1
102
RTVSPost2010Prop35
280
     0
102
RTVSPost2010PropOp35
 70
     1
102
RTVSPost2010Prop36
280
     0
102
RTVSPost2010PropOp36
 70
     1
102
RTVSPost2010Prop37
 90
       50
102
RTVSPost2010PropOp37
 70
     1
102
RTVSPost2010Prop38
140
0.0
102
RTVSPost2010PropOp38
 70
     1
102
RTVSPost2010Prop39
140
1.0
102
RTVSPost2010PropOp39
 70
     1
102
RTVSPost2010Prop40
 90
        0
102
RTVSPost2010PropOp40
 70
     1
102
RTVSPost2010Prop41ColorIndex
 90
       18
102
RTVSPost2010Prop41ColorRGB
 90
        0
102
RTVSPost2010PropOp41
 70
     1
102
RTVSPost2010Prop42
 90
       50
102
RTVSPost2010PropOp42
 70
     1
102
RTVSPost2010Prop43
 90
        3
102
RTVSPost2010PropOp43
 70
     1
102
RTVSPost2010Prop44ColorIndex
 90
        5
102
RTVSPost2010Prop44ColorRGB
 90
      255
102
RTVSPost2010PropOp44
 70
     1
102
RTVSPost2010Prop45
280
     0
102
RTVSPost2010PropOp45
 70
     1
102
RTVSPost2010Prop46
 90
       50
102
RTVSPost2010PropOp46
 70
     1
102
RTVSPost2010Prop47
 90
       50
102
RTVSPost2010PropOp47
 70
     1
102
RTVSPost2010Prop48
 90
       50
102
RTVSPost2010PropOp48
 70
     1
102
RTVSPost2010Prop49
280
     0
102
RTVSPost2010PropOp49
 70
     1
102
RTVSPost2010Prop50
 90
       50
102
RTVSPost2010PropOp50
 70
     1
102
RTVSPost2010Prop51ColorIndex
 90
      256
102
RTVSPost2010Prop51ColorRGB
 90
-16777216
102
RTVSPost2010PropOp51
 70
     0
102
RTVSPost2010Prop52
140
1.0
102
RTVSPost2010PropOp52
 70
     0
102
RTVSPost2010Prop53
 90
        2
102
RTVSPost2010PropOp53
 70
     1
102
RTVSPost2010Prop54
  1
strokes_ogs.tif
102
RTVSPost2010PropOp54
 70
     1
102
RTVSPost2010Prop55
280
     0
102
RTVSPost2010PropOp55
 70
     1
102
RTVSPost2010Prop56
140
1.0
102
RTVSPost2010PropOp56
 70
     1
102
RTVSPost2010Prop57
140
1.0
102
RTVSPost2010PropOp57
 70
     1
  0
XRECORD
  5
31B
102
{ACAD_REACTORS
330
31A
102
}
330
31A
100
AcDbXrecord
280
     1
102
RTVSPost2010Prop28
280
     0
102
RTVSPost2010PropOp28
 70
     1
102
RTVSPost2010Prop29
280
     1
102
RTVSPost2010PropOp29
 70
     1
102
RTVSPost2010Prop30
280
     1
102
RTVSPost2010PropOp30
 70
     1
102
RTVSPost2010Prop31
280
     0
102
RTVSPost2010PropOp31
 70
     1
102
RTVSPost2010Prop32
280
     0
102
RTVSPost2010PropOp32
 70
     1
102
RTVSPost2010Prop33
280
     0
102
RTVSPost2010PropOp33
 70
     1
102
RTVSPost2010Prop34
280
     0
102
RTVSPost2010PropOp34
 70
     1
102
RTVSPost2010Prop35
280
     0
102
RTVSPost2010PropOp35
 70
     1
102
RTVSPost2010Prop36
280
     0
102
RTVSPost2010PropOp36
 70
     1
102
RTVSPost2010Prop37
 90
       50
102
RTVSPost2010PropOp37
 70
     1
102
RTVSPost2010Prop38
140
0.0
102
RTVSPost2010PropOp38
 70
     1
102
RTVSPost2010Prop39
140
1.0
102
RTVSPost2010PropOp39
 70
     1
102
RTVSPost2010Prop40
 90
        0
102
RTVSPost2010PropOp40
 70
     1
102
RTVSPost2010Prop41ColorIndex
 90
       18
102
RTVSPost2010Prop41ColorRGB
 90
        0
102
RTVSPost2010PropOp41
 70
     1
102
RTVSPost2010Prop42
 90
       50
102
RTVSPost2010PropOp42
 70
     1
102
RTVSPost2010Prop43
 90
        3
102
RTVSPost2010PropOp43
 70
     1
102
RTVSPost2010Prop44ColorIndex
 90
        5
102
RTVSPost2010Prop44ColorRGB
 90
      255
102
RTVSPost2010PropOp44
 70
     1
102
RTVSPost2010Prop45
280
     0
102
RTVSPost2010PropOp45
 70
     1
102
RTVSPost2010Prop46
 90
       50
102
RTVSPost2010PropOp46
 70
     1
102
RTVSPost2010Prop47
 90
       50
102
RTVSPost2010PropOp47
 70
     1
102
RTVSPost2010Prop48
 90
       50
102
RTVSPost2010PropOp48
 70
     1
102
RTVSPost2010Prop49
280
     0
102
RTVSPost2010PropOp49
 70
     1
102
RTVSPost2010Prop50
 90
       50
102
RTVSPost2010PropOp50
 70
     1
102
RTVSPost2010Prop51ColorIndex
 90
      256
102
RTVSPost2010Prop51ColorRGB
 90
-16777216
102
RTVSPost2010PropOp51
 70
     0
102
RTVSPost2010Prop52
140
1.0
102
RTVSPost2010PropOp52
 70
     0
102
RTVSPost2010Prop53
 90
        2
102
RTVSPost2010PropOp53
 70
     1
102
RTVSPost2010Prop54
  1
strokes_ogs.tif
102
RTVSPost2010PropOp54
 70
     1
102
RTVSPost2010Prop55
280
     0
102
RTVSPost2010PropOp55
 70
     1
102
RTVSPost2010Prop56
140
1.0
102
RTVSPost2010PropOp56
 70
     1
102
RTVSPost2010Prop57
140
1.0
102
RTVSPost2010PropOp57
 70
     1
  0
XRECORD
  5
31D
102
{ACAD_REACTORS
330
31C
102
}
330
31C
100
AcDbXrecord
280
     1
102
RTVSPost2010Prop28
280
     0
102
RTVSPost2010PropOp28
 70
     1
102
RTVSPost2010Prop29
280
     1
102
RTVSPost2010PropOp29
 70
     1
102
RTVSPost2010Prop30
280
     1
102
RTVSPost2010PropOp30
 70
     1
102
RTVSPost2010Prop31
280
     0
102
RTVSPost2010PropOp31
 70
     1
102
RTVSPost2010Prop32
280
     0
102
RTVSPost2010PropOp32
 70
     1
102
RTVSPost2010Prop33
280
     0
102
RTVSPost2010PropOp33
 70
     1
102
RTVSPost2010Prop34
280
     0
102
RTVSPost2010PropOp34
 70
     1
102
RTVSPost2010Prop35
280
     0
102
RTVSPost2010PropOp35
 70
     1
102
RTVSPost2010Prop36
280
     0
102
RTVSPost2010PropOp36
 70
     1
102
RTVSPost2010Prop37
 90
       50
102
RTVSPost2010PropOp37
 70
     1
102
RTVSPost2010Prop38
140
0.0
102
RTVSPost2010PropOp38
 70
     1
102
RTVSPost2010Prop39
140
1.0
102
RTVSPost2010PropOp39
 70
     1
102
RTVSPost2010Prop40
 90
        0
102
RTVSPost2010PropOp40
 70
     1
102
RTVSPost2010Prop41ColorIndex
 90
       18
102
RTVSPost2010Prop41ColorRGB
 90
        0
102
RTVSPost2010PropOp41
 70
     1
102
RTVSPost2010Prop42
 90
       50
102
RTVSPost2010PropOp42
 70
     1
102
RTVSPost2010Prop43
 90
        3
102
RTVSPost2010PropOp43
 70
     1
102
RTVSPost2010Prop44ColorIndex
 90
        5
102
RTVSPost2010Prop44ColorRGB
 90
      255
102
RTVSPost2010PropOp44
 70
     1
102
RTVSPost2010Prop45
280
     0
102
RTVSPost2010PropOp45
 70
     1
102
RTVSPost2010Prop46
 90
       50
102
RTVSPost2010PropOp46
 70
     1
102
RTVSPost2010Prop47
 90
       50
102
RTVSPost2010PropOp47
 70
     1
102
RTVSPost2010Prop48
 90
       50
102
RTVSPost2010PropOp48
 70
     1
102
RTVSPost2010Prop49
280
     0
102
RTVSPost2010PropOp49
 70
     1
102
RTVSPost2010Prop50
 90
       50
102
RTVSPost2010PropOp50
 70
     1
102
RTVSPost2010Prop51ColorIndex
 90
      256
102
RTVSPost2010Prop51ColorRGB
 90
-16777216
102
RTVSPost2010PropOp51
 70
     0
102
RTVSPost2010Prop52
140
1.0
102
RTVSPost2010PropOp52
 70
     0
102
RTVSPost2010Prop53
 90
        2
102
RTVSPost2010PropOp53
 70
     1
102
RTVSPost2010Prop54
  1
strokes_ogs.tif
102
RTVSPost2010PropOp54
 70
     1
102
RTVSPost2010Prop55
280
     0
102
RTVSPost2010PropOp55
 70
     1
102
RTVSPost2010Prop56
140
1.0
102
RTVSPost2010PropOp56
 70
     1
102
RTVSPost2010Prop57
140
1.0
102
RTVSPost2010PropOp57
 70
     1
  0
XRECORD
  5
325
102
{ACAD_REACTORS
330
324
102
}
330
324
100
AcDbXrecord
280
     1
102
RTVSPost2010Prop28
280
     0
102
RTVSPost2010PropOp28
 70
     1
102
RTVSPost2010Prop29
280
     1
102
RTVSPost2010PropOp29
 70
     1
102
RTVSPost2010Prop30
280
     1
102
RTVSPost2010PropOp30
 70
     1
102
RTVSPost2010Prop31
280
     0
102
RTVSPost2010PropOp31
 70
     1
102
RTVSPost2010Prop32
280
     0
102
RTVSPost2010PropOp32
 70
     1
102
RTVSPost2010Prop33
280
     0
102
RTVSPost2010PropOp33
 70
     1
102
RTVSPost2010Prop34
280
     0
102
RTVSPost2010PropOp34
 70
     1
102
RTVSPost2010Prop35
280
     0
102
RTVSPost2010PropOp35
 70
     1
102
RTVSPost2010Prop36
280
     0
102
RTVSPost2010PropOp36
 70
     1
102
RTVSPost2010Prop37
 90
       50
102
RTVSPost2010PropOp37
 70
     1
102
RTVSPost2010Prop38
140
0.0
102
RTVSPost2010PropOp38
 70
     1
102
RTVSPost2010Prop39
140
1.0
102
RTVSPost2010PropOp39
 70
     1
102
RTVSPost2010Prop40
 90
        0
102
RTVSPost2010PropOp40
 70
     1
102
RTVSPost2010Prop41ColorIndex
 90
       18
102
RTVSPost2010Prop41ColorRGB
 90
        0
102
RTVSPost2010PropOp41
 70
     1
102
RTVSPost2010Prop42
 90
       50
102
RTVSPost2010PropOp42
 70
     1
102
RTVSPost2010Prop43
 90
        3
102
RTVSPost2010PropOp43
 70
     1
102
RTVSPost2010Prop44ColorIndex
 90
        5
102
RTVSPost2010Prop44ColorRGB
 90
      255
102
RTVSPost2010PropOp44
 70
     1
102
RTVSPost2010Prop45
280
     0
102
RTVSPost2010PropOp45
 70
     1
102
RTVSPost2010Prop46
 90
       50
102
RTVSPost2010PropOp46
 70
     1
102
RTVSPost2010Prop47
 90
       50
102
RTVSPost2010PropOp47
 70
     1
102
RTVSPost2010Prop48
 90
       50
102
RTVSPost2010PropOp48
 70
     1
102
RTVSPost2010Prop49
280
     0
102
RTVSPost2010PropOp49
 70
     1
102
RTVSPost2010Prop50
 90
       50
102
RTVSPost2010PropOp50
 70
     1
102
RTVSPost2010Prop51ColorIndex
 90
      256
102
RTVSPost2010Prop51ColorRGB
 90
-16777216
102
RTVSPost2010PropOp51
 70
     0
102
RTVSPost2010Prop52
140
1.0
102
RTVSPost2010PropOp52
 70
     0
102
RTVSPost2010Prop53
 90
        2
102
RTVSPost2010PropOp53
 70
     1
102
RTVSPost2010Prop54
  1
strokes_ogs.tif
102
RTVSPost2010PropOp54
 70
     1
102
RTVSPost2010Prop55
280
     0
102
RTVSPost2010PropOp55
 70
     1
102
RTVSPost2010Prop56
140
1.0
102
RTVSPost2010PropOp56
 70
     1
102
RTVSPost2010Prop57
140
1.0
102
RTVSPost2010PropOp57
 70
     1
  0
XRECORD
  5
341
102
{ACAD_REACTORS
330
340
102
}
330
340
100
AcDbXrecord
280
     1
102
RTVSPost2010Prop28
280
     0
102
RTVSPost2010PropOp28
 70
     0
102
RTVSPost2010Prop29
280
     1
102
RTVSPost2010PropOp29
 70
     0
102
RTVSPost2010Prop30
280
     1
102
RTVSPost2010PropOp30
 70
     0
102
RTVSPost2010Prop31
280
     0
102
RTVSPost2010PropOp31
 70
     0
102
RTVSPost2010Prop32
280
     0
102
RTVSPost2010PropOp32
 70
     0
102
RTVSPost2010Prop33
280
     0
102
RTVSPost2010PropOp33
 70
     0
102
RTVSPost2010Prop34
280
     0
102
RTVSPost2010PropOp34
 70
     0
102
RTVSPost2010Prop35
280
     0
102
RTVSPost2010PropOp35
 70
     0
102
RTVSPost2010Prop36
280
     0
102
RTVSPost2010PropOp36
 70
     0
102
RTVSPost2010Prop37
 90
       50
102
RTVSPost2010PropOp37
 70
     0
102
RTVSPost2010Prop38
140
0.0
102
RTVSPost2010PropOp38
 70
     0
102
RTVSPost2010Prop39
140
1.0
102
RTVSPost2010PropOp39
 70
     0
102
RTVSPost2010Prop40
 90
        0
102
RTVSPost2010PropOp40
 70
     0
102
RTVSPost2010Prop41ColorIndex
 90
       18
102
RTVSPost2010Prop41ColorRGB
 90
        0
102
RTVSPost2010PropOp41
 70
     0
102
RTVSPost2010Prop42
 90
       50
102
RTVSPost2010PropOp42
 70
     0
102
RTVSPost2010Prop43
 90
        3
102
RTVSPost2010PropOp43
 70
     0
102
RTVSPost2010Prop44ColorIndex
 90
        5
102
RTVSPost2010Prop44ColorRGB
 90
      255
102
RTVSPost2010PropOp44
 70
     0
102
RTVSPost2010Prop45
280
     0
102
RTVSPost2010PropOp45
 70
     0
102
RTVSPost2010Prop46
 90
       50
102
RTVSPost2010PropOp46
 70
     0
102
RTVSPost2010Prop47
 90
       50
102
RTVSPost2010PropOp47
 70
     0
102
RTVSPost2010Prop48
 90
       50
102
RTVSPost2010PropOp48
 70
     0
102
RTVSPost2010Prop49
280
     0
102
RTVSPost2010PropOp49
 70
     0
102
RTVSPost2010Prop50
 90
       50
102
RTVSPost2010PropOp50
 70
     0
102
RTVSPost2010Prop51ColorIndex
 90
      256
102
RTVSPost2010Prop51ColorRGB
 90
-16777216
102
RTVSPost2010PropOp51
 70
     0
102
RTVSPost2010Prop52
140
1.0
102
RTVSPost2010PropOp52
 70
     0
102
RTVSPost2010Prop53
 90
        2
102
RTVSPost2010PropOp53
 70
     0
102
RTVSPost2010Prop54
  1
strokes_ogs.tif
102
RTVSPost2010PropOp54
 70
     0
102
RTVSPost2010Prop55
280
     0
102
RTVSPost2010PropOp55
 70
     0
102
RTVSPost2010Prop56
140
1.0
102
RTVSPost2010PropOp56
 70
     0
102
RTVSPost2010Prop57
140
1.0
102
RTVSPost2010PropOp57
 70
     0
  0
XRECORD
  5
331
102
{ACAD_REACTORS
330
330
102
}
330
330
100
AcDbXrecord
280
     1
102
RTVSPost2010Prop28
280
     0
102
RTVSPost2010PropOp28
 70
     1
102
RTVSPost2010Prop29
280
     1
102
RTVSPost2010PropOp29
 70
     1
102
RTVSPost2010Prop30
280
     1
102
RTVSPost2010PropOp30
 70
     1
102
RTVSPost2010Prop31
280
     0
102
RTVSPost2010PropOp31
 70
     1
102
RTVSPost2010Prop32
280
     0
102
RTVSPost2010PropOp32
 70
     1
102
RTVSPost2010Prop33
280
     0
102
RTVSPost2010PropOp33
 70
     1
102
RTVSPost2010Prop34
280
     0
102
RTVSPost2010PropOp34
 70
     1
102
RTVSPost2010Prop35
280
     0
102
RTVSPost2010PropOp35
 70
     1
102
RTVSPost2010Prop36
280
     0
102
RTVSPost2010PropOp36
 70
     1
102
RTVSPost2010Prop37
 90
       50
102
RTVSPost2010PropOp37
 70
     1
102
RTVSPost2010Prop38
140
0.0
102
RTVSPost2010PropOp38
 70
     1
102
RTVSPost2010Prop39
140
1.0
102
RTVSPost2010PropOp39
 70
     1
102
RTVSPost2010Prop40
 90
        0
102
RTVSPost2010PropOp40
 70
     1
102
RTVSPost2010Prop41ColorIndex
 90
       18
102
RTVSPost2010Prop41ColorRGB
 90
        0
102
RTVSPost2010PropOp41
 70
     1
102
RTVSPost2010Prop42
 90
       50
102
RTVSPost2010PropOp42
 70
     1
102
RTVSPost2010Prop43
 90
        3
102
RTVSPost2010PropOp43
 70
     1
102
RTVSPost2010Prop44ColorIndex
 90
        5
102
RTVSPost2010Prop44ColorRGB
 90
      255
102
RTVSPost2010PropOp44
 70
     1
102
RTVSPost2010Prop45
280
     0
102
RTVSPost2010PropOp45
 70
     1
102
RTVSPost2010Prop46
 90
       50
102
RTVSPost2010PropOp46
 70
     1
102
RTVSPost2010Prop47
 90
       50
102
RTVSPost2010PropOp47
 70
     1
102
RTVSPost2010Prop48
 90
       50
102
RTVSPost2010PropOp48
 70
     1
102
RTVSPost2010Prop49
280
     0
102
RTVSPost2010PropOp49
 70
     1
102
RTVSPost2010Prop50
 90
       50
102
RTVSPost2010PropOp50
 70
     1
102
RTVSPost2010Prop51ColorIndex
 90
      256
102
RTVSPost2010Prop51ColorRGB
 90
-16777216
102
RTVSPost2010PropOp51
 70
     0
102
RTVSPost2010Prop52
140
1.0
102
RTVSPost2010PropOp52
 70
     0
102
RTVSPost2010Prop53
 90
        2
102
RTVSPost2010PropOp53
 70
     1
102
RTVSPost2010Prop54
  1
strokes_ogs.tif
102
RTVSPost2010PropOp54
 70
     1
102
RTVSPost2010Prop55
280
     0
102
RTVSPost2010PropOp55
 70
     1
102
RTVSPost2010Prop56
140
1.0
102
RTVSPost2010PropOp56
 70
     1
102
RTVSPost2010Prop57
140
1.0
102
RTVSPost2010PropOp57
 70
     1
  0
XRECORD
  5
343
102
{ACAD_REACTORS
330
342
102
}
330
342
100
AcDbXrecord
280
     1
102
RTVSPost2010Prop28
280
     0
102
RTVSPost2010PropOp28
 70
     0
102
RTVSPost2010Prop29
280
     1
102
RTVSPost2010PropOp29
 70
     0
102
RTVSPost2010Prop30
280
     1
102
RTVSPost2010PropOp30
 70
     0
102
RTVSPost2010Prop31
280
     0
102
RTVSPost2010PropOp31
 70
     0
102
RTVSPost2010Prop32
280
     0
102
RTVSPost2010PropOp32
 70
     0
102
RTVSPost2010Prop33
280
     0
102
RTVSPost2010PropOp33
 70
     0
102
RTVSPost2010Prop34
280
     0
102
RTVSPost2010PropOp34
 70
     0
102
RTVSPost2010Prop35
280
     0
102
RTVSPost2010PropOp35
 70
     0
102
RTVSPost2010Prop36
280
     0
102
RTVSPost2010PropOp36
 70
     0
102
RTVSPost2010Prop37
 90
       50
102
RTVSPost2010PropOp37
 70
     0
102
RTVSPost2010Prop38
140
0.0
102
RTVSPost2010PropOp38
 70
     0
102
RTVSPost2010Prop39
140
1.0
102
RTVSPost2010PropOp39
 70
     0
102
RTVSPost2010Prop40
 90
        0
102
RTVSPost2010PropOp40
 70
     0
102
RTVSPost2010Prop41ColorIndex
 90
       18
102
RTVSPost2010Prop41ColorRGB
 90
        0
102
RTVSPost2010PropOp41
 70
     0
102
RTVSPost2010Prop42
 90
       50
102
RTVSPost2010PropOp42
 70
     0
102
RTVSPost2010Prop43
 90
        3
102
RTVSPost2010PropOp43
 70
     0
102
RTVSPost2010Prop44ColorIndex
 90
        5
102
RTVSPost2010Prop44ColorRGB
 90
      255
102
RTVSPost2010PropOp44
 70
     0
102
RTVSPost2010Prop45
280
     0
102
RTVSPost2010PropOp45
 70
     0
102
RTVSPost2010Prop46
 90
       50
102
RTVSPost2010PropOp46
 70
     0
102
RTVSPost2010Prop47
 90
       50
102
RTVSPost2010PropOp47
 70
     0
102
RTVSPost2010Prop48
 90
       50
102
RTVSPost2010PropOp48
 70
     0
102
RTVSPost2010Prop49
280
     0
102
RTVSPost2010PropOp49
 70
     0
102
RTVSPost2010Prop50
 90
       50
102
RTVSPost2010PropOp50
 70
     0
102
RTVSPost2010Prop51ColorIndex
 90
      256
102
RTVSPost2010Prop51ColorRGB
 90
-16777216
102
RTVSPost2010PropOp51
 70
     0
102
RTVSPost2010Prop52
140
1.0
102
RTVSPost2010PropOp52
 70
     0
102
RTVSPost2010Prop53
 90
        2
102
RTVSPost2010PropOp53
 70
     0
102
RTVSPost2010Prop54
  1
strokes_ogs.tif
102
RTVSPost2010PropOp54
 70
     0
102
RTVSPost2010Prop55
280
     0
102
RTVSPost2010PropOp55
 70
     0
102
RTVSPost2010Prop56
140
1.0
102
RTVSPost2010PropOp56
 70
     0
102
RTVSPost2010Prop57
140
1.0
102
RTVSPost2010PropOp57
 70
     0
  0
XRECORD
  5
329
102
{ACAD_REACTORS
330
328
102
}
330
328
100
AcDbXrecord
280
     1
102
RTVSPost2010Prop28
280
     0
102
RTVSPost2010PropOp28
 70
     1
102
RTVSPost2010Prop29
280
     1
102
RTVSPost2010PropOp29
 70
     1
102
RTVSPost2010Prop30
280
     1
102
RTVSPost2010PropOp30
 70
     1
102
RTVSPost2010Prop31
280
     0
102
RTVSPost2010PropOp31
 70
     1
102
RTVSPost2010Prop32
280
     0
102
RTVSPost2010PropOp32
 70
     1
102
RTVSPost2010Prop33
280
     0
102
RTVSPost2010PropOp33
 70
     1
102
RTVSPost2010Prop34
280
     0
102
RTVSPost2010PropOp34
 70
     1
102
RTVSPost2010Prop35
280
     0
102
RTVSPost2010PropOp35
 70
     1
102
RTVSPost2010Prop36
280
     0
102
RTVSPost2010PropOp36
 70
     1
102
RTVSPost2010Prop37
 90
       50
102
RTVSPost2010PropOp37
 70
     1
102
RTVSPost2010Prop38
140
0.0
102
RTVSPost2010PropOp38
 70
     1
102
RTVSPost2010Prop39
140
1.0
102
RTVSPost2010PropOp39
 70
     1
102
RTVSPost2010Prop40
 90
        0
102
RTVSPost2010PropOp40
 70
     1
102
RTVSPost2010Prop41ColorIndex
 90
       18
102
RTVSPost2010Prop41ColorRGB
 90
        0
102
RTVSPost2010PropOp41
 70
     1
102
RTVSPost2010Prop42
 90
       50
102
RTVSPost2010PropOp42
 70
     1
102
RTVSPost2010Prop43
 90
        3
102
RTVSPost2010PropOp43
 70
     1
102
RTVSPost2010Prop44ColorIndex
 90
        5
102
RTVSPost2010Prop44ColorRGB
 90
      255
102
RTVSPost2010PropOp44
 70
     1
102
RTVSPost2010Prop45
280
     0
102
RTVSPost2010PropOp45
 70
     1
102
RTVSPost2010Prop46
 90
       50
102
RTVSPost2010PropOp46
 70
     1
102
RTVSPost2010Prop47
 90
       50
102
RTVSPost2010PropOp47
 70
     1
102
RTVSPost2010Prop48
 90
       50
102
RTVSPost2010PropOp48
 70
     1
102
RTVSPost2010Prop49
280
     0
102
RTVSPost2010PropOp49
 70
     1
102
RTVSPost2010Prop50
 90
       50
102
RTVSPost2010PropOp50
 70
     1
102
RTVSPost2010Prop51ColorIndex
 90
      256
102
RTVSPost2010Prop51ColorRGB
 90
-16777216
102
RTVSPost2010PropOp51
 70
     0
102
RTVSPost2010Prop52
140
1.0
102
RTVSPost2010PropOp52
 70
     0
102
RTVSPost2010Prop53
 90
        2
102
RTVSPost2010PropOp53
 70
     1
102
RTVSPost2010Prop54
  1
strokes_ogs.tif
102
RTVSPost2010PropOp54
 70
     1
102
RTVSPost2010Prop55
280
     0
102
RTVSPost2010PropOp55
 70
     1
102
RTVSPost2010Prop56
140
1.0
102
RTVSPost2010PropOp56
 70
     1
102
RTVSPost2010Prop57
140
1.0
102
RTVSPost2010PropOp57
 70
     1
  0
XRECORD
  5
33F
102
{ACAD_REACTORS
330
33E
102
}
330
33E
100
AcDbXrecord
280
     1
102
RTVSPost2010Prop28
280
     0
102
RTVSPost2010PropOp28
 70
     1
102
RTVSPost2010Prop29
280
     1
102
RTVSPost2010PropOp29
 70
     1
102
RTVSPost2010Prop30
280
     1
102
RTVSPost2010PropOp30
 70
     1
102
RTVSPost2010Prop31
280
     0
102
RTVSPost2010PropOp31
 70
     1
102
RTVSPost2010Prop32
280
     0
102
RTVSPost2010PropOp32
 70
     1
102
RTVSPost2010Prop33
280
     0
102
RTVSPost2010PropOp33
 70
     1
102
RTVSPost2010Prop34
280
     0
102
RTVSPost2010PropOp34
 70
     1
102
RTVSPost2010Prop35
280
     0
102
RTVSPost2010PropOp35
 70
     1
102
RTVSPost2010Prop36
280
     0
102
RTVSPost2010PropOp36
 70
     1
102
RTVSPost2010Prop37
 90
       50
102
RTVSPost2010PropOp37
 70
     1
102
RTVSPost2010Prop38
140
0.0
102
RTVSPost2010PropOp38
 70
     1
102
RTVSPost2010Prop39
140
1.0
102
RTVSPost2010PropOp39
 70
     1
102
RTVSPost2010Prop40
 90
        0
102
RTVSPost2010PropOp40
 70
     1
102
RTVSPost2010Prop41ColorIndex
 90
       18
102
RTVSPost2010Prop41ColorRGB
 90
        0
102
RTVSPost2010PropOp41
 70
     1
102
RTVSPost2010Prop42
 90
       50
102
RTVSPost2010PropOp42
 70
     1
102
RTVSPost2010Prop43
 90
        3
102
RTVSPost2010PropOp43
 70
     1
102
RTVSPost2010Prop44ColorIndex
 90
        5
102
RTVSPost2010Prop44ColorRGB
 90
      255
102
RTVSPost2010PropOp44
 70
     1
102
RTVSPost2010Prop45
280
     0
102
RTVSPost2010PropOp45
 70
     1
102
RTVSPost2010Prop46
 90
       50
102
RTVSPost2010PropOp46
 70
     1
102
RTVSPost2010Prop47
 90
       50
102
RTVSPost2010PropOp47
 70
     1
102
RTVSPost2010Prop48
 90
       50
102
RTVSPost2010PropOp48
 70
     1
102
RTVSPost2010Prop49
280
     0
102
RTVSPost2010PropOp49
 70
     1
102
RTVSPost2010Prop50
 90
       50
102
RTVSPost2010PropOp50
 70
     1
102
RTVSPost2010Prop51ColorIndex
 90
      256
102
RTVSPost2010Prop51ColorRGB
 90
-16777216
102
RTVSPost2010PropOp51
 70
     0
102
RTVSPost2010Prop52
140
1.0
102
RTVSPost2010PropOp52
 70
     0
102
RTVSPost2010Prop53
 90
        2
102
RTVSPost2010PropOp53
 70
     1
102
RTVSPost2010Prop54
  1
strokes_ogs.tif
102
RTVSPost2010PropOp54
 70
     1
102
RTVSPost2010Prop55
280
     0
102
RTVSPost2010PropOp55
 70
     1
102
RTVSPost2010Prop56
140
1.0
102
RTVSPost2010PropOp56
 70
     1
102
RTVSPost2010Prop57
140
1.0
102
RTVSPost2010PropOp57
 70
     1
  0
XRECORD
  5
33D
102
{ACAD_REACTORS
330
33C
102
}
330
33C
100
AcDbXrecord
280
     1
102
RTVSPost2010Prop28
280
     0
102
RTVSPost2010PropOp28
 70
     1
102
RTVSPost2010Prop29
280
     1
102
RTVSPost2010PropOp29
 70
     1
102
RTVSPost2010Prop30
280
     1
102
RTVSPost2010PropOp30
 70
     1
102
RTVSPost2010Prop31
280
     0
102
RTVSPost2010PropOp31
 70
     1
102
RTVSPost2010Prop32
280
     0
102
RTVSPost2010PropOp32
 70
     1
102
RTVSPost2010Prop33
280
     0
102
RTVSPost2010PropOp33
 70
     1
102
RTVSPost2010Prop34
280
     0
102
RTVSPost2010PropOp34
 70
     1
102
RTVSPost2010Prop35
280
     0
102
RTVSPost2010PropOp35
 70
     1
102
RTVSPost2010Prop36
280
     0
102
RTVSPost2010PropOp36
 70
     1
102
RTVSPost2010Prop37
 90
       50
102
RTVSPost2010PropOp37
 70
     1
102
RTVSPost2010Prop38
140
0.0
102
RTVSPost2010PropOp38
 70
     1
102
RTVSPost2010Prop39
140
1.0
102
RTVSPost2010PropOp39
 70
     1
102
RTVSPost2010Prop40
 90
        0
102
RTVSPost2010PropOp40
 70
     1
102
RTVSPost2010Prop41ColorIndex
 90
       18
102
RTVSPost2010Prop41ColorRGB
 90
        0
102
RTVSPost2010PropOp41
 70
     1
102
RTVSPost2010Prop42
 90
       50
102
RTVSPost2010PropOp42
 70
     1
102
RTVSPost2010Prop43
 90
        3
102
RTVSPost2010PropOp43
 70
     1
102
RTVSPost2010Prop44ColorIndex
 90
        5
102
RTVSPost2010Prop44ColorRGB
 90
      255
102
RTVSPost2010PropOp44
 70
     1
102
RTVSPost2010Prop45
280
     0
102
RTVSPost2010PropOp45
 70
     1
102
RTVSPost2010Prop46
 90
       50
102
RTVSPost2010PropOp46
 70
     1
102
RTVSPost2010Prop47
 90
       50
102
RTVSPost2010PropOp47
 70
     1
102
RTVSPost2010Prop48
 90
       50
102
RTVSPost2010PropOp48
 70
     1
102
RTVSPost2010Prop49
280
     0
102
RTVSPost2010PropOp49
 70
     1
102
RTVSPost2010Prop50
 90
       50
102
RTVSPost2010PropOp50
 70
     1
102
RTVSPost2010Prop51ColorIndex
 90
      256
102
RTVSPost2010Prop51ColorRGB
 90
-16777216
102
RTVSPost2010PropOp51
 70
     0
102
RTVSPost2010Prop52
140
1.0
102
RTVSPost2010PropOp52
 70
     0
102
RTVSPost2010Prop53
 90
        2
102
RTVSPost2010PropOp53
 70
     1
102
RTVSPost2010Prop54
  1
strokes_ogs.tif
102
RTVSPost2010PropOp54
 70
     1
102
RTVSPost2010Prop55
280
     0
102
RTVSPost2010PropOp55
 70
     1
102
RTVSPost2010Prop56
140
1.0
102
RTVSPost2010PropOp56
 70
     1
102
RTVSPost2010Prop57
140
1.0
102
RTVSPost2010PropOp57
 70
     1
  0
XRECORD
  5
337
102
{ACAD_REACTORS
330
336
102
}
330
336
100
AcDbXrecord
280
     1
102
RTVSPost2010Prop28
280
     0
102
RTVSPost2010PropOp28
 70
     1
102
RTVSPost2010Prop29
280
     1
102
RTVSPost2010PropOp29
 70
     1
102
RTVSPost2010Prop30
280
     1
102
RTVSPost2010PropOp30
 70
     1
102
RTVSPost2010Prop31
280
     0
102
RTVSPost2010PropOp31
 70
     1
102
RTVSPost2010Prop32
280
     0
102
RTVSPost2010PropOp32
 70
     1
102
RTVSPost2010Prop33
280
     0
102
RTVSPost2010PropOp33
 70
     1
102
RTVSPost2010Prop34
280
     0
102
RTVSPost2010PropOp34
 70
     1
102
RTVSPost2010Prop35
280
     0
102
RTVSPost2010PropOp35
 70
     1
102
RTVSPost2010Prop36
280
     0
102
RTVSPost2010PropOp36
 70
     1
102
RTVSPost2010Prop37
 90
       50
102
RTVSPost2010PropOp37
 70
     1
102
RTVSPost2010Prop38
140
0.0
102
RTVSPost2010PropOp38
 70
     1
102
RTVSPost2010Prop39
140
1.0
102
RTVSPost2010PropOp39
 70
     1
102
RTVSPost2010Prop40
 90
        0
102
RTVSPost2010PropOp40
 70
     1
102
RTVSPost2010Prop41ColorIndex
 90
       18
102
RTVSPost2010Prop41ColorRGB
 90
        0
102
RTVSPost2010PropOp41
 70
     1
102
RTVSPost2010Prop42
 90
       50
102
RTVSPost2010PropOp42
 70
     1
102
RTVSPost2010Prop43
 90
        3
102
RTVSPost2010PropOp43
 70
     1
102
RTVSPost2010Prop44ColorIndex
 90
        5
102
RTVSPost2010Prop44ColorRGB
 90
      255
102
RTVSPost2010PropOp44
 70
     1
102
RTVSPost2010Prop45
280
     0
102
RTVSPost2010PropOp45
 70
     1
102
RTVSPost2010Prop46
 90
       50
102
RTVSPost2010PropOp46
 70
     1
102
RTVSPost2010Prop47
 90
       50
102
RTVSPost2010PropOp47
 70
     1
102
RTVSPost2010Prop48
 90
       50
102
RTVSPost2010PropOp48
 70
     1
102
RTVSPost2010Prop49
280
     0
102
RTVSPost2010PropOp49
 70
     1
102
RTVSPost2010Prop50
 90
       50
102
RTVSPost2010PropOp50
 70
     1
102
RTVSPost2010Prop51ColorIndex
 90
      256
102
RTVSPost2010Prop51ColorRGB
 90
-16777216
102
RTVSPost2010PropOp51
 70
     0
102
RTVSPost2010Prop52
140
1.0
102
RTVSPost2010PropOp52
 70
     0
102
RTVSPost2010Prop53
 90
        2
102
RTVSPost2010PropOp53
 70
     1
102
RTVSPost2010Prop54
  1
strokes_ogs.tif
102
RTVSPost2010PropOp54
 70
     1
102
RTVSPost2010Prop55
280
     0
102
RTVSPost2010PropOp55
 70
     1
102
RTVSPost2010Prop56
140
1.0
102
RTVSPost2010PropOp56
 70
     1
102
RTVSPost2010Prop57
140
1.0
102
RTVSPost2010PropOp57
 70
     1
  0
XRECORD
  5
339
102
{ACAD_REACTORS
330
338
102
}
330
338
100
AcDbXrecord
280
     1
102
RTVSPost2010Prop28
280
     0
102
RTVSPost2010PropOp28
 70
     1
102
RTVSPost2010Prop29
280
     1
102
RTVSPost2010PropOp29
 70
     1
102
RTVSPost2010Prop30
280
     1
102
RTVSPost2010PropOp30
 70
     1
102
RTVSPost2010Prop31
280
     0
102
RTVSPost2010PropOp31
 70
     1
102
RTVSPost2010Prop32
280
     0
102
RTVSPost2010PropOp32
 70
     1
102
RTVSPost2010Prop33
280
     0
102
RTVSPost2010PropOp33
 70
     1
102
RTVSPost2010Prop34
280
     0
102
RTVSPost2010PropOp34
 70
     1
102
RTVSPost2010Prop35
280
     0
102
RTVSPost2010PropOp35
 70
     1
102
RTVSPost2010Prop36
280
     0
102
RTVSPost2010PropOp36
 70
     1
102
RTVSPost2010Prop37
 90
       50
102
RTVSPost2010PropOp37
 70
     1
102
RTVSPost2010Prop38
140
0.0
102
RTVSPost2010PropOp38
 70
     1
102
RTVSPost2010Prop39
140
1.0
102
RTVSPost2010PropOp39
 70
     1
102
RTVSPost2010Prop40
 90
        0
102
RTVSPost2010PropOp40
 70
     1
102
RTVSPost2010Prop41ColorIndex
 90
       18
102
RTVSPost2010Prop41ColorRGB
 90
        0
102
RTVSPost2010PropOp41
 70
     1
102
RTVSPost2010Prop42
 90
       50
102
RTVSPost2010PropOp42
 70
     1
102
RTVSPost2010Prop43
 90
        3
102
RTVSPost2010PropOp43
 70
     1
102
RTVSPost2010Prop44ColorIndex
 90
        5
102
RTVSPost2010Prop44ColorRGB
 90
      255
102
RTVSPost2010PropOp44
 70
     1
102
RTVSPost2010Prop45
280
     0
102
RTVSPost2010PropOp45
 70
     1
102
RTVSPost2010Prop46
 90
       50
102
RTVSPost2010PropOp46
 70
     1
102
RTVSPost2010Prop47
 90
       50
102
RTVSPost2010PropOp47
 70
     1
102
RTVSPost2010Prop48
 90
       50
102
RTVSPost2010PropOp48
 70
     1
102
RTVSPost2010Prop49
280
     0
102
RTVSPost2010PropOp49
 70
     1
102
RTVSPost2010Prop50
 90
       50
102
RTVSPost2010PropOp50
 70
     1
102
RTVSPost2010Prop51ColorIndex
 90
      256
102
RTVSPost2010Prop51ColorRGB
 90
-16777216
102
RTVSPost2010PropOp51
 70
     0
102
RTVSPost2010Prop52
140
1.0
102
RTVSPost2010PropOp52
 70
     0
102
RTVSPost2010Prop53
 90
        2
102
RTVSPost2010PropOp53
 70
     1
102
RTVSPost2010Prop54
  1
strokes_ogs.tif
102
RTVSPost2010PropOp54
 70
     1
102
RTVSPost2010Prop55
280
     0
102
RTVSPost2010PropOp55
 70
     1
102
RTVSPost2010Prop56
140
1.0
102
RTVSPost2010PropOp56
 70
     1
102
RTVSPost2010Prop57
140
1.0
102
RTVSPost2010PropOp57
 70
     1
  0
XRECORD
  5
32F
102
{ACAD_REACTORS
330
32E
102
}
330
32E
100
AcDbXrecord
280
     1
102
RTVSPost2010Prop28
280
     0
102
RTVSPost2010PropOp28
 70
     1
102
RTVSPost2010Prop29
280
     1
102
RTVSPost2010PropOp29
 70
     1
102
RTVSPost2010Prop30
280
     1
102
RTVSPost2010PropOp30
 70
     1
102
RTVSPost2010Prop31
280
     0
102
RTVSPost2010PropOp31
 70
     1
102
RTVSPost2010Prop32
280
     0
102
RTVSPost2010PropOp32
 70
     1
102
RTVSPost2010Prop33
280
     0
102
RTVSPost2010PropOp33
 70
     1
102
RTVSPost2010Prop34
280
     0
102
RTVSPost2010PropOp34
 70
     1
102
RTVSPost2010Prop35
280
     0
102
RTVSPost2010PropOp35
 70
     1
102
RTVSPost2010Prop36
280
     0
102
RTVSPost2010PropOp36
 70
     1
102
RTVSPost2010Prop37
 90
       50
102
RTVSPost2010PropOp37
 70
     1
102
RTVSPost2010Prop38
140
0.0
102
RTVSPost2010PropOp38
 70
     1
102
RTVSPost2010Prop39
140
1.0
102
RTVSPost2010PropOp39
 70
     1
102
RTVSPost2010Prop40
 90
        0
102
RTVSPost2010PropOp40
 70
     1
102
RTVSPost2010Prop41ColorIndex
 90
       18
102
RTVSPost2010Prop41ColorRGB
 90
        0
102
RTVSPost2010PropOp41
 70
     1
102
RTVSPost2010Prop42
 90
       50
102
RTVSPost2010PropOp42
 70
     1
102
RTVSPost2010Prop43
 90
        3
102
RTVSPost2010PropOp43
 70
     1
102
RTVSPost2010Prop44ColorIndex
 90
        5
102
RTVSPost2010Prop44ColorRGB
 90
      255
102
RTVSPost2010PropOp44
 70
     1
102
RTVSPost2010Prop45
280
     0
102
RTVSPost2010PropOp45
 70
     1
102
RTVSPost2010Prop46
 90
       50
102
RTVSPost2010PropOp46
 70
     1
102
RTVSPost2010Prop47
 90
       50
102
RTVSPost2010PropOp47
 70
     1
102
RTVSPost2010Prop48
 90
       50
102
RTVSPost2010PropOp48
 70
     1
102
RTVSPost2010Prop49
280
     0
102
RTVSPost2010PropOp49
 70
     1
102
RTVSPost2010Prop50
 90
       50
102
RTVSPost2010PropOp50
 70
     1
102
RTVSPost2010Prop51ColorIndex
 90
      256
102
RTVSPost2010Prop51ColorRGB
 90
-16777216
102
RTVSPost2010PropOp51
 70
     0
102
RTVSPost2010Prop52
140
1.0
102
RTVSPost2010PropOp52
 70
     0
102
RTVSPost2010Prop53
 90
        2
102
RTVSPost2010PropOp53
 70
     1
102
RTVSPost2010Prop54
  1
strokes_ogs.tif
102
RTVSPost2010PropOp54
 70
     1
102
RTVSPost2010Prop55
280
     0
102
RTVSPost2010PropOp55
 70
     1
102
RTVSPost2010Prop56
140
1.0
102
RTVSPost2010PropOp56
 70
     1
102
RTVSPost2010Prop57
140
1.0
102
RTVSPost2010PropOp57
 70
     1
  0
XRECORD
  5
323
102
{ACAD_REACTORS
330
322
102
}
330
322
100
AcDbXrecord
280
     1
102
RTVSPost2010Prop28
280
     0
102
RTVSPost2010PropOp28
 70
     1
102
RTVSPost2010Prop29
280
     1
102
RTVSPost2010PropOp29
 70
     1
102
RTVSPost2010Prop30
280
     1
102
RTVSPost2010PropOp30
 70
     1
102
RTVSPost2010Prop31
280
     0
102
RTVSPost2010PropOp31
 70
     1
102
RTVSPost2010Prop32
280
     0
102
RTVSPost2010PropOp32
 70
     1
102
RTVSPost2010Prop33
280
     0
102
RTVSPost2010PropOp33
 70
     1
102
RTVSPost2010Prop34
280
     0
102
RTVSPost2010PropOp34
 70
     1
102
RTVSPost2010Prop35
280
     0
102
RTVSPost2010PropOp35
 70
     1
102
RTVSPost2010Prop36
280
     0
102
RTVSPost2010PropOp36
 70
     1
102
RTVSPost2010Prop37
 90
       50
102
RTVSPost2010PropOp37
 70
     1
102
RTVSPost2010Prop38
140
0.0
102
RTVSPost2010PropOp38
 70
     1
102
RTVSPost2010Prop39
140
1.0
102
RTVSPost2010PropOp39
 70
     1
102
RTVSPost2010Prop40
 90
        0
102
RTVSPost2010PropOp40
 70
     1
102
RTVSPost2010Prop41ColorIndex
 90
       18
102
RTVSPost2010Prop41ColorRGB
 90
        0
102
RTVSPost2010PropOp41
 70
     1
102
RTVSPost2010Prop42
 90
       50
102
RTVSPost2010PropOp42
 70
     1
102
RTVSPost2010Prop43
 90
        3
102
RTVSPost2010PropOp43
 70
     1
102
RTVSPost2010Prop44ColorIndex
 90
        5
102
RTVSPost2010Prop44ColorRGB
 90
      255
102
RTVSPost2010PropOp44
 70
     1
102
RTVSPost2010Prop45
280
     0
102
RTVSPost2010PropOp45
 70
     1
102
RTVSPost2010Prop46
 90
       50
102
RTVSPost2010PropOp46
 70
     1
102
RTVSPost2010Prop47
 90
       50
102
RTVSPost2010PropOp47
 70
     1
102
RTVSPost2010Prop48
 90
       50
102
RTVSPost2010PropOp48
 70
     1
102
RTVSPost2010Prop49
280
     0
102
RTVSPost2010PropOp49
 70
     1
102
RTVSPost2010Prop50
 90
       50
102
RTVSPost2010PropOp50
 70
     1
102
RTVSPost2010Prop51ColorIndex
 90
      256
102
RTVSPost2010Prop51ColorRGB
 90
-16777216
102
RTVSPost2010PropOp51
 70
     0
102
RTVSPost2010Prop52
140
1.0
102
RTVSPost2010PropOp52
 70
     0
102
RTVSPost2010Prop53
 90
        2
102
RTVSPost2010PropOp53
 70
     1
102
RTVSPost2010Prop54
  1
strokes_ogs.tif
102
RTVSPost2010PropOp54
 70
     1
102
RTVSPost2010Prop55
280
     0
102
RTVSPost2010PropOp55
 70
     1
102
RTVSPost2010Prop56
140
1.0
102
RTVSPost2010PropOp56
 70
     1
102
RTVSPost2010Prop57
140
1.0
102
RTVSPost2010PropOp57
 70
     1
  0
XRECORD
  5
33B
102
{ACAD_REACTORS
330
33A
102
}
330
33A
100
AcDbXrecord
280
     1
102
RTVSPost2010Prop28
280
     0
102
RTVSPost2010PropOp28
 70
     1
102
RTVSPost2010Prop29
280
     1
102
RTVSPost2010PropOp29
 70
     1
102
RTVSPost2010Prop30
280
     1
102
RTVSPost2010PropOp30
 70
     1
102
RTVSPost2010Prop31
280
     0
102
RTVSPost2010PropOp31
 70
     1
102
RTVSPost2010Prop32
280
     0
102
RTVSPost2010PropOp32
 70
     1
102
RTVSPost2010Prop33
280
     0
102
RTVSPost2010PropOp33
 70
     1
102
RTVSPost2010Prop34
280
     0
102
RTVSPost2010PropOp34
 70
     1
102
RTVSPost2010Prop35
280
     0
102
RTVSPost2010PropOp35
 70
     1
102
RTVSPost2010Prop36
280
     0
102
RTVSPost2010PropOp36
 70
     1
102
RTVSPost2010Prop37
 90
       50
102
RTVSPost2010PropOp37
 70
     1
102
RTVSPost2010Prop38
140
0.0
102
RTVSPost2010PropOp38
 70
     1
102
RTVSPost2010Prop39
140
1.0
102
RTVSPost2010PropOp39
 70
     1
102
RTVSPost2010Prop40
 90
        0
102
RTVSPost2010PropOp40
 70
     1
102
RTVSPost2010Prop41ColorIndex
 90
       18
102
RTVSPost2010Prop41ColorRGB
 90
        0
102
RTVSPost2010PropOp41
 70
     1
102
RTVSPost2010Prop42
 90
       50
102
RTVSPost2010PropOp42
 70
     1
102
RTVSPost2010Prop43
 90
        3
102
RTVSPost2010PropOp43
 70
     1
102
RTVSPost2010Prop44ColorIndex
 90
        5
102
RTVSPost2010Prop44ColorRGB
 90
      255
102
RTVSPost2010PropOp44
 70
     1
102
RTVSPost2010Prop45
280
     0
102
RTVSPost2010PropOp45
 70
     1
102
RTVSPost2010Prop46
 90
       50
102
RTVSPost2010PropOp46
 70
     1
102
RTVSPost2010Prop47
 90
       50
102
RTVSPost2010PropOp47
 70
     1
102
RTVSPost2010Prop48
 90
       50
102
RTVSPost2010PropOp48
 70
     1
102
RTVSPost2010Prop49
280
     0
102
RTVSPost2010PropOp49
 70
     1
102
RTVSPost2010Prop50
 90
       50
102
RTVSPost2010PropOp50
 70
     1
102
RTVSPost2010Prop51ColorIndex
 90
      256
102
RTVSPost2010Prop51ColorRGB
 90
-16777216
102
RTVSPost2010PropOp51
 70
     0
102
RTVSPost2010Prop52
140
1.0
102
RTVSPost2010PropOp52
 70
     0
102
RTVSPost2010Prop53
 90
        2
102
RTVSPost2010PropOp53
 70
     1
102
RTVSPost2010Prop54
  1
strokes_ogs.tif
102
RTVSPost2010PropOp54
 70
     1
102
RTVSPost2010Prop55
280
     0
102
RTVSPost2010PropOp55
 70
     1
102
RTVSPost2010Prop56
140
1.0
102
RTVSPost2010PropOp56
 70
     1
102
RTVSPost2010Prop57
140
1.0
102
RTVSPost2010PropOp57
 70
     1
  0
ENDSEC
  0
EOF
