  0
SECTION
  2
HEADER
  9
$ACADVER
  1
AC1024
  9
$ACADMAINTVER
 70
   226
  9
$DWGCODEPAGE
  3
ANSI_1252
  9
$INSBASE
 10
0.0
 20
0.0
 30
0.0
  9
$EXTMIN
 10
1.000000000000000E+20
 20
1.000000000000000E+20
 30
1.000000000000000E+20
  9
$EXTMAX
 10
-1.000000000000000E+20
 20
-1.000000000000000E+20
 30
-1.000000000000000E+20
  9
$LIMMIN
 10
0.0
 20
0.0
  9
$LIMMAX
 10
12.0
 20
9.0
  9
$ORTHOMODE
 70
     0
  9
$REGENMODE
 70
     1
  9
$FILLMODE
 70
     1
  9
$QTEXTMODE
 70
     0
  9
$MIRRTEXT
 70
     1
  9
$LTSCALE
 40
1.0
  9
$ATTMODE
 70
     1
  9
$TEXTSIZE
 40
0.2
  9
$TRACEWID
 40
0.05
  9
$TEXTSTYLE
  7
Standard
  9
$CLAYER
  8
Mat. 33
  9
$CELTYPE
  6
ByLayer
  9
$CECOLOR
 62
   256
  9
$CELTSCALE
 40
1.0
  9
$DISPSILH
 70
     0
  9
$DIMSCALE
 40
1.0
  9
$DIMASZ
 40
0.18
  9
$DIMEXO
 40
0.0625
  9
$DIMDLI
 40
0.38
  9
$DIMRND
 40
0.0
  9
$DIMDLE
 40
0.0
  9
$DIMEXE
 40
0.18
  9
$DIMTP
 40
0.0
  9
$DIMTM
 40
0.0
  9
$DIMTXT
 40
0.18
  9
$DIMCEN
 40
0.09
  9
$DIMTSZ
 40
0.0
  9
$DIMTOL
 70
     0
  9
$DIMLIM
 70
     0
  9
$DIMTIH
 70
     1
  9
$DIMTOH
 70
     1
  9
$DIMSE1
 70
     0
  9
$DIMSE2
 70
     0
  9
$DIMTAD
 70
     0
  9
$DIMZIN
 70
     0
  9
$DIMBLK
  1

  9
$DIMASO
 70
     1
  9
$DIMSHO
 70
     1
  9
$DIMPOST
  1

  9
$DIMAPOST
  1

  9
$DIMALT
 70
     0
  9
$DIMALTD
 70
     2
  9
$DIMALTF
 40
25.4
  9
$DIMLFAC
 40
1.0
  9
$DIMTOFL
 70
     0
  9
$DIMTVP
 40
0.0
  9
$DIMTIX
 70
     0
  9
$DIMSOXD
 70
     0
  9
$DIMSAH
 70
     0
  9
$DIMBLK1
  1

  9
$DIMBLK2
  1

  9
$DIMSTYLE
  2
Standard
  9
$DIMCLRD
 70
     0
  9
$DIMCLRE
 70
     0
  9
$DIMCLRT
 70
     0
  9
$DIMTFAC
 40
1.0
  9
$DIMGAP
 40
0.09
  9
$DIMJUST
 70
     0
  9
$DIMSD1
 70
     0
  9
$DIMSD2
 70
     0
  9
$DIMTOLJ
 70
     1
  9
$DIMTZIN
 70
     0
  9
$DIMALTZ
 70
     0
  9
$DIMALTTZ
 70
     0
  9
$DIMUPT
 70
     0
  9
$DIMDEC
 70
     4
  9
$DIMTDEC
 70
     4
  9
$DIMALTU
 70
     2
  9
$DIMALTTD
 70
     2
  9
$DIMTXSTY
  7
Standard
  9
$DIMAUNIT
 70
     0
  9
$DIMADEC
 70
     0
  9
$DIMALTRND
 40
0.0
  9
$DIMAZIN
 70
     0
  9
$DIMDSEP
 70
    46
  9
$DIMATFIT
 70
     3
  9
$DIMFRAC
 70
     0
  9
$DIMLDRBLK
  1

  9
$DIMLUNIT
 70
     2
  9
$DIMLWD
 70
    -2
  9
$DIMLWE
 70
    -2
  9
$DIMTMOVE
 70
     0
  9
$DIMFXL
 40
1.0
  9
$DIMFXLON
 70
     0
  9
$DIMJOGANG
 40
0.7853981633974483
  9
$DIMTFILL
 70
     0
  9
$DIMTFILLCLR
 70
     0
  9
$DIMARCSYM
 70
     0
  9
$DIMLTYPE
  6

  9
$DIMLTEX1
  6

  9
$DIMLTEX2
  6

  9
$DIMTXTDIRECTION
 70
     0
  9
$LUNITS
 70
     2
  9
$LUPREC
 70
     4
  9
$SKETCHINC
 40
0.1
  9
$FILLETRAD
 40
0.5
  9
$AUNITS
 70
     0
  9
$AUPREC
 70
     0
  9
$MENU
  1
.
  9
$ELEVATION
 40
0.0
  9
$PELEVATION
 40
0.0
  9
$THICKNESS
 40
0.0
  9
$LIMCHECK
 70
     0
  9
$CHAMFERA
 40
0.5
  9
$CHAMFERB
 40
0.5
  9
$CHAMFERC
 40
1.0
  9
$CHAMFERD
 40
0.0
  9
$SKPOLY
 70
     0
  9
$TDCREATE
 40
2451380.888761574
  9
$TDUCREATE
 40
2451380.805432396
  9
$TDUPDATE
 40
2451380.924513889
  9
$TDUUPDATE
 40
2451380.841180556
  9
$TDINDWG
 40
0.0075602199
  9
$TDUSRTIMER
 40
0.0075511806
  9
$USRTIMER
 70
     1
  9
$ANGBASE
 50
0.0
  9
$ANGDIR
 70
     0
  9
$PDMODE
 70
     0
  9
$PDSIZE
 40
0.0
  9
$PLINEWID
 40
0.0
  9
$SPLFRAME
 70
     0
  9
$SPLINETYPE
 70
     6
  9
$SPLINESEGS
 70
     8
  9
$HANDSEED
  5
140
  9
$SURFTAB1
 70
     6
  9
$SURFTAB2
 70
     6
  9
$SURFTYPE
 70
     6
  9
$SURFU
 70
     6
  9
$SURFV
 70
     6
  9
$UCSBASE
  2

  9
$UCSNAME
  2

  9
$UCSORG
 10
0.0
 20
0.0
 30
0.0
  9
$UCSXDIR
 10
1.0
 20
0.0
 30
0.0
  9
$UCSYDIR
 10
0.0
 20
1.0
 30
0.0
  9
$UCSORTHOREF
  2

  9
$UCSORTHOVIEW
 70
     0
  9
$UCSORGTOP
 10
0.0
 20
0.0
 30
0.0
  9
$UCSORGBOTTOM
 10
0.0
 20
0.0
 30
0.0
  9
$UCSORGLEFT
 10
0.0
 20
0.0
 30
0.0
  9
$UCSORGRIGHT
 10
0.0
 20
0.0
 30
0.0
  9
$UCSORGFRONT
 10
0.0
 20
0.0
 30
0.0
  9
$UCSORGBACK
 10
0.0
 20
0.0
 30
0.0
  9
$PUCSBASE
  2

  9
$PUCSNAME
  2

  9
$PUCSORG
 10
0.0
 20
0.0
 30
0.0
  9
$PUCSXDIR
 10
1.0
 20
0.0
 30
0.0
  9
$PUCSYDIR
 10
0.0
 20
1.0
 30
0.0
  9
$PUCSORTHOREF
  2

  9
$PUCSORTHOVIEW
 70
     0
  9
$PUCSORGTOP
 10
0.0
 20
0.0
 30
0.0
  9
$PUCSORGBOTTOM
 10
0.0
 20
0.0
 30
0.0
  9
$PUCSORGLEFT
 10
0.0
 20
0.0
 30
0.0
  9
$PUCSORGRIGHT
 10
0.0
 20
0.0
 30
0.0
  9
$PUCSORGFRONT
 10
0.0
 20
0.0
 30
0.0
  9
$PUCSORGBACK
 10
0.0
 20
0.0
 30
0.0
  9
$USERI1
 70
     0
  9
$USERI2
 70
     0
  9
$USERI3
 70
     0
  9
$USERI4
 70
     0
  9
$USERI5
 70
     0
  9
$USERR1
 40
0.0
  9
$USERR2
 40
0.0
  9
$USERR3
 40
0.0
  9
$USERR4
 40
0.0
  9
$USERR5
 40
0.0
  9
$WORLDVIEW
 70
     1
  9
$SHADEDGE
 70
     3
  9
$SHADEDIF
 70
    70
  9
$TILEMODE
 70
     1
  9
$MAXACTVP
 70
    64
  9
$PINSBASE
 10
0.0
 20
0.0
 30
0.0
  9
$PLIMCHECK
 70
     0
  9
$PEXTMIN
 10
1.000000000000000E+20
 20
1.000000000000000E+20
 30
1.000000000000000E+20
  9
$PEXTMAX
 10
-1.000000000000000E+20
 20
-1.000000000000000E+20
 30
-1.000000000000000E+20
  9
$PLIMMIN
 10
0.0
 20
0.0
  9
$PLIMMAX
 10
12.0
 20
9.0
  9
$UNITMODE
 70
     0
  9
$VISRETAIN
 70
     1
  9
$PLINEGEN
 70
     0
  9
$PSLTSCALE
 70
     1
  9
$TREEDEPTH
 70
  3020
  9
$CMLSTYLE
  2
Standard
  9
$CMLJUST
 70
     0
  9
$CMLSCALE
 40
1.0
  9
$PROXYGRAPHICS
 70
     1
  9
$MEASUREMENT
 70
     1
  9
$CELWEIGHT
370
    -1
  9
$ENDCAPS
280
     0
  9
$JOINSTYLE
280
     0
  9
$LWDISPLAY
290
     0
  9
$INSUNITS
 70
     4
  9
$HYPERLINKBASE
  1

  9
$STYLESHEET
  1

  9
$XEDIT
290
     1
  9
$CEPSNTYPE
380
     0
  9
$PSTYLEMODE
290
     1
  9
$FINGERPRINTGUID
  2
{12F50282-3ED8-11D3-A8B7-0060B0F84BC6}
  9
$VERSIONGUID
  2
{12F50293-3ED8-11D3-A8B7-0060B0F84BC6}
  9
$EXTNAMES
290
     1
  9
$PSVPSCALE
 40
0.0
  9
$OLESTARTUP
290
     0
  9
$SORTENTS
280
   127
  9
$INDEXCTL
280
     0
  9
$HIDETEXT
280
     0
  9
$XCLIPFRAME
280
     2
  9
$HALOGAP
280
     0
  9
$OBSCOLOR
 70
   257
  9
$OBSLTYPE
280
     0
  9
$INTERSECTIONDISPLAY
280
     0
  9
$INTERSECTIONCOLOR
 70
   257
  9
$DIMASSOC
280
     1
  9
$PROJECTNAME
  1

  9
$CAMERADISPLAY
290
     0
  9
$LENSLENGTH
 40
50.0
  9
$CAMERAHEIGHT
 40
0.0
  9
$STEPSPERSEC
 40
2.0
  9
$STEPSIZE
 40
6.0
  9
$3DDWFPREC
 40
2.0
  9
$PSOLWIDTH
 40
0.25
  9
$PSOLHEIGHT
 40
4.0
  9
$LOFTANG1
 40
1.570796326794896
  9
$LOFTANG2
 40
1.570796326794896
  9
$LOFTMAG1
 40
0.0
  9
$LOFTMAG2
 40
0.0
  9
$LOFTPARAM
 70
     7
  9
$LOFTNORMALS
280
     1
  9
$LATITUDE
 40
37.795
  9
$LONGITUDE
 40
-122.394
  9
$NORTHDIRECTION
 40
0.0
  9
$TIMEZONE
 70
 -8000
  9
$LIGHTGLYPHDISPLAY
280
     1
  9
$TILEMODELIGHTSYNCH
280
     1
  9
$CMATERIAL
347
AB
  9
$SOLIDHIST
280
     0
  9
$SHOWHIST
280
     1
  9
$DWFFRAME
280
     2
  9
$DGNFRAME
280
     0
  9
$REALWORLDSCALE
290
     1
  9
$INTERFERECOLOR
 62
     1
  9
$INTERFEREOBJVS
345
CD
  9
$INTERFEREVPVS
346
CA
  9
$CSHADOW
280
     0
  9
$SHADOWPLANELOCATION
 40
0.0
  0
ENDSEC
  0
SECTION
  2
CLASSES
  0
CLASS
  1
ACDBDICTIONARYWDFLT
  2
AcDbDictionaryWithDefault
  3
ObjectDBX Classes
 90
        0
 91
        1
280
     0
281
     0
  0
CLASS
  1
ACDBPLACEHOLDER
  2
AcDbPlaceHolder
  3
ObjectDBX Classes
 90
        0
 91
        2
280
     0
281
     0
  0
CLASS
  1
LAYOUT
  2
AcDbLayout
  3
ObjectDBX Classes
 90
        0
 91
        3
280
     0
281
     0
  0
CLASS
  1
MATERIAL
  2
AcDbMaterial
  3
ObjectDBX Classes
 90
     1153
 91
        3
280
     0
281
     0
  0
CLASS
  1
VISUALSTYLE
  2
AcDbVisualStyle
  3
ObjectDBX Classes
 90
     4095
 91
       24
280
     0
281
     0
  0
CLASS
  1
TABLESTYLE
  2
AcDbTableStyle
  3
ObjectDBX Classes
 90
     4095
 91
        1
280
     0
281
     0
  0
CLASS
  1
SCALE
  2
AcDbScale
  3
ObjectDBX Classes
 90
     1153
 91
       17
280
     0
281
     0
  0
CLASS
  1
MLEADERSTYLE
  2
AcDbMLeaderStyle
  3
ACDB_MLEADERSTYLE_CLASS
 90
     4095
 91
        1
280
     0
281
     0
  0
CLASS
  1
ACDBSECTIONVIEWSTYLE
  2
AcDbSectionViewStyle
  3
ObjectDBX Classes
 90
     1025
 91
        1
280
     0
281
     0
  0
CLASS
  1
ACDBDETAILVIEWSTYLE
  2
AcDbDetailViewStyle
  3
ObjectDBX Classes
 90
     1025
 91
        1
280
     0
281
     0
  0
CLASS
  1
MESH
  2
AcDbSubDMesh
  3
ObjectDBX Classes
 90
        0
 91
        2
280
     0
281
     1
  0
CLASS
  1
DICTIONARYVAR
  2
AcDbDictionaryVar
  3
ObjectDBX Classes
 90
        0
 91
        9
280
     0
281
     0
  0
CLASS
  1
CELLSTYLEMAP
  2
AcDbCellStyleMap
  3
ObjectDBX Classes
 90
     1152
 91
        1
280
     0
281
     0
  0
ENDSEC
  0
SECTION
  2
TABLES
  0
TABLE
  2
VPORT
  5
8
330
0
100
AcDbSymbolTable
 70
     1
  0
VPORT
  5
A8
330
8
100
AcDbSymbolTableRecord
100
AcDbViewportTableRecord
  2
*Active
 70
     0
 10
0.0
 20
0.0
 11
1.0
 21
1.0
 12
72.83200073242188
 22
80.42491912841796
 13
0.0
 23
0.0
 14
0.5
 24
0.5
 15
0.5
 25
0.5
 16
-1.0
 26
-1.0
 36
1.0
 17
0.0
 27
0.0
 37
0.0
 40
746.9999968597456
 41
1.036448080389592
 42
50.0
 43
0.0
 44
0.0
 50
0.0
 51
0.0
 71
     0
 72
   100
 73
     1
 74
     3
 75
     0
 76
     0
 77
     0
 78
     0
281
     0
 65
     1
110
0.0
120
0.0
130
0.0
111
1.0
121
0.0
131
0.0
112
0.0
122
1.0
132
0.0
 79
     0
146
0.0
348
C9
 60
     3
 61
     5
292
     1
282
     1
141
0.0
142
0.0
 63
   250
421
  3355443
  0
ENDTAB
  0
TABLE
  2
LTYPE
  5
5
330
0
100
AcDbSymbolTable
 70
     1
  0
LTYPE
  5
14
330
5
100
AcDbSymbolTableRecord
100
AcDbLinetypeTableRecord
  2
ByBlock
 70
     0
  3

 72
    65
 73
     0
 40
0.0
  0
LTYPE
  5
15
330
5
100
AcDbSymbolTableRecord
100
AcDbLinetypeTableRecord
  2
ByLayer
 70
     0
  3

 72
    65
 73
     0
 40
0.0
  0
LTYPE
  5
16
330
5
100
AcDbSymbolTableRecord
100
AcDbLinetypeTableRecord
  2
Continuous
 70
     0
  3
Solid line
 72
    65
 73
     0
 40
0.0
  0
ENDTAB
  0
TABLE
  2
LAYER
  5
2
330
0
100
AcDbSymbolTable
 70
     4
  0
LAYER
  5
10
330
2
100
AcDbSymbolTableRecord
100
AcDbLayerTableRecord
  2
0
 70
     0
 62
     7
  6
Continuous
370
    -3
390
F
347
BB
  0
LAYER
  5
2B
330
2
100
AcDbSymbolTableRecord
100
AcDbLayerTableRecord
  2
ASHADE
 70
     4
 62
     7
  6
Continuous
370
    -3
390
2D
347
BB
  0
LAYER
  5
F9
330
2
100
AcDbSymbolTableRecord
100
AcDbLayerTableRecord
  2
Mat. 21
 70
     0
 62
     7
420
 16777215
  6
Continuous
370
    -3
390
F
347
BB
  0
LAYER
  5
FA
330
2
100
AcDbSymbolTableRecord
100
AcDbLayerTableRecord
  2
Mat. 33
 70
     0
 62
   251
420
  5526612
  6
Continuous
370
    -3
390
F
347
BB
  0
ENDTAB
  0
TABLE
  2
STYLE
  5
3
330
0
100
AcDbSymbolTable
 70
     2
  0
STYLE
  5
11
330
3
100
AcDbSymbolTableRecord
100
AcDbTextStyleTableRecord
  2
Standard
 70
     0
 40
0.0
 41
1.0
 50
0.0
 71
     0
 42
0.2
  3
txt
  4

  0
STYLE
  5
2C
330
3
100
AcDbSymbolTableRecord
100
AcDbTextStyleTableRecord
  2
ASHADE
 70
     0
 40
0.2
 41
1.0
 50
0.0
 71
     0
 42
0.2
  3
simplex
  4

  0
ENDTAB
  0
TABLE
  2
VIEW
  5
6
330
0
100
AcDbSymbolTable
 70
     0
  0
ENDTAB
  0
TABLE
  2
UCS
  5
7
330
0
100
AcDbSymbolTable
 70
     0
  0
ENDTAB
  0
TABLE
  2
APPID
  5
9
330
0
100
AcDbSymbolTable
 70
     6
  0
APPID
  5
12
330
9
100
AcDbSymbolTableRecord
100
AcDbRegAppTableRecord
  2
ACAD
 70
     0
  0
APPID
  5
8F
330
9
100
AcDbSymbolTableRecord
100
AcDbRegAppTableRecord
  2
AVE_RENDER
 70
     0
  0
APPID
  5
90
330
9
100
AcDbSymbolTableRecord
100
AcDbRegAppTableRecord
  2
AVE_ENTITY_MATERIAL
 70
     0
  0
APPID
  5
9C
330
9
100
AcDbSymbolTableRecord
100
AcDbRegAppTableRecord
  2
AVE_FINISH
 70
     0
  0
APPID
  5
9D
330
9
100
AcDbSymbolTableRecord
100
AcDbRegAppTableRecord
  2
AVE_MATERIAL
 70
     0
  0
APPID
  5
9E
330
9
100
AcDbSymbolTableRecord
100
AcDbRegAppTableRecord
  2
AVE_GLOBAL
 70
     0
  0
ENDTAB
  0
TABLE
  2
DIMSTYLE
  5
A
330
0
100
AcDbSymbolTable
 70
     1
100
AcDbDimStyleTable
 71
     0
  0
DIMSTYLE
105
27
330
A
100
AcDbSymbolTableRecord
100
AcDbDimStyleTableRecord
  2
Standard
 70
     0
340
11
  0
ENDTAB
  0
TABLE
  2
BLOCK_RECORD
  5
1
330
0
100
AcDbSymbolTable
 70
     6
  0
BLOCK_RECORD
  5
1F
330
1
100
AcDbSymbolTableRecord
100
AcDbBlockTableRecord
  2
*Model_Space
340
22
 70
     0
280
     1
281
     0
  0
BLOCK_RECORD
  5
1B
330
1
100
AcDbSymbolTableRecord
100
AcDbBlockTableRecord
  2
*Paper_Space
340
1E
 70
     0
280
     1
281
     0
  0
BLOCK_RECORD
  5
23
330
1
100
AcDbSymbolTableRecord
100
AcDbBlockTableRecord
  2
*Paper_Space0
340
26
 70
     0
280
     1
281
     0
  0
BLOCK_RECORD
  5
2E
330
1
100
AcDbSymbolTableRecord
100
AcDbBlockTableRecord
  2
direct
340
0
 70
     0
280
     1
281
     0
  0
BLOCK_RECORD
  5
42
330
1
100
AcDbSymbolTableRecord
100
AcDbBlockTableRecord
  2
overhead
340
0
 70
     0
280
     1
281
     0
  0
BLOCK_RECORD
  5
5F
330
1
100
AcDbSymbolTableRecord
100
AcDbBlockTableRecord
  2
sh_spot
340
0
 70
     0
280
     1
281
     0
  0
BLOCK_RECORD
  5
91
330
1
100
AcDbSymbolTableRecord
100
AcDbBlockTableRecord
  2
AVE_RENDER
340
0
102
{BLKREFS
331
94
331
95
331
96
331
97
331
98
331
99
331
9A
331
9B
102
}
 70
     0
280
     1
281
     0
  0
BLOCK_RECORD
  5
9F
330
1
100
AcDbSymbolTableRecord
100
AcDbBlockTableRecord
  2
AVE_GLOBAL
340
0
102
{BLKREFS
331
A2
102
}
 70
     0
280
     1
281
     0
  0
ENDTAB
  0
ENDSEC
  0
SECTION
  2
BLOCKS
  0
BLOCK
  5
20
330
1F
100
AcDbEntity
  8
0
100
AcDbBlockBegin
  2
*Model_Space
 70
     0
 10
0.0
 20
0.0
 30
0.0
  3
*Model_Space
  1

  0
ENDBLK
  5
21
330
1F
100
AcDbEntity
  8
0
100
AcDbBlockEnd
  0
BLOCK
  5
1C
330
1B
100
AcDbEntity
 67
     1
  8
0
100
AcDbBlockBegin
  2
*Paper_Space
 70
     0
 10
0.0
 20
0.0
 30
0.0
  3
*Paper_Space
  1

  0
ENDBLK
  5
1D
330
1B
100
AcDbEntity
 67
     1
  8
0
100
AcDbBlockEnd
  0
BLOCK
  5
24
330
23
100
AcDbEntity
 67
     1
  8
0
100
AcDbBlockBegin
  2
*Paper_Space0
 70
     0
 10
0.0
 20
0.0
 30
0.0
  3
*Paper_Space0
  1

  0
ENDBLK
  5
25
330
23
100
AcDbEntity
 67
     1
  8
0
100
AcDbBlockEnd
  0
BLOCK
  5
40
330
2E
100
AcDbEntity
  8
0
100
AcDbBlockBegin
  2
direct
 70
     2
 10
0.0
 20
0.0
 30
0.0
  3
direct
  1

  0
ATTDEF
  5
2F
330
2E
100
AcDbEntity
  8
ASHADE
  6
Continuous
 62
     1
100
AcDbText
 10
0.0
 20
-0.1
 30
0.0
 40
0.2
  1

  7
ASHADE
 72
     1
 11
0.0
 21
-0.1
 31
0.0
100
AcDbAttributeDefinition
280
     0
  3
Light Name
  2
SNAME
 70
     0
280
     0
  0
ARC
  5
30
330
2E
100
AcDbEntity
  8
ASHADE
  6
Continuous
 62
     7
100
AcDbCircle
 10
0.0
 20
0.0
 30
0.0
 40
0.3
100
AcDbArc
 50
205.6792886194569
 51
334.3207113805431
  0
ARC
  5
31
330
2E
100
AcDbEntity
  8
ASHADE
  6
Continuous
 62
     7
100
AcDbCircle
 10
0.0
 20
0.0
 30
0.0
 40
0.3
100
AcDbArc
 50
25.67928861945685
 51
154.3207113805431
  0
LINE
  5
32
330
2E
100
AcDbEntity
  8
ASHADE
  6
Continuous
 62
     7
100
AcDbLine
 10
-0.21
 20
0.2142428528562855
 30
0.0
 11
-0.21
 21
0.5
 31
0.0
  0
LINE
  5
33
330
2E
100
AcDbEntity
  8
ASHADE
  6
Continuous
 62
     7
100
AcDbLine
 10
-0.11
 20
0.2791057147390572
 30
0.0
 11
-0.11
 21
0.5
 31
0.0
  0
LINE
  5
34
330
2E
100
AcDbEntity
  8
ASHADE
  6
Continuous
 62
     7
100
AcDbLine
 10
0.21
 20
0.2142428528562855
 30
0.0
 11
0.21
 21
0.5
 31
0.0
  0
ATTDEF
  5
35
330
2E
100
AcDbEntity
  8
ASHADE
  6
Continuous
 62
     7
100
AcDbText
 10
0.0
 20
0.25
 30
0.0
 40
0.01
  1

100
AcDbAttributeDefinition
280
     0
  3
Look-at Y
  2
LAY
 70
     1
280
     0
  0
ATTDEF
  5
36
330
2E
100
AcDbEntity
  8
ASHADE
  6
Continuous
 62
     7
100
AcDbText
 10
0.0
 20
0.22
 30
0.0
 40
0.01
  1
1
100
AcDbAttributeDefinition
280
     0
  3
Light Intensity
  2
INTENSITY
 70
     1
280
     0
  0
ATTDEF
  5
37
330
2E
100
AcDbEntity
  8
ASHADE
  6
Continuous
 62
     7
100
AcDbText
 10
0.0
 20
0.16
 30
0.0
 40
0.01
  1
-1
100
AcDbAttributeDefinition
280
     0
  3
*not used*
  2
BEAMD
 70
     1
280
     0
  0
ATTDEF
  5
38
330
2E
100
AcDbEntity
  8
ASHADE
  6
Continuous
 62
     7
100
AcDbText
 10
0.0
 20
0.175
 30
0.0
 40
0.01
  1
-1
100
AcDbAttributeDefinition
280
     0
  3
*not used*
  2
CONED
 70
     1
280
     0
  0
ATTDEF
  5
39
330
2E
100
AcDbEntity
  8
ASHADE
  6
Continuous
 62
     7
100
AcDbText
 10
0.0
 20
0.19
 30
0.0
 40
0.01
  1
0
100
AcDbAttributeDefinition
280
     0
  3
Depth Map Size
  2
CONEA
 70
     1
280
     0
  0
ATTDEF
  5
3A
330
2E
100
AcDbEntity
  8
ASHADE
  6
Continuous
 62
     7
100
AcDbText
 10
0.0
 20
0.2050000000000001
 30
0.0
 40
0.01
  1
1,1,1
100
AcDbAttributeDefinition
280
     0
  3
Light Color (RGB)
  2
COLOR
 70
     1
280
     0
  0
ATTDEF
  5
3B
330
2E
100
AcDbEntity
  8
ASHADE
  6
Continuous
 62
     7
100
AcDbText
 10
0.0
 20
0.235
 30
0.0
 40
0.01
  1

100
AcDbAttributeDefinition
280
     0
  3
Look-at Z
  2
LAZ
 70
     1
280
     0
  0
LINE
  5
3C
330
2E
100
AcDbEntity
  8
ASHADE
  6
Continuous
 62
     7
100
AcDbLine
 10
0.0
 20
0.3
 30
0.0
 11
0.0
 21
0.5
 31
0.0
  0
LINE
  5
3D
330
2E
100
AcDbEntity
  8
ASHADE
  6
Continuous
 62
     7
100
AcDbLine
 10
0.11
 20
0.2791057147390572
 30
0.0
 11
0.11
 21
0.5
 31
0.0
  0
ATTDEF
  5
3E
330
2E
100
AcDbEntity
  8
ASHADE
  6
Continuous
 62
     7
100
AcDbText
 10
0.0
 20
0.265
 30
0.0
 40
0.01
  1

100
AcDbAttributeDefinition
280
     0
  3
Look-at X
  2
LAX
 70
     1
280
     0
  0
ATTDEF
  5
3F
330
2E
100
AcDbEntity
  8
ASHADE
  6
Continuous
 62
     7
100
AcDbText
 10
0.0
 20
0.28
 30
0.0
 40
0.01
  1

100
AcDbAttributeDefinition
280
     0
  3

  2
GNAME
 70
     1
280
     0
  0
ENDBLK
  5
41
330
2E
100
AcDbEntity
  8
0
100
AcDbBlockEnd
  0
BLOCK
  5
5D
330
42
100
AcDbEntity
  8
0
100
AcDbBlockBegin
  2
overhead
 70
     2
 10
0.0
 20
0.0
 30
0.0
  3
overhead
  1

  0
ATTDEF
  5
43
330
42
100
AcDbEntity
  8
ASHADE
  6
Continuous
 62
     1
100
AcDbText
 10
0.0
 20
-0.1
 30
0.0
 40
0.2
  1

  7
ASHADE
 72
     1
 11
0.0
 21
-0.1
 31
0.0
100
AcDbAttributeDefinition
280
     0
  3
Light Name
  2
SNAME
 70
     0
280
     0
  0
ARC
  5
44
330
42
100
AcDbEntity
  8
ASHADE
  6
Continuous
 62
     7
100
AcDbCircle
 10
0.0
 20
0.0
 30
0.0
 40
0.3
100
AcDbArc
 50
205.6792886194569
 51
334.3207113805431
  0
LINE
  5
45
330
42
100
AcDbEntity
  8
ASHADE
  6
Continuous
 62
     7
100
AcDbLine
 10
-0.2041413561583015
 20
-0.2198324514393848
 30
0.0
 11
-0.2721884748777353
 21
-0.2931099352525131
 31
0.0
  0
LINE
  5
46
330
42
100
AcDbEntity
  8
ASHADE
  6
Continuous
 62
     7
100
AcDbLine
 10
-0.1096591641591904
 20
-0.2792398032442862
 30
0.0
 11
-0.1279356915190555
 21
-0.3257797704516673
 31
0.0
  0
LINE
  5
47
330
42
100
AcDbEntity
  8
ASHADE
  6
Continuous
 62
     7
100
AcDbLine
 10
0.0
 20
-0.2999999999999999
 30
0.0
 11
0.0
 21
-0.4
 31
0.0
  0
LINE
  5
48
330
42
100
AcDbEntity
  8
ASHADE
  6
Continuous
 62
     7
100
AcDbLine
 10
0.1096591641591904
 20
-0.2792398032442862
 30
0.0
 11
0.1279356915190555
 21
-0.3257797704516673
 31
0.0
  0
LINE
  5
49
330
42
100
AcDbEntity
  8
ASHADE
  6
Continuous
 62
     7
100
AcDbLine
 10
0.2041413561583015
 20
-0.2198324514393848
 30
0.0
 11
0.2721884748777353
 21
-0.2931099352525131
 31
0.0
  0
ARC
  5
4A
330
42
100
AcDbEntity
  8
ASHADE
  6
Continuous
 62
     7
100
AcDbCircle
 10
0.0
 20
0.0
 30
0.0
 40
0.3
100
AcDbArc
 50
25.67928861945685
 51
154.3207113805431
  0
LINE
  5
4B
330
42
100
AcDbEntity
  8
ASHADE
  6
Continuous
 62
     7
100
AcDbLine
 10
-0.2703701166919155
 20
0.13
 30
0.0
 11
-0.3154318028072347
 21
0.1516666666666666
 31
0.0
  0
LINE
  5
4C
330
42
100
AcDbEntity
  8
ASHADE
  6
Continuous
 62
     7
100
AcDbLine
 10
-0.2703701166919155
 20
-0.13
 30
0.0
 11
-0.3154318028072347
 21
-0.1516666666666666
 31
0.0
  0
LINE
  5
4D
330
42
100
AcDbEntity
  8
ASHADE
  6
Continuous
 62
     7
100
AcDbLine
 10
-0.2041413561583015
 20
0.2198324514393849
 30
0.0
 11
-0.2721884748777353
 21
0.2931099352525131
 31
0.0
  0
LINE
  5
4E
330
42
100
AcDbEntity
  8
ASHADE
  6
Continuous
 62
     7
100
AcDbLine
 10
-0.1096591641591904
 20
0.2792398032442862
 30
0.0
 11
-0.1279356915190555
 21
0.3257797704516674
 31
0.0
  0
LINE
  5
4F
330
42
100
AcDbEntity
  8
ASHADE
  6
Continuous
 62
     7
100
AcDbLine
 10
0.2703701166919155
 20
-0.13
 30
0.0
 11
0.3154318028072347
 21
-0.1516666666666666
 31
0.0
  0
LINE
  5
50
330
42
100
AcDbEntity
  8
ASHADE
  6
Continuous
 62
     7
100
AcDbLine
 10
0.2703701166919155
 20
0.13
 30
0.0
 11
0.3154318028072347
 21
0.1516666666666666
 31
0.0
  0
LINE
  5
51
330
42
100
AcDbEntity
  8
ASHADE
  6
Continuous
 62
     7
100
AcDbLine
 10
0.0
 20
0.3
 30
0.0
 11
0.0
 21
0.4
 31
0.0
  0
ATTDEF
  5
52
330
42
100
AcDbEntity
  8
ASHADE
  6
Continuous
 62
     7
100
AcDbText
 10
0.0
 20
0.22
 30
0.0
 40
0.01
  1
1
100
AcDbAttributeDefinition
280
     0
  3
Light Intensity
  2
INTENSITY
 70
     1
280
     0
  0
ATTDEF
  5
53
330
42
100
AcDbEntity
  8
ASHADE
  6
Continuous
 62
     7
100
AcDbText
 10
0.0
 20
0.16
 30
0.0
 40
0.01
  1
-1
100
AcDbAttributeDefinition
280
     0
  3
*not used*
  2
BEAMD
 70
     1
280
     0
  0
ATTDEF
  5
54
330
42
100
AcDbEntity
  8
ASHADE
  6
Continuous
 62
     7
100
AcDbText
 10
0.0
 20
0.175
 30
0.0
 40
0.01
  1
-1
100
AcDbAttributeDefinition
280
     0
  3
*not used*
  2
CONED
 70
     1
280
     0
  0
ATTDEF
  5
55
330
42
100
AcDbEntity
  8
ASHADE
  6
Continuous
 62
     7
100
AcDbText
 10
0.0
 20
0.19
 30
0.0
 40
0.01
  1
0
100
AcDbAttributeDefinition
280
     0
  3
Depth Map Size
  2
CONEA
 70
     1
280
     0
  0
ATTDEF
  5
56
330
42
100
AcDbEntity
  8
ASHADE
  6
Continuous
 62
     7
100
AcDbText
 10
0.0
 20
0.2050000000000001
 30
0.0
 40
0.01
  1
1,1,1
100
AcDbAttributeDefinition
280
     0
  3
Light Color (RGB)
  2
COLOR
 70
     1
280
     0
  0
ATTDEF
  5
57
330
42
100
AcDbEntity
  8
ASHADE
  6
Continuous
 62
     7
100
AcDbText
 10
0.0
 20
0.235
 30
0.0
 40
0.01
  1

100
AcDbAttributeDefinition
280
     0
  3
Look-at Z
  2
LAZ
 70
     1
280
     0
  0
ATTDEF
  5
58
330
42
100
AcDbEntity
  8
ASHADE
  6
Continuous
 62
     7
100
AcDbText
 10
0.0
 20
0.25
 30
0.0
 40
0.01
  1

100
AcDbAttributeDefinition
280
     0
  3
Look-at Y
  2
LAY
 70
     1
280
     0
  0
ATTDEF
  5
59
330
42
100
AcDbEntity
  8
ASHADE
  6
Continuous
 62
     7
100
AcDbText
 10
0.0
 20
0.265
 30
0.0
 40
0.01
  1

100
AcDbAttributeDefinition
280
     0
  3
Look-at X
  2
LAX
 70
     1
280
     0
  0
ATTDEF
  5
5A
330
42
100
AcDbEntity
  8
ASHADE
  6
Continuous
 62
     7
100
AcDbText
 10
0.0
 20
0.28
 30
0.0
 40
0.01
  1

100
AcDbAttributeDefinition
280
     0
  3

  2
GNAME
 70
     1
280
     0
  0
LINE
  5
5B
330
42
100
AcDbEntity
  8
ASHADE
  6
Continuous
 62
     7
100
AcDbLine
 10
0.1096591641591904
 20
0.2792398032442862
 30
0.0
 11
0.1279356915190555
 21
0.3257797704516674
 31
0.0
  0
LINE
  5
5C
330
42
100
AcDbEntity
  8
ASHADE
  6
Continuous
 62
     7
100
AcDbLine
 10
0.2041413561583015
 20
0.2198324514393849
 30
0.0
 11
0.2721884748777353
 21
0.2931099352525131
 31
0.0
  0
ENDBLK
  5
5E
330
42
100
AcDbEntity
  8
0
100
AcDbBlockEnd
  0
BLOCK
  5
85
330
5F
100
AcDbEntity
  8
0
100
AcDbBlockBegin
  2
sh_spot
 70
     2
 10
0.0
 20
0.0
 30
0.0
  3
sh_spot
  1

  0
LINE
  5
60
330
5F
100
AcDbEntity
  8
ASHADE
  6
Continuous
 62
     7
100
AcDbLine
 10
0.25
 20
0.26
 30
0.0
 11
-0.25
 21
0.26
 31
0.0
  0
LINE
  5
61
330
5F
100
AcDbEntity
  8
ASHADE
  6
Continuous
 62
     7
100
AcDbLine
 10
-0.25
 20
-0.3399999999999999
 30
0.0
 11
0.25
 21
-0.3399999999999999
 31
0.0
  0
ATTDEF
  5
62
330
5F
100
AcDbEntity
  8
ASHADE
  6
Continuous
 62
     1
100
AcDbText
 10
0.0
 20
-0.1
 30
0.0
 40
0.2
  1

  7
ASHADE
 72
     1
 11
0.0
 21
-0.1
 31
0.0
100
AcDbAttributeDefinition
280
     0
  3
Light Name
  2
SNAME
 70
     0
280
     0
  0
LINE
  5
63
330
5F
100
AcDbEntity
  8
ASHADE
  6
Continuous
 62
     7
100
AcDbLine
 10
-0.25
 20
-0.13
 30
0.0
 11
-0.25
 21
-0.3399999999999999
 31
0.0
  0
LINE
  5
64
330
5F
100
AcDbEntity
  8
ASHADE
  6
Continuous
 62
     7
100
AcDbLine
 10
-0.25
 20
-0.18
 30
0.0
 11
-0.29
 21
-0.18
 31
0.0
  0
LINE
  5
65
330
5F
100
AcDbEntity
  8
ASHADE
  6
Continuous
 62
     7
100
AcDbLine
 10
-0.29
 20
-0.22
 30
0.0
 11
-0.25
 21
-0.22
 31
0.0
  0
LINE
  5
66
330
5F
100
AcDbEntity
  8
ASHADE
  6
Continuous
 62
     7
100
AcDbLine
 10
-0.29
 20
-0.18
 30
0.0
 11
-0.29
 21
-0.22
 31
0.0
  0
LINE
  5
67
330
5F
100
AcDbEntity
  8
ASHADE
  6
Continuous
 62
     7
100
AcDbLine
 10
-0.1045454545454545
 20
0.26
 30
0.0
 11
-0.15
 21
0.46
 31
0.0
  0
LINE
  5
68
330
5F
100
AcDbEntity
  8
ASHADE
  6
Continuous
 62
     7
100
AcDbLine
 10
-0.21
 20
0.26
 30
0.0
 11
-0.301304347826087
 21
0.46
 31
0.0
  0
LINE
  5
69
330
5F
100
AcDbEntity
  8
ASHADE
  6
Continuous
 62
     7
100
AcDbLine
 10
-0.25
 20
0.26
 30
0.0
 11
-0.25
 21
0.13
 31
0.0
  0
LINE
  5
6A
330
5F
100
AcDbEntity
  8
ASHADE
  6
Continuous
 62
     7
100
AcDbLine
 10
-0.25
 20
0.22
 30
0.0
 11
-0.29
 21
0.22
 31
0.0
  0
LINE
  5
6B
330
5F
100
AcDbEntity
  8
ASHADE
  6
Continuous
 62
     7
100
AcDbLine
 10
-0.29
 20
0.1799999999999999
 30
0.0
 11
-0.25
 21
0.1799999999999999
 31
0.0
  0
LINE
  5
6C
330
5F
100
AcDbEntity
  8
ASHADE
  6
Continuous
 62
     7
100
AcDbLine
 10
-0.29
 20
0.22
 30
0.0
 11
-0.29
 21
0.1799999999999999
 31
0.0
  0
ATTDEF
  5
6D
330
5F
100
AcDbEntity
  8
ASHADE
  6
Continuous
 62
     7
100
AcDbText
 10
0.0
 20
-0.24
 30
0.0
 40
0.01
  1
0
100
AcDbAttributeDefinition
280
     0
  3
Depth Map Size
  2
ZSIZE
 70
     1
280
     0
  0
ATTDEF
  5
6E
330
5F
100
AcDbEntity
  8
ASHADE
  6
Continuous
 62
     7
100
AcDbText
 10
0.0
 20
-0.3300000000000001
 30
0.0
 40
0.01
  1
0,0,0
100
AcDbAttributeDefinition
280
     0
  3
Look-from XYZ
  2
LFXYZ
 70
     1
280
     0
  0
ATTDEF
  5
6F
330
5F
100
AcDbEntity
  8
ASHADE
  6
Continuous
 62
     7
100
AcDbText
 10
0.0
 20
-0.315
 30
0.0
 40
0.01
  1
0.0
100
AcDbAttributeDefinition
280
     0
  3
Beam Distribution
  2
BEAMDI
 70
     1
280
     0
  0
ATTDEF
  5
70
330
5F
100
AcDbEntity
  8
ASHADE
  6
Continuous
 62
     7
100
AcDbText
 10
0.0
 20
-0.3
 30
0.0
 40
0.01
  1
0.0
100
AcDbAttributeDefinition
280
     0
  3
Cone Delta
  2
CONEDE
 70
     1
280
     0
  0
ATTDEF
  5
71
330
5F
100
AcDbEntity
  8
ASHADE
  6
Continuous
 62
     7
100
AcDbText
 10
0.0
 20
-0.2850000000000001
 30
0.0
 40
0.01
  1
10.0
100
AcDbAttributeDefinition
280
     0
  3
Cone Angle
  2
CONEAN
 70
     1
280
     0
  0
ATTDEF
  5
72
330
5F
100
AcDbEntity
  8
ASHADE
  6
Continuous
 62
     7
100
AcDbText
 10
0.0
 20
-0.27
 30
0.0
 40
0.01
  1
-1
100
AcDbAttributeDefinition
280
     0
  3
*not used*
  2
BIASMAX
 70
     1
280
     0
  0
ATTDEF
  5
73
330
5F
100
AcDbEntity
  8
ASHADE
  6
Continuous
 62
     7
100
AcDbText
 10
0.0
 20
-0.255
 30
0.0
 40
0.01
  1
-1
100
AcDbAttributeDefinition
280
     0
  3
*not used*
  2
BIASMIN
 70
     1
280
     0
  0
ATTDEF
  5
74
330
5F
100
AcDbEntity
  8
ASHADE
  6
Continuous
 62
     7
100
AcDbText
 10
0.0
 20
-0.225
 30
0.0
 40
0.01
  1
1,1,1
100
AcDbAttributeDefinition
280
     0
  3
Light Color (RGB)
  2
COLOR
 70
     1
280
     0
  0
ATTDEF
  5
75
330
5F
100
AcDbEntity
  8
ASHADE
  6
Continuous
 62
     7
100
AcDbText
 10
0.0
 20
-0.21
 30
0.0
 40
0.01
  1
1
100
AcDbAttributeDefinition
280
     0
  3
Light Intensity
  2
INTENSITY
 70
     1
280
     0
  0
ATTDEF
  5
76
330
5F
100
AcDbEntity
  8
ASHADE
  6
Continuous
 62
     7
100
AcDbText
 10
0.0
 20
-0.15
 30
0.0
 40
0.01
  1

100
AcDbAttributeDefinition
280
     0
  3

  2
GNAME
 70
     1
280
     0
  0
ATTDEF
  5
77
330
5F
100
AcDbEntity
  8
ASHADE
  6
Continuous
 62
     7
100
AcDbText
 10
0.0
 20
-0.195
 30
0.0
 40
0.01
  1

100
AcDbAttributeDefinition
280
     0
  3
Look-at Z
  2
LAZ
 70
     1
280
     0
  0
ATTDEF
  5
78
330
5F
100
AcDbEntity
  8
ASHADE
  6
Continuous
 62
     7
100
AcDbText
 10
0.0
 20
-0.18
 30
0.0
 40
0.01
  1

100
AcDbAttributeDefinition
280
     0
  3
Look-at Y
  2
LAY
 70
     1
280
     0
  0
ATTDEF
  5
79
330
5F
100
AcDbEntity
  8
ASHADE
  6
Continuous
 62
     7
100
AcDbText
 10
0.0
 20
-0.165
 30
0.0
 40
0.01
  1

100
AcDbAttributeDefinition
280
     0
  3
Look-at X
  2
LAX
 70
     1
280
     0
  0
LINE
  5
7A
330
5F
100
AcDbEntity
  8
ASHADE
  6
Continuous
 62
     7
100
AcDbLine
 10
0.25
 20
-0.3399999999999999
 30
0.0
 11
0.25
 21
-0.13
 31
0.0
  0
LINE
  5
7B
330
5F
100
AcDbEntity
  8
ASHADE
  6
Continuous
 62
     7
100
AcDbLine
 10
0.25
 20
-0.18
 30
0.0
 11
0.29
 21
-0.18
 31
0.0
  0
LINE
  5
7C
330
5F
100
AcDbEntity
  8
ASHADE
  6
Continuous
 62
     7
100
AcDbLine
 10
0.29
 20
-0.22
 30
0.0
 11
0.25
 21
-0.22
 31
0.0
  0
LINE
  5
7D
330
5F
100
AcDbEntity
  8
ASHADE
  6
Continuous
 62
     7
100
AcDbLine
 10
0.29
 20
-0.18
 30
0.0
 11
0.29
 21
-0.22
 31
0.0
  0
LINE
  5
7E
330
5F
100
AcDbEntity
  8
ASHADE
  6
Continuous
 62
     7
100
AcDbLine
 10
0.21
 20
0.26
 30
0.0
 11
0.301304347826087
 21
0.46
 31
0.0
  0
LINE
  5
7F
330
5F
100
AcDbEntity
  8
ASHADE
  6
Continuous
 62
     7
100
AcDbLine
 10
0.1045454545454545
 20
0.26
 30
0.0
 11
0.15
 21
0.46
 31
0.0
  0
LINE
  5
80
330
5F
100
AcDbEntity
  8
ASHADE
  6
Continuous
 62
     7
100
AcDbLine
 10
0.0
 20
0.26
 30
0.0
 11
0.0
 21
0.46
 31
0.0
  0
LINE
  5
81
330
5F
100
AcDbEntity
  8
ASHADE
  6
Continuous
 62
     7
100
AcDbLine
 10
0.25
 20
0.13
 30
0.0
 11
0.25
 21
0.26
 31
0.0
  0
LINE
  5
82
330
5F
100
AcDbEntity
  8
ASHADE
  6
Continuous
 62
     7
100
AcDbLine
 10
0.25
 20
0.22
 30
0.0
 11
0.29
 21
0.22
 31
0.0
  0
LINE
  5
83
330
5F
100
AcDbEntity
  8
ASHADE
  6
Continuous
 62
     7
100
AcDbLine
 10
0.29
 20
0.1799999999999999
 30
0.0
 11
0.25
 21
0.1799999999999999
 31
0.0
  0
LINE
  5
84
330
5F
100
AcDbEntity
  8
ASHADE
  6
Continuous
 62
     7
100
AcDbLine
 10
0.29
 20
0.22
 30
0.0
 11
0.29
 21
0.1799999999999999
 31
0.0
  0
ENDBLK
  5
86
330
5F
100
AcDbEntity
  8
0
100
AcDbBlockEnd
  0
BLOCK
  5
92
330
91
100
AcDbEntity
  8
ASHADE
100
AcDbBlockBegin
  2
AVE_RENDER
 70
     0
 10
0.0
 20
0.0
 30
0.0
  3
AVE_RENDER
  1
AVE_RENDER
  0
ENDBLK
  5
93
330
91
100
AcDbEntity
  8
0
100
AcDbBlockEnd
  0
BLOCK
  5
A0
330
9F
100
AcDbEntity
  8
ASHADE
100
AcDbBlockBegin
  2
AVE_GLOBAL
 70
     0
 10
0.0
 20
0.0
 30
0.0
  3
AVE_GLOBAL
  1
AVE_GLOBAL
  0
ENDBLK
  5
A1
330
9F
100
AcDbEntity
  8
0
100
AcDbBlockEnd
  0
ENDSEC
  0
SECTION
  2
ENTITIES
  0
INSERT
  5
94
330
1F
100
AcDbEntity
  8
ASHADE
 62
     1
100
AcDbBlockReference
  2
AVE_RENDER
 10
0.0
 20
0.0
 30
0.0
1001
AVE_RENDER
1002
{
1070
     7
1000
Pref
1070
    30
1070
    20
1070
     1
1070
     0
1000

1070
    10
1070
     1
1070
    10
1040
1.0
1070
     1
1040
0.3
1040
0.7
1040
0.0
1040
10.0
1010
-1.0
1020
-1.0
1030
-1.0
1040
0.3
1070
    49
1070
     0
1070
     0
1010
1.0
1020
1.0
1030
1.0
1040
45.0
1070
     1
1070
     0
1000
WCS
1040
0.0
1070
     0
1040
10.0
1002
}
  0
INSERT
  5
95
330
1F
100
AcDbEntity
  8
ASHADE
 62
     3
100
AcDbBlockReference
  2
AVE_RENDER
 10
0.0
 20
0.0
 30
0.0
1001
AVE_RENDER
1002
{
1070
     0
1000
Full Opt
1070
     0
1070
     1
1070
     1
1070
     1
1070
     0
1070
     0
1070
     0
1070
     1
1070
     1
1040
0.0001
1040
0.0001
1002
}
  0
INSERT
  5
96
330
1F
100
AcDbEntity
  8
ASHADE
 62
     4
100
AcDbBlockReference
  2
AVE_RENDER
 10
0.0
 20
0.0
 30
0.0
1001
AVE_RENDER
1002
{
1070
     0
1000
Quick Opt
1070
     0
1070
     1
1070
     1
1070
     1
1070
     0
1070
     0
1070
     1
1002
}
  0
INSERT
  5
97
330
1F
100
AcDbEntity
  8
ASHADE
 62
     5
100
AcDbBlockReference
  2
AVE_RENDER
 10
0.0
 20
0.0
 30
0.0
1001
AVE_RENDER
1002
{
1070
     1
1000
Scanl Opt
1070
     2
1070
     0
1070
     2
1040
2.0
1040
4.0
1070
     0
1070
     1
1070
     0
1040
0.03
1002
}
  0
INSERT
  5
98
330
1F
100
AcDbEntity
  8
ASHADE
 62
     6
100
AcDbBlockReference
  2
AVE_RENDER
 10
0.0
 20
0.0
 30
0.0
1001
AVE_RENDER
1002
{
1070
     2
1000
Raytr Opt
1070
     2
1070
     0
1070
     2
1040
2.0
1040
4.0
1070
     0
1070
     1
1070
     1
1040
0.03
1070
     3
1040
0.03
1002
}
  0
INSERT
  5
99
330
1F
100
AcDbEntity
  8
ASHADE
 62
     7
100
AcDbBlockReference
  2
AVE_RENDER
 10
0.0
 20
0.0
 30
0.0
1001
AVE_RENDER
1002
{
1070
     0
1000
RFile Opt
1070
     1
1070
   640
1070
   480
1070
 10000
1070
     1
1070
     8
1070
     8
1070
     0
1070
     0
1070
     0
1070
     0
1070
     0
1070
     0
1070
     0
1002
}
  0
INSERT
  5
9A
330
1F
100
AcDbEntity
  8
ASHADE
 62
     8
100
AcDbBlockReference
  2
AVE_RENDER
 10
0.0
 20
0.0
 30
0.0
1001
AVE_RENDER
1002
{
1070
     0
1000
Fog Opt
1070
     0
1070
     0
1040
0.0
1040
1.0
1040
0.0
1040
1.0
1010
0.5
1020
0.5
1030
0.5
1002
}
  0
INSERT
  5
9B
330
1F
100
AcDbEntity
  8
ASHADE
 62
     9
100
AcDbBlockReference
  2
AVE_RENDER
 10
0.0
 20
0.0
 30
0.0
1001
AVE_RENDER
1002
{
1070
     0
1000
BG Opt
1070
     0
1070
     1
1010
0.0
1020
0.0
1030
0.0
1010
1.0
1020
0.0
1030
0.0
1010
0.0
1020
1.0
1030
0.0
1010
0.0
1020
0.0
1030
1.0
1040
0.5
1040
0.33
1040
0.0
1000

1070
     1
1000

1070
     1
1070
     1
1040
1.0
1040
1.0
1040
0.0
1040
0.0
1070
     0
1002
}
  0
INSERT
  5
A2
330
1F
100
AcDbEntity
  8
ASHADE
 62
     1
100
AcDbBlockReference
  2
AVE_GLOBAL
 10
0.0
 20
0.0
 30
0.0
1001
AVE_MATERIAL
1002
{
1000
*GLOBAL*
1000
2
1000
Global finish.
1002
{
1002
}
1002
{
1070
    63
1002
{
1002
{
1010
-1.0
1020
-1.0
1030
-1.0
1002
}
1040
0.1000000014901161
1000

1040
0.0
1002
{
1002
}
1040
0.0
1002
{
1002
}
1040
0.0
1002
}
1002
{
1002
{
1010
-1.0
1020
-1.0
1030
-1.0
1002
}
1040
0.6999999880790711
1000

1040
0.0
1002
{
1002
}
1040
0.0
1002
{
1002
}
1040
0.0
1002
}
1002
{
1002
{
1010
-1.0
1020
-1.0
1030
-1.0
1002
}
1040
0.2000000029802322
1000

1040
0.0
1002
{
1002
}
1040
0.0
1002
{
1002
}
1040
0.0
1002
}
1002
{
1070
     0
1002
{
1070
     1
1002
{
1040
1.0
1040
1.0
1000

1040
0.0
1002
{
1002
}
1040
0.0
1002
{
1002
}
1040
0.0
1002
}
1002
}
1040
1.0
1040
0.0
1040
0.0
1002
}
1002
{
1040
1.0
1040
1.0
1000

1040
0.0
1002
{
1002
}
1040
0.0
1002
{
1002
}
1040
0.0
1002
}
1002
{
1040
0.5
1040
1.0
1000

1040
0.0
1002
{
1002
}
1040
0.0
1002
{
1002
}
1040
0.0
1002
}
1002
{
1070
     0
1040
0.0
1002
{
1002
}
1040
1.0
1002
{
1002
}
1040
0.0
1002
}
1002
{
1040
0.0
1002
{
1002
{
1010
0.0
1020
0.0
1030
0.0
1002
}
1040
1.0
1000

1040
0.0
1002
{
1002
}
1040
0.0
1002
{
1002
}
1040
0.0
1002
}
1002
}
1002
{
1002
{
1070
     1
1002
{
1040
0.0
1040
1.0
1000

1040
0.0
1002
{
1002
}
1040
0.0
1002
{
1002
}
1040
0.0
1002
}
1002
}
1040
0.0
1002
{
1002
}
1010
1.0
1020
0.0
1030
0.0
1010
0.0
1020
1.0
1030
0.0
1010
0.0
1020
0.0
1030
1.0
1070
     0
1002
}
1002
{
1002
{
1040
1.0
1040
1.0
1002
{
1070
     1
1002
{
1040
1.0
1040
1.0
1000

1040
0.0
1002
{
1002
}
1040
0.0
1002
{
1002
}
1040
0.0
1002
}
1002
}
1002
}
1070
     0
1040
0.0
1002
{
1002
}
1002
}
1002
{
1002
}
1002
}
1002
{
1071
        3
1070
     3
1070
     0
1002
{
1070
     2
1070
     0
1070
     0
1040
0.0
1002
}
1070
     0
1070
     2
1002
{
1002
}
1002
}
1002
{
1040
8030.0
1040
190.3000030517578
1040
0.3050000071525574
1040
228.0
1040
545.0
1040
14.0
1040
17.39999961853027
1040
0.4560000002384186
1002
}
1002
}
  0
MESH
  5
FB
330
1F
100
AcDbEntity
  8
Mat. 21
160
             29384
310
C8720000300300000C00000013000000020000003C0000000600000002000000000000E07AB61B400000000000A061C00000000000002840000000E07AB61B400000000000A061C000000000000018400C000000130000000A0000003C0000000600000002000000000000000000204000000000002062C000000000000028
310
40000000E07AB61B400000000000A061C000000000000018400C00000013000000120000003C0000000600000002000000000000000000204000000000002062C00000000000002840000000E07AB61B400000000000A061C000000000000028400C000000130000001A0000003C0000000600000002000000000000000000
310
204000000000002062C00000000000001840000000E07AB61B400000000000A061C000000000000018400C00000013000000220000003C0000000600000002000000000000000000204000000000002062C00000000000002840000000000000204000000000002062C000000000000018400C000000130000002A0000003C
310
0000000600000002000000000000E07AB61B400000000000A062C00000000000002840000000000000204000000000002062C000000000000018400C00000013000000320000003C0000000600000002000000000000000000204000000000002062C00000000000002840000000E07AB61B400000000000A062C000000000
310
000028400C000000130000003A0000003C0000000600000002000000000000000000204000000000002062C00000000000001840000000E07AB61B400000000000A062C000000000000018400C00000013000000420000003C0000000600000002000000000000E07AB61B400000000000A062C00000000000002840000000
310
E07AB61B400000000000A062C000000000000018400C000000130000004A0000003C00000006000000020000000000000000001040000000E0B3FD62C00000000000002840000000E07AB61B400000000000A062C000000000000018400C00000013000000520000003C000000060000000200000000000000000010400000
310
00E0B3FD62C00000000000002840000000E07AB61B400000000000A062C000000000000028400C000000130000005A0000003C0000000600000002000000000000E07AB61B400000000000A062C000000000000018400000000000001040000000E0B3FD62C000000000000018400C00000013000000620000003C00000006
310
000000020000000000000000001040000000E0B3FD62C000000000000028400000000000001040000000E0B3FD62C000000000000018400C000000130000006A0000003C0000000600000002000000000000E0EB8315BD00000000002063C000000000000028400000000000001040000000E0B3FD62C00000000000001840
310
0C00000013000000720000003C0000000600000002000000000000E0EB8315BD00000000002063C000000000000028400000000000001040000000E0B3FD62C000000000000028400C000000130000007A0000003C00000006000000020000000000000000001040000000E0B3FD62C0000000000000184000000040274F13
310
BD00000000002063C000000000000018400C00000013000000820000003C0000000600000002000000000000E0EB8315BD00000000002063C0000000000000284000000040274F13BD00000000002063C000000000000018400C000000130000008A0000003C000000060000000200000000000000000010C0000000E0B3FD
310
62C0000000000000284000000040274F13BD00000000002063C000000000000018400C00000013000000920000003C000000060000000200000000000000000010C0000000E0B3FD62C00000000000002840000000E0EB8315BD00000000002063C000000000000028400C000000130000009A0000003C0000000600000002
310
00000000000040274F13BD00000000002063C0000000000000184000000000000010C0000000E0B3FD62C000000000000018400C00000013000000A20000003C000000060000000200000000000000000010C0000000E0B3FD62C0000000000000284000000000000010C0000000E0B3FD62C000000000000018400C000000
310
13000000AA0000003C0000000600000002000000000000E07AB61BC00000000000A062C0000000000000284000000000000010C0000000E0B3FD62C000000000000018400C00000013000000B20000003C0000000600000002000000000000E07AB61BC00000000000A062C0000000000000284000000000000010C0000000
310
E0B3FD62C000000000000028400C00000013000000BA0000003C000000060000000200000000000000000010C0000000E0B3FD62C00000000000001840000000E07AB61BC00000000000A062C000000000000018400C00000013000000C20000003C0000000600000002000000000000E07AB61BC00000000000A062C00000
310
000000002840000000E07AB61BC00000000000A062C000000000000018400C00000013000000CA0000003C000000060000000200000000000000000020C000000000002062C00000000000002840000000E07AB61BC00000000000A062C000000000000018400C00000013000000D20000003C000000060000000200000000
310
000000000020C000000000002062C00000000000002840000000E07AB61BC00000000000A062C000000000000028400C00000013000000DA0000003C0000000600000002000000000000E07AB61BC00000000000A062C0000000000000184000000000000020C000000000002062C000000000000018400C00000013000000
310
E20000003C000000060000000200000000000000000020C000000000002062C0000000000000284000000000000020C000000000002062C000000000000018400C00000013000000EA0000003C0000000600000002000000000000E07AB61BC00000000000A061C0000000000000284000000000000020C000000000002062
310
C000000000000018400C00000013000000F20000003C0000000600000002000000000000E07AB61BC00000000000A061C0000000000000284000000000000020C000000000002062C000000000000028400C00000013000000FA0000003C000000060000000200000000000000000020C000000000002062C0000000000000
310
1840000000E07AB61BC00000000000A061C000000000000018400C00000013000000020100003C0000000600000002000000000000E07AB61BC00000000000A061C00000000000002840000000E07AB61BC00000000000A061C000000000000018400C000000130000000A0100003C00000006000000020000000000000000
310
0010C0000000404C4261C00000000000002840000000E07AB61BC00000000000A061C000000000000018400C00000013000000120100003C000000060000000200000000000000000010C0000000404C4261C00000000000002840000000E07AB61BC00000000000A061C000000000000028400C000000130000001A010000
310
3C0000000600000002000000000000E07AB61BC00000000000A061C0000000000000184000000000000010C0000000404C4261C000000000000018400C00000013000000220100003C000000060000000200000000000000000010C0000000404C4261C0000000000000284000000000000010C0000000404C4261C0000000
310
00000018400C000000130000002A0100003C000000060000000200000000000060621A11BD00000000002061C0000000000000284000000000000010C0000000404C4261C000000000000018400C00000013000000320100003C000000060000000200000000000060621A11BD00000000002061C000000000000028400000
310
0000000010C0000000404C4261C000000000000028400C000000130000003A0100003C000000060000000200000000000000000010C0000000404C4261C0000000000000184000000040274F13BD00000000002061C000000000000018400C00000013000000420100003C000000060000000200000000000060621A11BD00
310
000000002061C0000000000000284000000040274F13BD00000000002061C000000000000018400C000000130000004A0100003C00000006000000020000000000000000001040000000404C4261C0000000000000284000000040274F13BD00000000002061C000000000000018400C00000013000000520100003C000000
310
06000000020000000000000000001040000000404C4261C0000000000000284000000060621A11BD00000000002061C000000000000028400C000000130000005A0100003C000000060000000200000000000040274F13BD00000000002061C000000000000018400000000000001040000000404C4261C000000000000018
310
400C00000013000000620100003C00000006000000020000000000000000001040000000404C4261C000000000000028400000000000001040000000404C4261C000000000000018400C000000130000006A0100003C0000000600000002000000000000E07AB61B400000000000A061C00000000000002840000000000000
310
1040000000404C4261C000000000000018400C00000013000000720100003C0000000600000002000000000000E07AB61B400000000000A061C000000000000028400000000000001040000000404C4261C000000000000028400C000000130000007A0100003C00000006000000020000000000000000001040000000404C
310
4261C00000000000001840000000E07AB61B400000000000A061C000000000000018400C00000013000000820100003C0000000600000002000000000000E07AB61B4000000000004059C00000000000002840000000E07AB61B4000000000004059C000000000000018400C000000130000008A0100003C00000006000000
310
0200000000000000000020400000000000405AC00000000000002840000000E07AB61B4000000000004059C000000000000018400C00000013000000920100003C000000060000000200000000000000000020400000000000405AC00000000000002840000000E07AB61B4000000000004059C000000000000028400C0000
310
00130000009A0100003C000000060000000200000000000000000020400000000000405AC00000000000001840000000E07AB61B4000000000004059C000000000000018400C00000013000000A20100003C000000060000000200000000000000000020400000000000405AC0000000000000284000000000000020400000
310
000000405AC000000000000018400C00000013000000AA0100003C0000000600000002000000000000E07AB61B400000000000405BC0000000000000284000000000000020400000000000405AC000000000000018400C00000013000000B20100003C000000060000000200000000000000000020400000000000405AC000
310
00000000002840000000E07AB61B400000000000405BC000000000000028400C00000013000000BA0100003C000000060000000200000000000000000020400000000000405AC00000000000001840000000E07AB61B400000000000405BC000000000000018400C00000013000000C20100003C0000000600000002000000
310
000000E07AB61B400000000000405BC00000000000002840000000E07AB61B400000000000405BC000000000000018400C00000013000000CA0100003C00000006000000020000000000000000001040000000C067FB5BC00000000000002840000000E07AB61B400000000000405BC000000000000018400C000000130000
310
00D20100003C00000006000000020000000000000000001040000000C067FB5BC00000000000002840000000E07AB61B400000000000405BC000000000000028400C00000013000000DA0100003C0000000600000002000000000000E07AB61B400000000000405BC000000000000018400000000000001040000000C067FB
310
5BC000000000000018400C00000013000000E20100003C00000006000000020000000000000000001040000000C067FB5BC000000000000028400000000000001040000000C067FB5BC000000000000018400C00000013000000EA0100003C000000060000000200000000000000000010BD0000000000405CC00000000000
310
0028400000000000001040000000C067FB5BC000000000000018400C00000013000000F20100003C000000060000000200000000000000000010BD0000000000405CC000000000000028400000000000001040000000C067FB5BC000000000000028400C00000013000000FA0100003C000000060000000200000000000000
310
00001040000000C067FB5BC000000000000018400000008076960BBD0000000000405CC000000000000018400C00000013000000020200003C000000060000000200000000000000000010BD0000000000405CC000000000000028400000008076960BBD0000000000405CC000000000000018400C000000130000000A0200
310
003C000000060000000200000000000000000010C0000000C067FB5BC000000000000028400000008076960BBD0000000000405CC000000000000018400C00000013000000120200003C000000060000000200000000000000000010C0000000C067FB5BC0000000000000284000000000000010BD0000000000405CC00000
310
0000000028400C000000130000001A0200003C00000006000000020000000000008076960BBD0000000000405CC0000000000000184000000000000010C0000000C067FB5BC000000000000018400C00000013000000220200003C000000060000000200000000000000000010C0000000C067FB5BC0000000000000284000
310
000000000010C0000000C067FB5BC000000000000018400C000000130000002A0200003C0000000600000002000000000000E07AB61BC00000000000405BC0000000000000284000000000000010C0000000C067FB5BC000000000000018400C00000013000000320200003C0000000600000002000000000000E07AB61BC0
310
0000000000405BC0000000000000284000000000000010C0000000C067FB5BC000000000000028400C000000130000003A0200003C000000060000000200000000000000000010C0000000C067FB5BC00000000000001840000000E07AB61BC00000000000405BC000000000000018400C00000013000000420200003C0000
310
000600000002000000000000E07AB61BC00000000000405BC00000000000002840000000E07AB61BC00000000000405BC000000000000018400C000000130000004A0200003C000000060000000200000000000000000020C00000000000405AC00000000000002840000000E07AB61BC00000000000405BC0000000000000
310
18400C00000013000000520200003C000000060000000200000000000000000020C00000000000405AC00000000000002840000000E07AB61BC00000000000405BC000000000000028400C000000130000005A0200003C0000000600000002000000000000E07AB61BC00000000000405BC000000000000018400000000000
310
0020C00000000000405AC000000000000018400C00000013000000620200003C000000060000000200000000000000000020C00000000000405AC0000000000000284000000000000020C00000000000405AC000000000000018400C000000130000006A0200003C0000000600000002000000000000E07AB61BC000000000
310
004059C0000000000000284000000000000020C00000000000405AC000000000000018400C00000013000000720200003C0000000600000002000000000000E07AB61BC000000000004059C0000000000000284000000000000020C00000000000405AC000000000000028400C000000130000007A0200003C000000060000
310
000200000000000000000020C00000000000405AC00000000000001840000000E07AB61BC000000000004059C000000000000018400C00000013000000820200003C0000000600000002000000000000E07AB61BC000000000004059C00000000000002840000000E07AB61BC000000000004059C000000000000018400C00
310
0000130000008A0200003C000000060000000200000000000000000010C000000060988458C00000000000002840000000E07AB61BC000000000004059C000000000000018400C00000013000000920200003C000000060000000200000000000000000010C000000060988458C00000000000002840000000E07AB61BC000
310
000000004059C000000000000028400C000000130000009A0200003C0000000600000002000000000000E07AB61BC000000000004059C0000000000000184000000000000010C000000060988458C000000000000018400C00000013000000A20200003C000000060000000200000000000000000010C000000060988458C0
310
000000000000284000000000000010C000000060988458C000000000000018400C00000013000000AA0200003C0000000600000002000000000000E0EC2C07BD00000000004058C0000000000000284000000000000010C000000060988458C000000000000018400C00000013000000B20200003C00000006000000020000
310
00000000E0EC2C07BD00000000004058C0000000000000284000000000000010C000000060988458C000000000000028400C00000013000000BA0200003C000000060000000200000000000000000010C000000060988458C000000000000018400000008076960BBD00000000004058C000000000000018400C0000001300
310
0000C20200003C0000000600000002000000000000E0EC2C07BD00000000004058C000000000000028400000008076960BBD00000000004058C000000000000018400C00000013000000CA0200003C0000000600000002000000000000000000104000000060988458C000000000000028400000008076960BBD0000000000
310
4058C000000000000018400C00000013000000D20200003C0000000600000002000000000000000000104000000060988458C00000000000002840000000E0EC2C07BD00000000004058C000000000000028400C00000013000000DA0200003C00000006000000020000000000008076960BBD00000000004058C000000000
310
00001840000000000000104000000060988458C000000000000018400C00000013000000E20200003C0000000600000002000000000000000000104000000060988458C00000000000002840000000000000104000000060988458C000000000000018400C00000013000000EA0200003C0000000600000002000000000000
310
E07AB61B4000000000004059C00000000000002840000000000000104000000060988458C000000000000018400C00000013000000F20200003C0000000600000002000000000000E07AB61B4000000000004059C00000000000002840000000000000104000000060988458C000000000000028400C00000013000000FA02
310
00003C0000000600000002000000000000000000104000000060988458C00000000000001840000000E07AB61B4000000000004059C000000000000018400C00000013000000020300003C000000060000000200000000000000002072400000000000406FC000000000000028400000000000C072400000000000406FC000
310
000000000022400C000000130000000A0300003C00000006000000020000000000000000C072400000000000406FC000000000000022400000000000207240000000000000000000000000000028400C00000013000000120300003C000000060000000200000000000000002072400000000000406FC00000000000002840
310
0000000000207240000000000000000000000000000028400C000000130000001A0300003C00000006000000020000000000000000C072400000000000406FC000000000000022400000000000C07240000000000000000000000000000022400C00000013000000220300003C00000006000000020000000000000000C072
310
40000000000000000000000000000022400000000000207240000000000000000000000000000028400C000000130000002A0300003C0000000600000002000000000000000000204000000000002062C0000000000000284000000000002072400000000000406FC000000000000028400C00000013000000320300003C00
310
00000600000002000000000000E07AB61B400000000000A061C0000000000000284000000000002072400000000000406FC000000000000028400C000000130000003A0300003C0000000600000002000000000000E07AB61B400000000000A062C0000000000000284000000000002072400000000000406FC00000000000
310
0028400C00000013000000420300003C00000006000000020000000000000000001040000000E0B3FD62C0000000000000284000000000002072400000000000406FC000000000000028400C000000130000004A0300003C0000000600000002000000000000E0EB8315BD00000000002063C0000000000000284000000000
310
002072400000000000406FC000000000000028400C00000013000000520300003C0000000600000002000000000000E0EB8315BD00000000002063C0000000000000284000000000002072C00000000000406FC000000000000028400C000000130000005A0300003C00000006000000020000000000000000207240000000
310
0000406FC0000000000000284000000000002072C00000000000406FC000000000000028400C00000013000000620300003C000000060000000200000000000000000010C0000000E0B3FD62C0000000000000284000000000002072C00000000000406FC000000000000028400C000000130000006A0300003C0000000600
310
000002000000000000E07AB61BC00000000000A062C0000000000000284000000000002072C00000000000406FC000000000000028400C00000013000000720300003C000000060000000200000000000000000020C000000000002062C0000000000000284000000000002072C00000000000406FC000000000000028400C
310
000000130000007A0300003C0000000600000002000000000000E07AB61BC00000000000A061C0000000000000284000000000002072C00000000000406FC000000000000028400C00000013000000820300003C0000000600000002000000000000E07AB61BC00000000000A061C0000000000000284000000000002072C0
310
000000000000000000000000000028400C000000130000008A0300003C000000060000000200000000000000002072C00000000000000000000000000000284000000000002072C00000000000406FC000000000000028400C00000013000000920300003C0000000600000002000000000000E07AB61BC00000000000A061
310
C00000000000002840000000E07AB61BC00000000000405BC000000000000028400C000000130000009A0300003C0000000600000002000000000000E07AB61BC00000000000405BC0000000000000284000000000002072C0000000000000000000000000000028400C00000013000000A20300003C000000060000000200
310
000000000000000020C00000000000405AC0000000000000284000000000002072C0000000000000000000000000000028400C00000013000000AA0300003C0000000600000002000000000000E07AB61BC00000000000A061C0000000000000284000000000000010C0000000C067FB5BC000000000000028400C00000013
310
000000B20300003C000000060000000200000000000000000010C0000000404C4261C0000000000000284000000000000010C0000000C067FB5BC000000000000028400C00000013000000BA0300003C000000060000000200000000000060621A11BD00000000002061C0000000000000284000000000000010C0000000C0
310
67FB5BC000000000000028400C00000013000000C20300003C00000006000000020000000000000000001040000000404C4261C000000000000028400000000000001040000000C067FB5BC000000000000028400C00000013000000CA0300003C000000060000000200000000000060621A11BD00000000002061C0000000
310
00000028400000000000001040000000C067FB5BC000000000000028400C00000013000000D20300003C000000060000000200000000000060621A11BD00000000002061C0000000000000284000000000000010BD0000000000405CC000000000000028400C00000013000000DA0300003C00000006000000020000000000
310
00E07AB61B400000000000A061C000000000000028400000000000001040000000C067FB5BC000000000000028400C00000013000000E20300003C0000000600000002000000000000E07AB61B400000000000A061C00000000000002840000000E07AB61B400000000000405BC000000000000028400C00000013000000EA
310
0300003C0000000600000002000000000000E07AB61B400000000000A061C000000000000028400000000000207240000000000000000000000000000028400C00000013000000F20300003C0000000600000002000000000000E07AB61B400000000000405BC0000000000000284000000000002072400000000000000000
310
00000000000028400C00000013000000FA0300003C000000060000000200000000000000000020400000000000405AC000000000000028400000000000207240000000000000000000000000000028400C00000013000000020400003C0000000600000002000000000000E07AB61B4000000000004059C000000000000028
310
400000000000207240000000000000000000000000000028400C000000130000000A0400003C0000000600000002000000000000000000104000000060988458C000000000000028400000000000207240000000000000000000000000000028400C00000013000000120400003C0000000600000002000000000000E0EC2C
310
07BD00000000004058C000000000000028400000000000207240000000000000000000000000000028400C000000130000001A0400003C000000060000000200000000000000002072400000000000000000000000000000284000000000002072C0000000000000000000000000000028400C00000013000000220400003C
310
0000000600000002000000000000E0EC2C07BD00000000004058C0000000000000284000000000002072C0000000000000000000000000000028400C000000130000002A0400003C000000060000000200000000000000000010C000000060988458C0000000000000284000000000002072C0000000000000000000000000
310
000028400C00000013000000320400003C0000000600000002000000000000E07AB61BC000000000004059C0000000000000284000000000002072C0000000000000000000000000000028400C000000130000003A0400003C00000006000000020000000000000000C072400000000000406FC00000000000002240000000
310
00002072C00000000000406FC000000000000028400C00000013000000420400003C000000060000000200000000000000002072C00000000000406FC000000000000028400000000000C072C00000000000406FC000000000000022400C000000130000004A0400003C00000006000000020000000000000000C072400000
310
000000406FC000000000000022400000000000C072C00000000000406FC000000000000022400C00000013000000520400003C00000006000000020000000000000000C072C00000000000406FC000000000000022400000000000C072C00000000000406FC000000000000018400C000000130000005A0400003C00000006
310
000000020000000000000000C072400000000000406FC000000000000022400000000000C072C00000000000406FC000000000000018400C00000013000000620400003C00000006000000020000000000000000C072C00000000000406FC000000000000018400000000000C072400000000000406FC00000000000001840
310
0C000000130000006A0400003C00000006000000020000000000000000C072400000000000406FC000000000000022400000000000C072400000000000406FC000000000000018400C00000013000000720400003C000000060000000200000000000000002072C0000000000000000000000000000028400000000000C072
310
C0000000000000000000000000000022400C000000130000007A0400003C000000060000000200000000000000002072C00000000000406FC000000000000028400000000000C072C0000000000000000000000000000022400C00000013000000820400003C00000006000000020000000000000000C072C0000000000040
310
6FC000000000000022400000000000C072C0000000000000000000000000000022400C000000130000008A0400003C0000000600000002000000000000000000204000000000002062C000000000000018400000000000C072400000000000406FC000000000000018400C00000013000000920400003C0000000600000002
310
000000000000E07AB61B400000000000A062C000000000000018400000000000C072400000000000406FC000000000000018400C000000130000009A0400003C0000000600000002000000000000E07AB61B400000000000A061C000000000000018400000000000C072400000000000406FC000000000000018400C000000
310
13000000A20400003C0000000600000002000000000000E07AB61B400000000000A061C000000000000018400000000000C07240000000000000000000000000000018400C00000013000000AA0400003C00000006000000020000000000000000C072400000000000406FC000000000000018400000000000C07240000000
310
000000000000000000000018400C00000013000000B20400003C0000000600000002000000000000E07AB61B400000000000A061C00000000000001840000000E07AB61B400000000000405BC000000000000018400C00000013000000BA0400003C0000000600000002000000000000E07AB61B400000000000405BC00000
310
0000000018400000000000C07240000000000000000000000000000018400C00000013000000C20400003C000000060000000200000000000000000020400000000000405AC000000000000018400000000000C07240000000000000000000000000000018400C00000013000000CA0400003C000000060000000200000000
310
0000E07AB61B400000000000A061C000000000000018400000000000001040000000C067FB5BC000000000000018400C00000013000000D20400003C00000006000000020000000000000000001040000000404C4261C000000000000018400000000000001040000000C067FB5BC000000000000018400C00000013000000
310
DA0400003C000000060000000200000000000040274F13BD00000000002061C000000000000018400000000000001040000000C067FB5BC000000000000018400C00000013000000E20400003C000000060000000200000000000000000010C0000000404C4261C0000000000000184000000000000010C0000000C067FB5B
310
C000000000000018400C00000013000000EA0400003C000000060000000200000000000040274F13BD00000000002061C0000000000000184000000000000010C0000000C067FB5BC000000000000018400C00000013000000F20400003C000000060000000200000000000040274F13BD00000000002061C0000000000000
310
18400000008076960BBD0000000000405CC000000000000018400C00000013000000FA0400003C0000000600000002000000000000E07AB61BC00000000000A061C0000000000000184000000000000010C0000000C067FB5BC000000000000018400C00000013000000020500003C0000000600000002000000000000E07A
310
B61BC00000000000A061C00000000000001840000000E07AB61BC00000000000405BC000000000000018400C000000130000000A0500003C0000000600000002000000000000E07AB61BC00000000000A061C000000000000018400000000000C072C0000000000000000000000000000018400C0000001300000012050000
310
3C0000000600000002000000000000E07AB61BC00000000000405BC000000000000018400000000000C072C0000000000000000000000000000018400C000000130000001A0500003C000000060000000200000000000000000020C00000000000405AC000000000000018400000000000C072C00000000000000000000000
310
00000018400C00000013000000220500003C0000000600000002000000000000E07AB61BC000000000004059C000000000000018400000000000C072C0000000000000000000000000000018400C000000130000002A0500003C000000060000000200000000000000000010C000000060988458C000000000000018400000
310
000000C072C0000000000000000000000000000018400C00000013000000320500003C00000006000000020000000000008076960BBD00000000004058C000000000000018400000000000C072C0000000000000000000000000000018400C000000130000003A0500003C00000006000000020000000000000000C0724000
310
0000000000000000000000000018400000000000C072C0000000000000000000000000000018400C00000013000000420500003C00000006000000020000000000008076960BBD00000000004058C000000000000018400000000000C07240000000000000000000000000000018400C000000130000004A0500003C000000
310
0600000002000000000000000000104000000060988458C000000000000018400000000000C07240000000000000000000000000000018400C00000013000000520500003C0000000600000002000000000000E07AB61B4000000000004059C000000000000018400000000000C07240000000000000000000000000000018
310
400C000000130000005A0500003C0000000600000002000000000000E07AB61BC00000000000A061C000000000000018400000000000C072C00000000000406FC000000000000018400C00000013000000620500003C00000006000000020000000000000000C072C00000000000406FC000000000000018400000000000C0
310
72C0000000000000000000000000000018400C000000130000006A0500003C000000060000000200000000000000000020C000000000002062C000000000000018400000000000C072C00000000000406FC000000000000018400C00000013000000720500003C0000000600000002000000000000E07AB61BC00000000000
310
A062C000000000000018400000000000C072C00000000000406FC000000000000018400C000000130000007A0500003C000000060000000200000000000000000010C0000000E0B3FD62C000000000000018400000000000C072C00000000000406FC000000000000018400C00000013000000820500003C00000006000000
310
0200000000000040274F13BD00000000002063C000000000000018400000000000C072C00000000000406FC000000000000018400C000000130000008A0500003C000000060000000200000000000040274F13BD00000000002063C000000000000018400000000000C072400000000000406FC000000000000018400C0000
310
0013000000920500003C00000006000000020000000000000000001040000000E0B3FD62C000000000000018400000000000C072400000000000406FC000000000000018400C000000130000009A0500003C00000006000000020000000000000000C072400000000000000000000000000000224000000000002072C00000
310
00000000000000000000000028400C00000013000000A20500003C00000006000000020000000000000000C07240000000000000000000000000000022400000000000C072C0000000000000000000000000000022400C00000013000000AA0500003C00000006000000020000000000000000C07240000000000000000000
310
000000000022400000000000C072C0000000000000000000000000000018400C00000013000000B20500003C00000006000000020000000000000000C072C0000000000000000000000000000022400000000000C072C0000000000000000000000000000018400C00000013000000BA0500003C0000000600000002000000
310
0000000000C07240000000000000000000000000000022400000000000C07240000000000000000000000000000018400C00000013000000C20500003C00000006000000020000000000000000C072C00000000000406FC000000000000022400000000000C072C0000000000000000000000000000018400C000000130000
310
00CA0500003C00000006000000020000000000000000C07240000000000000000000000000000022400000000000C072400000000000406FC000000000000018400C00000013000000D20500003C0000000600000002000000000000000090724000000000000008C000000000000018400000000000A06D40000000000000
310
08C000000000000018400C00000013000000DA0500003C000000060000000200000000000000009072400000000000804FC000000000000018400000000000A06D4000000000000008C000000000000018400C00000013000000E20500003C000000060000000200000000000000009072400000000000804FC00000000000
310
001840000000000090724000000000000008C000000000000018400C00000013000000EA0500003C00000006000000020000000000000000A06D4000000000000008C000000000000018400000000000A06D400000000000804FC000000000000018400C00000013000000F20500003C000000060000000200000000000000
310
009072400000000000804FC000000000000018400000000000A06D400000000000804FC000000000000018400C00000013000000FA0500003C000000060000000200000000000000009072400000000000804FC000000000000000000000000000A06D400000000000804FC000000000000000000C00000013000000020600
310
003C0000000600000002000000000000000090724000000000000008C000000000000000000000000000A06D400000000000804FC000000000000000000C000000130000000A0600003C0000000600000002000000000000000090724000000000000008C0000000000000000000000000009072400000000000804FC00000
310
0000000000000C00000013000000120600003C00000006000000020000000000000000A06D400000000000804FC000000000000000000000000000A06D4000000000000008C000000000000000000C000000130000001A0600003C0000000600000002000000000000000090724000000000000008C0000000000000000000
310
00000000A06D4000000000000008C000000000000000000C00000013000000220600003C00000006000000020000000000000000A06D4000000000000008C000000000000018400000000000A06D4000000000000008C000000000000000000C000000130000002A0600003C00000006000000020000000000000000A06D40
310
00000000000008C00000000000001840000000000090724000000000000008C000000000000000000C00000013000000320600003C0000000600000002000000000000000090724000000000000008C00000000000001840000000000090724000000000000008C000000000000000000C000000130000003A0600003C0000
310
0006000000020000000000000000A06D400000000000804FC000000000000018400000000000A06D400000000000804FC000000000000000000C00000013000000420600003C00000006000000020000000000000000A06D400000000000804FC000000000000018400000000000A06D4000000000000008C0000000000000
310
00000C000000130000004A0600003C000000060000000200000000000000009072400000000000804FC0000000000000184000000000009072400000000000804FC000000000000000000C00000013000000520600003C000000060000000200000000000000009072400000000000804FC000000000000018400000000000
310
A06D400000000000804FC000000000000000000C000000130000005A0600003C0000000600000002000000000000000090724000000000000008C0000000000000184000000000009072400000000000804FC000000000000000000C00000013000000620600003C0000000600000002000000000000000090724000000000
310
006067C000000000000018400000000000A06D4000000000006067C000000000000018400C000000130000006A0600003C000000060000000200000000000000009072400000000000E06EC000000000000018400000000000A06D4000000000006067C000000000000018400C00000013000000720600003C000000060000
310
000200000000000000009072400000000000E06EC00000000000001840000000000090724000000000006067C000000000000018400C000000130000007A0600003C00000006000000020000000000000000A06D4000000000006067C000000000000018400000000000A06D400000000000E06EC000000000000018400C00
310
000013000000820600003C000000060000000200000000000000009072400000000000E06EC000000000000018400000000000A06D400000000000E06EC000000000000018400C000000130000008A0600003C000000060000000200000000000000009072400000000000E06EC000000000000000000000000000A06D4000
310
00000000E06EC000000000000000000C00000013000000920600003C0000000600000002000000000000000090724000000000006067C000000000000000000000000000A06D400000000000E06EC000000000000000000C000000130000009A0600003C0000000600000002000000000000000090724000000000006067C0
310
000000000000000000000000009072400000000000E06EC000000000000000000C00000013000000A20600003C00000006000000020000000000000000A06D400000000000E06EC000000000000000000000000000A06D4000000000006067C000000000000000000C00000013000000AA0600003C00000006000000020000
310
00000000000090724000000000006067C000000000000000000000000000A06D4000000000006067C000000000000000000C00000013000000B20600003C00000006000000020000000000000000A06D4000000000006067C000000000000018400000000000A06D4000000000006067C000000000000000000C0000001300
310
0000BA0600003C00000006000000020000000000000000A06D4000000000006067C00000000000001840000000000090724000000000006067C000000000000000000C00000013000000C20600003C0000000600000002000000000000000090724000000000006067C0000000000000184000000000009072400000000000
310
6067C000000000000000000C00000013000000CA0600003C00000006000000020000000000000000A06D400000000000E06EC000000000000018400000000000A06D400000000000E06EC000000000000000000C00000013000000D20600003C00000006000000020000000000000000A06D400000000000E06EC000000000
310
000018400000000000A06D4000000000006067C000000000000000000C00000013000000DA0600003C000000060000000200000000000000009072400000000000E06EC0000000000000184000000000009072400000000000E06EC000000000000000000C00000013000000E20600003C0000000600000002000000000000
310
00009072400000000000E06EC000000000000018400000000000A06D400000000000E06EC000000000000000000C00000013000000EA0600003C0000000600000002000000000000000090724000000000006067C0000000000000184000000000009072400000000000E06EC000000000000000000C00000013000000F206
310
00003C00000006000000020000000000000000A06DC000000000000008C0000000000000184000000000009072C000000000000008C000000000000018400C00000013000000FA0600003C00000006000000020000000000000000A06DC00000000000804FC0000000000000184000000000009072C000000000000008C000
310
000000000018400C00000013000000020700003C00000006000000020000000000000000A06DC00000000000804FC000000000000018400000000000A06DC000000000000008C000000000000018400C000000130000000A0700003C000000060000000200000000000000009072C000000000000008C00000000000001840
310
00000000009072C00000000000804FC000000000000018400C00000013000000120700003C00000006000000020000000000000000A06DC00000000000804FC0000000000000184000000000009072C00000000000804FC000000000000018400C000000130000001A0700003C00000006000000020000000000000000A06D
310
C00000000000804FC0000000000000000000000000009072C00000000000804FC000000000000000000C00000013000000220700003C00000006000000020000000000000000A06DC000000000000008C0000000000000000000000000009072C00000000000804FC000000000000000000C000000130000002A0700003C00
310
000006000000020000000000000000A06DC000000000000008C000000000000000000000000000A06DC00000000000804FC000000000000000000C00000013000000320700003C000000060000000200000000000000009072C00000000000804FC0000000000000000000000000009072C000000000000008C00000000000
310
0000000C000000130000003A0700003C00000006000000020000000000000000A06DC000000000000008C0000000000000000000000000009072C000000000000008C000000000000000000C00000013000000420700003C000000060000000200000000000000009072C000000000000008C0000000000000184000000000
310
009072C000000000000008C000000000000000000C000000130000004A0700003C000000060000000200000000000000009072C000000000000008C000000000000018400000000000A06DC000000000000008C000000000000000000C00000013000000520700003C00000006000000020000000000000000A06DC0000000
310
00000008C000000000000018400000000000A06DC000000000000008C000000000000000000C000000130000005A0700003C000000060000000200000000000000009072C00000000000804FC0000000000000184000000000009072C00000000000804FC000000000000000000C00000013000000620700003C0000000600
310
00000200000000000000009072C00000000000804FC0000000000000184000000000009072C000000000000008C000000000000000000C000000130000006A0700003C00000006000000020000000000000000A06DC00000000000804FC000000000000018400000000000A06DC00000000000804FC000000000000000000C
310
00000013000000720700003C00000006000000020000000000000000A06DC00000000000804FC0000000000000184000000000009072C00000000000804FC000000000000000000C000000130000007A0700003C00000006000000020000000000000000A06DC000000000000008C000000000000018400000000000A06DC0
310
0000000000804FC000000000000000000C00000013000000820700003C00000006000000020000000000000000A06DC000000000006067C0000000000000184000000000009072C000000000006067C000000000000018400C000000130000008A0700003C00000006000000020000000000000000A06DC00000000000E06E
310
C0000000000000184000000000009072C000000000006067C000000000000018400C00000013000000920700003C00000006000000020000000000000000A06DC00000000000E06EC000000000000018400000000000A06DC000000000006067C000000000000018400C000000130000009A0700003C000000060000000200
310
000000000000009072C000000000006067C0000000000000184000000000009072C00000000000E06EC000000000000018400C00000013000000A20700003C00000006000000020000000000000000A06DC00000000000E06EC0000000000000184000000000009072C00000000000E06EC000000000000018400C00000013
310
000000AA0700003C00000006000000020000000000000000A06DC00000000000E06EC0000000000000000000000000009072C00000000000E06EC000000000000000000C00000013000000B20700003C00000006000000020000000000000000A06DC000000000006067C0000000000000000000000000009072C000000000
310
00E06EC000000000000000000C00000013000000BA0700003C00000006000000020000000000000000A06DC000000000006067C000000000000000000000000000A06DC00000000000E06EC000000000000000000C00000013000000C20700003C000000060000000200000000000000009072C00000000000E06EC0000000
310
000000000000000000009072C000000000006067C000000000000000000C00000013000000CA0700003C00000006000000020000000000000000A06DC000000000006067C0000000000000000000000000009072C000000000006067C000000000000000000C00000013000000D20700003C00000006000000020000000000
310
0000009072C000000000006067C0000000000000184000000000009072C000000000006067C000000000000000000C00000013000000DA0700003C000000060000000200000000000000009072C000000000006067C000000000000018400000000000A06DC000000000006067C000000000000000000C00000013000000E2
310
0700003C00000006000000020000000000000000A06DC000000000006067C000000000000018400000000000A06DC000000000006067C000000000000000000C00000013000000EA0700003C000000060000000200000000000000009072C00000000000E06EC0000000000000184000000000009072C00000000000E06EC0
310
00000000000000000C00000013000000F20700003C000000060000000200000000000000009072C00000000000E06EC0000000000000184000000000009072C000000000006067C000000000000000000C00000013000000FA0700003C00000006000000020000000000000000A06DC00000000000E06EC000000000000018
310
400000000000A06DC00000000000E06EC000000000000000000C00000013000000020800003C00000006000000020000000000000000A06DC00000000000E06EC0000000000000184000000000009072C00000000000E06EC000000000000000000C000000130000000A0800003C00000006000000020000000000000000A0
310
6DC000000000006067C000000000000018400000000000A06DC00000000000E06EC000000000000000000C00000013000000120800003C000000060000000200000000000000000034400000000000001040000000000000000000000000000034C0000000000000104000000000000000000C000000130000001A0800003C
310
0000000600000002000000000000000000344000000000000010400000000000C0724000000000000034C0000000000000104000000000000000000C00000013000000220800003C0000000600000002000000000000000000344000000000000010400000000000C072400000000000003440000000000000104000000000
310
000000000C000000130000002A0800003C000000060000000200000000000000000034C00000000000001040000000000000000000000000000034C000000000000010400000000000C072400C00000013000000320800003C0000000600000002000000000000000000344000000000000010400000000000C07240000000
310
00000034C000000000000010400000000000C072400C000000130000003A0800003C0000000600000002000000000000000000344000000000000000000000000000C0724000000000000034C000000000000000000000000000C072400C00000013000000420800003C000000060000000200000000000000000034400000
310
000000000000000000000000000000000000000034C000000000000000000000000000C072400C000000130000004A0800003C0000000600000002000000000000000000344000000000000000000000000000000000000000000000344000000000000000000000000000C072400C00000013000000520800003C00000006
310
0000000200000000000000000034C000000000000000000000000000C0724000000000000034C0000000000000000000000000000000000C000000130000005A0800003C000000060000000200000000000000000034400000000000000000000000000000000000000000000034C000000000000000000000000000000000
310
0C00000013000000620800003C000000060000000200000000000000000034C00000000000001040000000000000000000000000000034C0000000000000000000000000000000000C000000130000006A0800003C000000060000000200000000000000000034C00000000000001040000000000000000000000000000034
310
40000000000000000000000000000000000C00000013000000720800003C00000006000000020000000000000000003440000000000000104000000000000000000000000000003440000000000000000000000000000000000C000000130000007A0800003C000000060000000200000000000000000034C0000000000000
310
10400000000000C0724000000000000034C000000000000000000000000000C072400C00000013000000820800003C000000060000000200000000000000000034C000000000000010400000000000C0724000000000000034C0000000000000000000000000000000000C000000130000008A0800003C0000000600000002
310
000000000000000000344000000000000010400000000000C07240000000000000344000000000000000000000000000C072400C00000013000000920800003C0000000600000002000000000000000000344000000000000010400000000000C0724000000000000034C000000000000000000000000000C072400C000000
310
130000009A0800003C0000000600000002000000000000000000344000000000000010400000000000000000000000000000344000000000000000000000000000C072400C00000013000000A20800003C0000000600000002000000000000E00C52214000000000000038400000000000405040000000E00C522140000000
310
000000104000000000004050400C00000013000000AA0800003C0000000600000002000000000000000000244000000000000038400000000000004E40000000E00C522140000000000000104000000000004050400C00000013000000B20800003C0000000600000002000000000000000000244000000000000038400000
310
000000004E40000000E00C522140000000000000384000000000004050400C00000013000000BA0800003C0000000600000002000000000000000000244000000000000010400000000000004E40000000E00C522140000000000000104000000000004050400C00000013000000C20800003C000000060000000200000000
310
0000000000244000000000000038400000000000004E40000000000000244000000000000010400000000000004E400C00000013000000CA0800003C0000000600000002000000000000E00C52214000000000000038400000000000804B40000000000000244000000000000010400000000000004E400C00000013000000
310
D20800003C0000000600000002000000000000000000244000000000000038400000000000004E40000000E00C52214000000000000038400000000000804B400C00000013000000DA0800003C0000000600000002000000000000000000244000000000000010400000000000004E40000000E00C52214000000000000010
310
400000000000804B400C00000013000000E20800003C0000000600000002000000000000E00C52214000000000000038400000000000804B40000000E00C52214000000000000010400000000000804B400C00000013000000EA0800003C000000060000000200000000000000000014400000000000003840000000C07CAB
310
4940000000E00C52214000000000000010400000000000804B400C00000013000000F20800003C000000060000000200000000000000000014400000000000003840000000C07CAB4940000000E00C52214000000000000038400000000000804B400C00000013000000FA0800003C0000000600000002000000000000E00C
310
52214000000000000010400000000000804B4000000000000014400000000000001040000000C07CAB49400C00000013000000020900003C000000060000000200000000000000000014400000000000003840000000C07CAB494000000000000014400000000000001040000000C07CAB49400C000000130000000A090000
310
3C0000000600000002000000000000404AF885BD0000000000003840000000000000494000000000000014400000000000001040000000C07CAB49400C00000013000000120900003C0000000600000002000000000000404AF885BD0000000000003840000000000000494000000000000014400000000000003840000000
310
C07CAB49400C000000130000001A0900003C000000060000000200000000000000000014400000000000001040000000C07CAB494000000040CEFD85BD000000000000104000000000000049400C00000013000000220900003C0000000600000002000000000000404AF885BD000000000000384000000000000049400000
310
0040CEFD85BD000000000000104000000000000049400C000000130000002A0900003C000000060000000200000000000000000014C00000000000003840000000C07CAB494000000040CEFD85BD000000000000104000000000000049400C00000013000000320900003C000000060000000200000000000000000014C000
310
00000000003840000000C07CAB4940000000404AF885BD000000000000384000000000000049400C000000130000003A0900003C000000060000000200000000000040CEFD85BD0000000000001040000000000000494000000000000014C00000000000001040000000C07CAB49400C00000013000000420900003C000000
310
060000000200000000000000000014C00000000000003840000000C07CAB494000000000000014C00000000000001040000000C07CAB49400C000000130000004A0900003C0000000600000002000000000000E00C5221C000000000000038400000000000804B4000000000000014C00000000000001040000000C07CAB49
310
400C00000013000000520900003C0000000600000002000000000000E00C5221C000000000000038400000000000804B4000000000000014C00000000000003840000000C07CAB49400C000000130000005A0900003C000000060000000200000000000000000014C00000000000001040000000C07CAB4940000000E00C52
310
21C000000000000010400000000000804B400C00000013000000620900003C0000000600000002000000000000E00C5221C000000000000038400000000000804B40000000E00C5221C000000000000010400000000000804B400C000000130000006A0900003C000000060000000200000000000000000024C00000000000
310
0038400000000000004E40000000E00C5221C000000000000010400000000000804B400C00000013000000720900003C000000060000000200000000000000000024C000000000000038400000000000004E40000000E00C5221C000000000000038400000000000804B400C000000130000007A0900003C00000006000000
310
02000000000000E00C5221C000000000000010400000000000804B4000000000000024C000000000000010400000000000004E400C00000013000000820900003C000000060000000200000000000000000024C000000000000038400000000000004E4000000000000024C000000000000010400000000000004E400C0000
310
00130000008A0900003C0000000600000002000000000000E00C5221C00000000000003840000000000040504000000000000024C000000000000010400000000000004E400C00000013000000920900003C0000000600000002000000000000E00C5221C00000000000003840000000000040504000000000000024C00000
310
0000000038400000000000004E400C000000130000009A0900003C000000060000000200000000000000000024C000000000000010400000000000004E40000000E00C5221C0000000000000104000000000004050400C00000013000000A20900003C0000000600000002000000000000E00C5221C0000000000000384000
310
00000000405040000000E00C5221C0000000000000104000000000004050400C00000013000000AA0900003C000000060000000200000000000000000014C00000000000003840000000C0412A5140000000E00C5221C0000000000000104000000000004050400C00000013000000B20900003C0000000600000002000000
310
00000000000014C00000000000003840000000C0412A5140000000E00C5221C0000000000000384000000000004050400C00000013000000BA0900003C0000000600000002000000000000E00C5221C00000000000001040000000000040504000000000000014C00000000000001040000000C0412A51400C000000130000
310
00C20900003C000000060000000200000000000000000014C00000000000003840000000C0412A514000000000000014C00000000000001040000000C0412A51400C00000013000000CA0900003C0000000600000002000000000000404AF885BD0000000000003840000000000080514000000000000014C0000000000000
310
1040000000C0412A51400C00000013000000D20900003C0000000600000002000000000000404AF885BD0000000000003840000000000080514000000000000014C00000000000003840000000C0412A51400C00000013000000DA0900003C000000060000000200000000000000000014C00000000000001040000000C041
310
2A514000000040CEFD85BD000000000000104000000000008051400C00000013000000E20900003C0000000600000002000000000000404AF885BD0000000000003840000000000080514000000040CEFD85BD000000000000104000000000008051400C00000013000000EA0900003C000000060000000200000000000000
310
000014400000000000003840000000C0412A514000000040CEFD85BD000000000000104000000000008051400C00000013000000F20900003C000000060000000200000000000000000014400000000000003840000000C0412A5140000000404AF885BD000000000000384000000000008051400C00000013000000FA0900
310
003C000000060000000200000000000040CEFD85BD0000000000001040000000000080514000000000000014400000000000001040000000C0412A51400C00000013000000020A00003C000000060000000200000000000000000014400000000000003840000000C0412A5140000000000000144000000000000010400000
310
00C0412A51400C000000130000000A0A00003C0000000600000002000000000000E00C5221400000000000003840000000000040504000000000000014400000000000001040000000C0412A51400C00000013000000120A00003C0000000600000002000000000000E00C5221400000000000003840000000000040504000
310
000000000014400000000000003840000000C0412A51400C000000130000001A0A00003C000000060000000200000000000000000014400000000000001040000000C0412A5140000000E00C522140000000000000104000000000004050400C00000013000000220A00003C0000000600000002000000000000E00C5221C0
310
00000000000038400000000000804B40000000E00C52214000000000000038400000000000804B400C000000130000002A0A00003C0000000600000002000000000000000000244000000000000038400000000000004E40000000E00C5221C000000000000038400000000000804B400C00000013000000320A00003C0000
310
000600000002000000000000000000244000000000000038400000000000004E4000000000000024C000000000000038400000000000004E400C000000130000003A0A00003C0000000600000002000000000000E00C5221400000000000003840000000000040504000000000000024C00000000000003840000000000000
310
4E400C00000013000000420A00003C0000000600000002000000000000E00C52214000000000000038400000000000405040000000E00C5221C0000000000000384000000000004050400C000000130000004A0A00003C000000060000000200000000000000000014400000000000003840000000C0412A5140000000E00C
310
5221C0000000000000384000000000004050400C00000013000000520A00003C000000060000000200000000000000000014400000000000003840000000C0412A514000000000000014C00000000000003840000000C0412A51400C000000130000005A0A00003C000000060000000200000000000000000014C000000000
310
00003840000000C07CAB4940000000E00C52214000000000000038400000000000804B400C00000013000000620A00003C000000060000000200000000000000000014C00000000000003840000000C07CAB494000000000000014400000000000003840000000C07CAB49400C000000130000006A0A00003C000000060000
310
0002000000000000E00C5221C000000000000010400000000000405040000000E00C522140000000000000104000000000004050400C00000013000000720A00003C0000000600000002000000000000000000244000000000000010400000000000004E40000000E00C5221C0000000000000104000000000004050400C00
310
0000130000007A0A00003C0000000600000002000000000000000000244000000000000010400000000000004E4000000000000024C000000000000010400000000000004E400C00000013000000820A00003C0000000600000002000000000000E00C52214000000000000010400000000000804B4000000000000024C000
310
000000000010400000000000004E400C000000130000008A0A00003C0000000600000002000000000000E00C52214000000000000010400000000000804B40000000E00C5221C000000000000010400000000000804B400C00000013000000920A00003C000000060000000200000000000000000014400000000000001040
310
000000C07CAB4940000000E00C5221C000000000000010400000000000804B400C000000130000009A0A00003C000000060000000200000000000000000014400000000000001040000000C07CAB494000000000000014C00000000000001040000000C07CAB49400C00000013000000A20A00003C00000006000000020000
310
0000000000000014C00000000000001040000000C0412A5140000000E00C522140000000000000104000000000004050400C00000013000000AA0A00003C000000060000000200000000000000000014C00000000000001040000000C0412A514000000000000014400000000000001040000000C0412A51400C0000001300
310
0000B20A00003C0000000600000002000000000000E00C52214000000000000038400000000000907040000000E00C522140000000000000104000000000009070400C00000013000000BA0A00003C0000000600000002000000000000000000244000000000000038400000000000407040000000E00C5221400000000000
310
00104000000000009070400C00000013000000C20A00003C0000000600000002000000000000000000244000000000000038400000000000407040000000E00C522140000000000000384000000000009070400C00000013000000CA0A00003C00000006000000020000000000000000002440000000000000104000000000
310
00407040000000E00C522140000000000000104000000000009070400C00000013000000D20A00003C00000006000000020000000000000000002440000000000000384000000000004070400000000000002440000000000000104000000000004070400C00000013000000DA0A00003C0000000600000002000000000000
310
E00C52214000000000000038400000000000E06F400000000000002440000000000000104000000000004070400C00000013000000E20A00003C0000000600000002000000000000000000244000000000000038400000000000407040000000E00C52214000000000000038400000000000E06F400C00000013000000EA0A
310
00003C0000000600000002000000000000000000244000000000000010400000000000407040000000E00C52214000000000000010400000000000E06F400C00000013000000F20A00003C0000000600000002000000000000E00C52214000000000000038400000000000E06F40000000E00C522140000000000000104000
310
00000000E06F400C00000013000000FA0A00003C00000006000000020000000000000000001440000000000000384000000060DF6A6F40000000E00C52214000000000000010400000000000E06F400C00000013000000020B00003C00000006000000020000000000000000001440000000000000384000000060DF6A6F40
310
000000E00C52214000000000000038400000000000E06F400C000000130000000A0B00003C0000000600000002000000000000E00C52214000000000000010400000000000E06F400000000000001440000000000000104000000060DF6A6F400C00000013000000120B00003C000000060000000200000000000000000014
310
40000000000000384000000060DF6A6F400000000000001440000000000000104000000060DF6A6F400C000000130000001A0B00003C0000000600000002000000000000404AF885BD00000000000038400000000000406F400000000000001440000000000000104000000060DF6A6F400C00000013000000220B00003C00
310
00000600000002000000000000404AF885BD00000000000038400000000000406F400000000000001440000000000000384000000060DF6A6F400C000000130000002A0B00003C00000006000000020000000000000000001440000000000000104000000060DF6A6F4000000040CEFD85BD00000000000010400000000000
310
406F400C00000013000000320B00003C0000000600000002000000000000404AF885BD00000000000038400000000000406F4000000040CEFD85BD00000000000010400000000000406F400C000000130000003A0B00003C000000060000000200000000000000000014C0000000000000384000000060DF6A6F4000000040
310
CEFD85BD00000000000010400000000000406F400C00000013000000420B00003C000000060000000200000000000000000014C0000000000000384000000060DF6A6F40000000404AF885BD00000000000038400000000000406F400C000000130000004A0B00003C000000060000000200000000000040CEFD85BD000000
310
00000010400000000000406F4000000000000014C0000000000000104000000060DF6A6F400C00000013000000520B00003C000000060000000200000000000000000014C0000000000000384000000060DF6A6F4000000000000014C0000000000000104000000060DF6A6F400C000000130000005A0B00003C0000000600
310
000002000000000000E00C5221C000000000000038400000000000E06F4000000000000014C0000000000000104000000060DF6A6F400C00000013000000620B00003C0000000600000002000000000000E00C5221C000000000000038400000000000E06F4000000000000014C0000000000000384000000060DF6A6F400C
310
000000130000006A0B00003C000000060000000200000000000000000014C0000000000000104000000060DF6A6F40000000E00C5221C000000000000010400000000000E06F400C00000013000000720B00003C0000000600000002000000000000E00C5221C000000000000038400000000000E06F40000000E00C5221C0
310
00000000000010400000000000E06F400C000000130000007A0B00003C000000060000000200000000000000000024C000000000000038400000000000407040000000E00C5221C000000000000010400000000000E06F400C00000013000000820B00003C000000060000000200000000000000000024C000000000000038
310
400000000000407040000000E00C5221C000000000000038400000000000E06F400C000000130000008A0B00003C0000000600000002000000000000E00C5221C000000000000010400000000000E06F4000000000000024C0000000000000104000000000004070400C00000013000000920B00003C000000060000000200
310
000000000000000024C00000000000003840000000000040704000000000000024C0000000000000104000000000004070400C000000130000009A0B00003C0000000600000002000000000000E00C5221C00000000000003840000000000090704000000000000024C0000000000000104000000000004070400C00000013
310
000000A20B00003C0000000600000002000000000000E00C5221C00000000000003840000000000090704000000000000024C0000000000000384000000000004070400C00000013000000AA0B00003C000000060000000200000000000000000024C000000000000010400000000000407040000000E00C5221C000000000
310
0000104000000000009070400C00000013000000B20B00003C0000000600000002000000000000E00C5221C000000000000038400000000000907040000000E00C5221C0000000000000104000000000009070400C00000013000000BA0B00003C000000060000000200000000000000000014C00000000000003840000000
310
6090CA7040000000E00C5221C0000000000000104000000000009070400C00000013000000C20B00003C000000060000000200000000000000000014C000000000000038400000006090CA7040000000E00C5221C0000000000000384000000000009070400C00000013000000CA0B00003C00000006000000020000000000
310
00E00C5221C00000000000001040000000000090704000000000000014C000000000000010400000006090CA70400C00000013000000D20B00003C000000060000000200000000000000000014C000000000000038400000006090CA704000000000000014C000000000000010400000006090CA70400C00000013000000DA
310
0B00003C0000000600000002000000000000404AF885BD00000000000038400000000000E0704000000000000014C000000000000010400000006090CA70400C00000013000000E20B00003C0000000600000002000000000000404AF885BD00000000000038400000000000E0704000000000000014C00000000000003840
310
0000006090CA70400C00000013000000EA0B00003C000000060000000200000000000000000014C000000000000010400000006090CA704000000040CEFD85BD00000000000010400000000000E070400C00000013000000F20B00003C0000000600000002000000000000404AF885BD00000000000038400000000000E070
310
4000000040CEFD85BD00000000000010400000000000E070400C00000013000000FA0B00003C0000000600000002000000000000000000144000000000000038400000006090CA704000000040CEFD85BD00000000000010400000000000E070400C00000013000000020C00003C0000000600000002000000000000000000
310
144000000000000038400000006090CA7040000000404AF885BD00000000000038400000000000E070400C000000130000000A0C00003C000000060000000200000000000040CEFD85BD00000000000010400000000000E07040000000000000144000000000000010400000006090CA70400C00000013000000120C00003C
310
0000000600000002000000000000000000144000000000000038400000006090CA7040000000000000144000000000000010400000006090CA70400C000000130000001A0C00003C0000000600000002000000000000E00C522140000000000000384000000000009070400000000000001440000000000000104000000060
310
90CA70400C00000013000000220C00003C0000000600000002000000000000E00C52214000000000000038400000000000907040000000000000144000000000000038400000006090CA70400C000000130000002A0C00003C0000000600000002000000000000000000144000000000000010400000006090CA7040000000
310
E00C522140000000000000104000000000009070400C00000013000000320C00003C0000000600000002000000000000E00C5221C000000000000038400000000000E06F40000000E00C52214000000000000038400000000000E06F400C000000130000003A0C00003C000000060000000200000000000000000024400000
310
0000000038400000000000407040000000E00C5221C000000000000038400000000000E06F400C00000013000000420C00003C000000060000000200000000000000000024400000000000003840000000000040704000000000000024C0000000000000384000000000004070400C000000130000004A0C00003C00000006
310
00000002000000000000E00C5221400000000000003840000000000090704000000000000024C0000000000000384000000000004070400C00000013000000520C00003C0000000600000002000000000000E00C52214000000000000038400000000000907040000000E00C5221C000000000000038400000000000907040
310
0C000000130000005A0C00003C0000000600000002000000000000000000144000000000000038400000006090CA7040000000E00C5221C0000000000000384000000000009070400C00000013000000620C00003C0000000600000002000000000000000000144000000000000038400000006090CA704000000000000014
310
C000000000000038400000006090CA70400C000000130000006A0C00003C000000060000000200000000000000000014C0000000000000384000000060DF6A6F40000000E00C52214000000000000038400000000000E06F400C00000013000000720C00003C000000060000000200000000000000000014C0000000000000
310
384000000060DF6A6F400000000000001440000000000000384000000060DF6A6F400C000000130000007A0C00003C0000000600000002000000000000E00C5221C000000000000010400000000000907040000000E00C522140000000000000104000000000009070400C00000013000000820C00003C0000000600000002
310
000000000000000000244000000000000010400000000000407040000000E00C5221C0000000000000104000000000009070400C000000130000008A0C00003C000000060000000200000000000000000024400000000000001040000000000040704000000000000024C0000000000000104000000000004070400C000000
310
13000000920C00003C0000000600000002000000000000E00C52214000000000000010400000000000E06F4000000000000024C0000000000000104000000000004070400C000000130000009A0C00003C0000000600000002000000000000E00C52214000000000000010400000000000E06F40000000E00C5221C0000000
310
00000010400000000000E06F400C00000013000000A20C00003C00000006000000020000000000000000001440000000000000104000000060DF6A6F40000000E00C5221C000000000000010400000000000E06F400C00000013000000AA0C00003C0000000600000002000000000000000000144000000000000010400000
310
0060DF6A6F4000000000000014C0000000000000104000000060DF6A6F400C00000013000000B20C00003C000000060000000200000000000000000014C000000000000010400000006090CA7040000000E00C522140000000000000104000000000009070400C00000013000000BA0C00003C000000060000000200000000
310
000000000014C000000000000010400000006090CA7040000000000000144000000000000010400000006090CA7040
100
AcDbSubDMesh
 71
     2
 72
     0
 91
        0
 92
      148
 10
8.0
 20
-145.0
 30
12.0
 10
6.928203105926513
 20
-141.0
 30
12.0
 10
4.0
 20
-138.0718078613281
 30
12.0
 10
-0.0000000000000152
 20
-137.0
 30
12.0
 10
-4.0
 20
-138.0718078613281
 30
12.0
 10
-6.928203105926513
 20
-141.0
 30
12.0
 10
-8.0
 20
-145.0
 30
12.0
 10
-6.928203105926513
 20
-149.0
 30
12.0
 10
-4.0
 20
-151.9282073974609
 30
12.0
 10
-0.0000000000000191
 20
-153.0
 30
12.0
 10
4.0
 20
-151.9282073974609
 30
12.0
 10
6.928203105926513
 20
-149.0
 30
12.0
 10
8.0
 20
-145.0
 30
6.0
 10
6.928203105926513
 20
-149.0
 30
6.0
 10
4.0
 20
-151.9282073974609
 30
6.0
 10
-0.0000000000000172
 20
-153.0
 30
6.0
 10
-4.0
 20
-151.9282073974609
 30
6.0
 10
-6.928203105926513
 20
-149.0
 30
6.0
 10
-8.0
 20
-145.0
 30
6.0
 10
-6.928203105926513
 20
-141.0
 30
6.0
 10
-4.0
 20
-138.0718078613281
 30
6.0
 10
-0.0000000000000172
 20
-137.0
 30
6.0
 10
4.0
 20
-138.0718078613281
 30
6.0
 10
6.928203105926513
 20
-141.0
 30
6.0
 10
8.0
 20
-105.0
 30
12.0
 10
6.928203105926513
 20
-101.0
 30
12.0
 10
4.0
 20
-98.0718002319336
 30
12.0
 10
-0.0000000000000103
 20
-97.0
 30
12.0
 10
-4.0
 20
-98.0718002319336
 30
12.0
 10
-6.928203105926513
 20
-101.0
 30
12.0
 10
-8.0
 20
-105.0
 30
12.0
 10
-6.928203105926513
 20
-109.0
 30
12.0
 10
-4.0
 20
-111.9282073974609
 30
12.0
 10
-0.0000000000000142
 20
-113.0
 30
12.0
 10
4.0
 20
-111.9282073974609
 30
12.0
 10
6.928203105926513
 20
-109.0
 30
12.0
 10
8.0
 20
-105.0
 30
6.0
 10
6.928203105926513
 20
-109.0
 30
6.0
 10
4.0
 20
-111.9282073974609
 30
6.0
 10
-0.0000000000000123
 20
-113.0
 30
6.0
 10
-4.0
 20
-111.9282073974609
 30
6.0
 10
-6.928203105926513
 20
-109.0
 30
6.0
 10
-8.0
 20
-105.0
 30
6.0
 10
-6.928203105926513
 20
-101.0
 30
6.0
 10
-4.0
 20
-98.0718002319336
 30
6.0
 10
-0.0000000000000123
 20
-97.0
 30
6.0
 10
4.0
 20
-98.0718002319336
 30
6.0
 10
6.928203105926513
 20
-101.0
 30
6.0
 10
290.0
 20
-250.0
 30
12.0
 10
300.0
 20
-250.0
 30
9.0
 10
300.0
 20
0.0
 30
9.0
 10
290.0
 20
0.0
 30
12.0
 10
-290.0
 20
0.0
 30
12.0
 10
-290.0
 20
-250.0
 30
12.0
 10
-300.0
 20
-250.0
 30
9.0
 10
-300.0
 20
-250.0
 30
6.0
 10
300.0
 20
-250.0
 30
6.0
 10
-300.0
 20
0.0
 30
9.0
 10
300.0
 20
0.0
 30
6.0
 10
-300.0
 20
0.0
 30
6.0
 10
297.0
 20
-63.0
 30
6.0
 10
297.0
 20
-3.0
 30
6.0
 10
237.0
 20
-3.0
 30
6.0
 10
237.0
 20
-63.0
 30
6.0
 10
297.0
 20
-3.0
 30
0.0
 10
297.0
 20
-63.0
 30
0.0
 10
237.0
 20
-63.0
 30
0.0
 10
237.0
 20
-3.0
 30
0.0
 10
297.0
 20
-247.0
 30
6.0
 10
297.0
 20
-187.0
 30
6.0
 10
237.0
 20
-187.0
 30
6.0
 10
237.0
 20
-247.0
 30
6.0
 10
297.0
 20
-187.0
 30
0.0
 10
297.0
 20
-247.0
 30
0.0
 10
237.0
 20
-247.0
 30
0.0
 10
237.0
 20
-187.0
 30
0.0
 10
-237.0
 20
-63.0
 30
6.0
 10
-237.0
 20
-3.0
 30
6.0
 10
-297.0
 20
-3.0
 30
6.0
 10
-297.0
 20
-63.0
 30
6.0
 10
-237.0
 20
-3.0
 30
0.0
 10
-237.0
 20
-63.0
 30
0.0
 10
-297.0
 20
-63.0
 30
0.0
 10
-297.0
 20
-3.0
 30
0.0
 10
-237.0
 20
-247.0
 30
6.0
 10
-237.0
 20
-187.0
 30
6.0
 10
-297.0
 20
-187.0
 30
6.0
 10
-297.0
 20
-247.0
 30
6.0
 10
-237.0
 20
-187.0
 30
0.0
 10
-237.0
 20
-247.0
 30
0.0
 10
-297.0
 20
-247.0
 30
0.0
 10
-297.0
 20
-187.0
 30
0.0
 10
20.0
 20
4.0
 30
300.0
 10
20.0
 20
4.0
 30
0.0
 10
-20.0
 20
4.0
 30
0.0
 10
-20.0
 20
4.0
 30
300.0
 10
20.0
 20
0.0
 30
0.0
 10
20.0
 20
0.0
 30
300.0
 10
-20.0
 20
0.0
 30
300.0
 10
-20.0
 20
0.0
 30
0.0
 10
10.0
 20
24.0
 30
60.0
 10
8.660254478454589
 20
24.0
 30
65.0
 10
5.0
 20
24.0
 30
68.66026306152344
 10
-0.0000000000024977
 20
24.0
 30
70.0
 10
-5.0
 20
24.0
 30
68.66026306152344
 10
-8.660254478454589
 20
24.0
 30
65.0
 10
-10.0
 20
24.0
 30
60.0
 10
-8.660254478454589
 20
24.0
 30
55.0
 10
-5.0
 20
24.0
 30
51.33974456787109
 10
-0.0000000000024977
 20
24.0
 30
50.0
 10
5.0
 20
24.0
 30
51.33974456787109
 10
8.660254478454589
 20
24.0
 30
55.0
 10
10.0
 20
4.0
 30
60.0
 10
8.660254478454589
 20
4.0
 30
55.0
 10
5.0
 20
4.0
 30
51.33974456787109
 10
-0.0000000000025001
 20
4.0
 30
50.0
 10
-5.0
 20
4.0
 30
51.33974456787109
 10
-8.660254478454589
 20
4.0
 30
55.0
 10
-10.0
 20
4.0
 30
60.0
 10
-8.660254478454589
 20
4.0
 30
65.0
 10
-5.0
 20
4.0
 30
68.66026306152344
 10
-0.0000000000025001
 20
4.0
 30
70.0
 10
5.0
 20
4.0
 30
68.66026306152344
 10
8.660254478454589
 20
4.0
 30
65.0
 10
10.0
 20
24.0
 30
260.0
 10
8.660254478454589
 20
24.0
 30
265.0
 10
5.0
 20
24.0
 30
268.6602478027344
 10
-0.0000000000024977
 20
24.0
 30
270.0
 10
-5.0
 20
24.0
 30
268.6602478027344
 10
-8.660254478454589
 20
24.0
 30
265.0
 10
-10.0
 20
24.0
 30
260.0
 10
-8.660254478454589
 20
24.0
 30
255.0
 10
-5.0
 20
24.0
 30
251.3397674560547
 10
-0.0000000000024977
 20
24.0
 30
250.0
 10
5.0
 20
24.0
 30
251.3397674560547
 10
8.660254478454589
 20
24.0
 30
255.0
 10
10.0
 20
4.0
 30
260.0
 10
8.660254478454589
 20
4.0
 30
255.0
 10
5.0
 20
4.0
 30
251.3397674560547
 10
-0.0000000000025001
 20
4.0
 30
250.0
 10
-5.0
 20
4.0
 30
251.3397674560547
 10
-8.660254478454589
 20
4.0
 30
255.0
 10
-10.0
 20
4.0
 30
260.0
 10
-8.660254478454589
 20
4.0
 30
265.0
 10
-5.0
 20
4.0
 30
268.6602478027344
 10
-0.0000000000025001
 20
4.0
 30
270.0
 10
5.0
 20
4.0
 30
268.6602478027344
 10
8.660254478454589
 20
4.0
 30
265.0
 93
     1088
 90
        3
 90
        1
 90
       23
 90
        0
 90
        3
 90
        0
 90
       23
 90
       12
 90
        3
 90
        0
 90
       12
 90
       11
 90
        3
 90
       11
 90
       12
 90
       13
 90
        3
 90
       11
 90
       13
 90
       10
 90
        3
 90
       10
 90
       13
 90
       14
 90
        3
 90
       10
 90
       14
 90
        9
 90
        3
 90
        9
 90
       14
 90
       15
 90
        3
 90
        9
 90
       15
 90
        8
 90
        3
 90
        8
 90
       15
 90
       16
 90
        3
 90
        8
 90
       16
 90
        7
 90
        3
 90
        7
 90
       16
 90
       17
 90
        3
 90
        7
 90
       17
 90
        6
 90
        3
 90
        6
 90
       17
 90
       18
 90
        3
 90
        6
 90
       18
 90
        5
 90
        3
 90
        5
 90
       18
 90
       19
 90
        3
 90
        5
 90
       19
 90
        4
 90
        3
 90
        4
 90
       19
 90
       20
 90
        3
 90
        4
 90
       20
 90
        3
 90
        3
 90
        3
 90
       20
 90
       21
 90
        3
 90
        3
 90
       21
 90
        2
 90
        3
 90
        2
 90
       21
 90
       22
 90
        3
 90
        2
 90
       22
 90
        1
 90
        3
 90
        1
 90
       22
 90
       23
 90
        3
 90
       25
 90
       47
 90
       24
 90
        3
 90
       24
 90
       47
 90
       36
 90
        3
 90
       24
 90
       36
 90
       35
 90
        3
 90
       35
 90
       36
 90
       37
 90
        3
 90
       35
 90
       37
 90
       34
 90
        3
 90
       34
 90
       37
 90
       38
 90
        3
 90
       34
 90
       38
 90
       33
 90
        3
 90
       33
 90
       38
 90
       39
 90
        3
 90
       33
 90
       39
 90
       32
 90
        3
 90
       32
 90
       39
 90
       40
 90
        3
 90
       32
 90
       40
 90
       31
 90
        3
 90
       31
 90
       40
 90
       41
 90
        3
 90
       31
 90
       41
 90
       30
 90
        3
 90
       30
 90
       41
 90
       42
 90
        3
 90
       30
 90
       42
 90
       29
 90
        3
 90
       29
 90
       42
 90
       43
 90
        3
 90
       29
 90
       43
 90
       28
 90
        3
 90
       28
 90
       43
 90
       44
 90
        3
 90
       28
 90
       44
 90
       27
 90
        3
 90
       27
 90
       44
 90
       45
 90
        3
 90
       27
 90
       45
 90
       26
 90
        3
 90
       26
 90
       45
 90
       46
 90
        3
 90
       26
 90
       46
 90
       25
 90
        3
 90
       25
 90
       46
 90
       47
 90
        3
 90
       48
 90
       49
 90
       51
 90
        3
 90
       51
 90
       49
 90
       50
 90
        3
 90
        1
 90
        0
 90
       48
 90
        3
 90
       48
 90
        0
 90
       11
 90
        3
 90
       48
 90
       11
 90
       10
 90
        3
 90
       10
 90
        9
 90
       48
 90
        3
 90
       48
 90
        9
 90
       53
 90
        3
 90
       53
 90
        9
 90
        8
 90
        3
 90
       53
 90
        8
 90
        7
 90
        3
 90
        7
 90
        6
 90
       53
 90
        3
 90
       53
 90
        6
 90
        5
 90
        3
 90
       53
 90
        5
 90
       52
 90
        3
 90
       52
 90
        5
 90
       31
 90
        3
 90
       52
 90
       31
 90
       30
 90
        3
 90
       31
 90
        5
 90
       32
 90
        3
 90
       32
 90
        5
 90
        4
 90
        3
 90
       32
 90
        4
 90
        3
 90
        3
 90
        2
 90
       34
 90
        3
 90
        3
 90
        3
 90
       34
 90
       33
 90
        3
 90
        3
 90
       33
 90
       32
 90
        3
 90
        2
 90
        1
 90
       34
 90
        3
 90
       34
 90
        1
 90
       35
 90
        3
 90
       35
 90
        1
 90
       51
 90
        3
 90
       35
 90
       51
 90
       24
 90
        3
 90
       24
 90
       51
 90
       25
 90
        3
 90
       25
 90
       51
 90
       26
 90
        3
 90
       26
 90
       51
 90
       27
 90
        3
 90
       27
 90
       51
 90
       52
 90
        3
 90
       27
 90
       52
 90
       28
 90
        3
 90
       28
 90
       52
 90
       29
 90
        3
 90
       29
 90
       52
 90
       30
 90
        3
 90
       51
 90
        1
 90
       48
 90
        3
 90
       48
 90
       53
 90
       49
 90
        3
 90
       49
 90
       53
 90
       54
 90
        3
 90
       49
 90
       54
 90
       55
 90
        3
 90
       55
 90
       56
 90
       49
 90
        3
 90
       52
 90
       57
 90
       53
 90
        3
 90
       53
 90
       57
 90
       54
 90
        3
 90
       13
 90
       12
 90
       56
 90
        3
 90
       56
 90
       12
 90
       23
 90
        3
 90
       56
 90
       23
 90
       58
 90
        3
 90
       58
 90
       23
 90
       37
 90
        3
 90
       58
 90
       37
 90
       36
 90
        3
 90
       37
 90
       23
 90
       38
 90
        3
 90
       38
 90
       23
 90
       22
 90
        3
 90
       38
 90
       22
 90
       21
 90
        3
 90
       20
 90
       40
 90
       21
 90
        3
 90
       21
 90
       40
 90
       39
 90
        3
 90
       21
 90
       39
 90
       38
 90
        3
 90
       20
 90
       19
 90
       40
 90
        3
 90
       40
 90
       19
 90
       41
 90
        3
 90
       41
 90
       19
 90
       59
 90
        3
 90
       41
 90
       59
 90
       42
 90
        3
 90
       42
 90
       59
 90
       43
 90
        3
 90
       43
 90
       59
 90
       44
 90
        3
 90
       44
 90
       59
 90
       45
 90
        3
 90
       45
 90
       59
 90
       58
 90
        3
 90
       45
 90
       58
 90
       46
 90
        3
 90
       46
 90
       58
 90
       47
 90
        3
 90
       47
 90
       58
 90
       36
 90
        3
 90
       59
 90
       19
 90
       55
 90
        3
 90
       55
 90
       19
 90
       18
 90
        3
 90
       55
 90
       18
 90
       17
 90
        3
 90
       17
 90
       16
 90
       55
 90
        3
 90
       55
 90
       16
 90
       15
 90
        3
 90
       55
 90
       15
 90
       56
 90
        3
 90
       56
 90
       15
 90
       14
 90
        3
 90
       56
 90
       14
 90
       13
 90
        3
 90
       51
 90
       50
 90
       52
 90
        3
 90
       52
 90
       50
 90
       57
 90
        3
 90
       57
 90
       50
 90
       59
 90
        3
 90
       59
 90
       50
 90
       58
 90
        3
 90
       57
 90
       59
 90
       54
 90
        3
 90
       54
 90
       59
 90
       55
 90
        3
 90
       49
 90
       56
 90
       50
 90
        3
 90
       50
 90
       56
 90
       58
 90
        3
 90
       61
 90
       62
 90
       60
 90
        3
 90
       60
 90
       62
 90
       63
 90
        3
 90
       65
 90
       66
 90
       64
 90
        3
 90
       64
 90
       66
 90
       67
 90
        3
 90
       67
 90
       62
 90
       64
 90
        3
 90
       64
 90
       62
 90
       61
 90
        3
 90
       66
 90
       63
 90
       67
 90
        3
 90
       67
 90
       63
 90
       62
 90
        3
 90
       65
 90
       60
 90
       66
 90
        3
 90
       66
 90
       60
 90
       63
 90
        3
 90
       64
 90
       61
 90
       65
 90
        3
 90
       65
 90
       61
 90
       60
 90
        3
 90
       69
 90
       70
 90
       68
 90
        3
 90
       68
 90
       70
 90
       71
 90
        3
 90
       73
 90
       74
 90
       72
 90
        3
 90
       72
 90
       74
 90
       75
 90
        3
 90
       75
 90
       70
 90
       72
 90
        3
 90
       72
 90
       70
 90
       69
 90
        3
 90
       74
 90
       71
 90
       75
 90
        3
 90
       75
 90
       71
 90
       70
 90
        3
 90
       73
 90
       68
 90
       74
 90
        3
 90
       74
 90
       68
 90
       71
 90
        3
 90
       72
 90
       69
 90
       73
 90
        3
 90
       73
 90
       69
 90
       68
 90
        3
 90
       77
 90
       78
 90
       76
 90
        3
 90
       76
 90
       78
 90
       79
 90
        3
 90
       81
 90
       82
 90
       80
 90
        3
 90
       80
 90
       82
 90
       83
 90
        3
 90
       83
 90
       78
 90
       80
 90
        3
 90
       80
 90
       78
 90
       77
 90
        3
 90
       82
 90
       79
 90
       83
 90
        3
 90
       83
 90
       79
 90
       78
 90
        3
 90
       81
 90
       76
 90
       82
 90
        3
 90
       82
 90
       76
 90
       79
 90
        3
 90
       80
 90
       77
 90
       81
 90
        3
 90
       81
 90
       77
 90
       76
 90
        3
 90
       85
 90
       86
 90
       84
 90
        3
 90
       84
 90
       86
 90
       87
 90
        3
 90
       89
 90
       90
 90
       88
 90
        3
 90
       88
 90
       90
 90
       91
 90
        3
 90
       91
 90
       86
 90
       88
 90
        3
 90
       88
 90
       86
 90
       85
 90
        3
 90
       90
 90
       87
 90
       91
 90
        3
 90
       91
 90
       87
 90
       86
 90
        3
 90
       89
 90
       84
 90
       90
 90
        3
 90
       90
 90
       84
 90
       87
 90
        3
 90
       88
 90
       85
 90
       89
 90
        3
 90
       89
 90
       85
 90
       84
 90
        3
 90
       93
 90
       94
 90
       92
 90
        3
 90
       92
 90
       94
 90
       95
 90
        3
 90
       97
 90
       98
 90
       96
 90
        3
 90
       96
 90
       98
 90
       99
 90
        3
 90
       99
 90
       94
 90
       96
 90
        3
 90
       96
 90
       94
 90
       93
 90
        3
 90
       98
 90
       95
 90
       99
 90
        3
 90
       99
 90
       95
 90
       94
 90
        3
 90
       97
 90
       92
 90
       98
 90
        3
 90
       98
 90
       92
 90
       95
 90
        3
 90
       96
 90
       93
 90
       97
 90
        3
 90
       97
 90
       93
 90
       92
 90
        3
 90
      101
 90
      123
 90
      100
 90
        3
 90
      100
 90
      123
 90
      112
 90
        3
 90
      100
 90
      112
 90
      111
 90
        3
 90
      111
 90
      112
 90
      113
 90
        3
 90
      111
 90
      113
 90
      110
 90
        3
 90
      110
 90
      113
 90
      114
 90
        3
 90
      110
 90
      114
 90
      109
 90
        3
 90
      109
 90
      114
 90
      115
 90
        3
 90
      109
 90
      115
 90
      108
 90
        3
 90
      108
 90
      115
 90
      116
 90
        3
 90
      108
 90
      116
 90
      107
 90
        3
 90
      107
 90
      116
 90
      117
 90
        3
 90
      107
 90
      117
 90
      106
 90
        3
 90
      106
 90
      117
 90
      118
 90
        3
 90
      106
 90
      118
 90
      105
 90
        3
 90
      105
 90
      118
 90
      119
 90
        3
 90
      105
 90
      119
 90
      104
 90
        3
 90
      104
 90
      119
 90
      120
 90
        3
 90
      104
 90
      120
 90
      103
 90
        3
 90
      103
 90
      120
 90
      121
 90
        3
 90
      103
 90
      121
 90
      102
 90
        3
 90
      102
 90
      121
 90
      122
 90
        3
 90
      102
 90
      122
 90
      101
 90
        3
 90
      101
 90
      122
 90
      123
 90
        3
 90
      111
 90
      107
 90
      100
 90
        3
 90
      100
 90
      107
 90
      106
 90
        3
 90
      100
 90
      106
 90
      101
 90
        3
 90
      101
 90
      106
 90
      105
 90
        3
 90
      101
 90
      105
 90
      102
 90
        3
 90
      102
 90
      105
 90
      104
 90
        3
 90
      102
 90
      104
 90
      103
 90
        3
 90
      107
 90
      111
 90
      108
 90
        3
 90
      108
 90
      111
 90
      110
 90
        3
 90
      108
 90
      110
 90
      109
 90
        3
 90
      123
 90
      119
 90
      112
 90
        3
 90
      112
 90
      119
 90
      118
 90
        3
 90
      112
 90
      118
 90
      113
 90
        3
 90
      113
 90
      118
 90
      117
 90
        3
 90
      113
 90
      117
 90
      114
 90
        3
 90
      114
 90
      117
 90
      116
 90
        3
 90
      114
 90
      116
 90
      115
 90
        3
 90
      119
 90
      123
 90
      120
 90
        3
 90
      120
 90
      123
 90
      122
 90
        3
 90
      120
 90
      122
 90
      121
 90
        3
 90
      125
 90
      147
 90
      124
 90
        3
 90
      124
 90
      147
 90
      136
 90
        3
 90
      124
 90
      136
 90
      135
 90
        3
 90
      135
 90
      136
 90
      137
 90
        3
 90
      135
 90
      137
 90
      134
 90
        3
 90
      134
 90
      137
 90
      138
 90
        3
 90
      134
 90
      138
 90
      133
 90
        3
 90
      133
 90
      138
 90
      139
 90
        3
 90
      133
 90
      139
 90
      132
 90
        3
 90
      132
 90
      139
 90
      140
 90
        3
 90
      132
 90
      140
 90
      131
 90
        3
 90
      131
 90
      140
 90
      141
 90
        3
 90
      131
 90
      141
 90
      130
 90
        3
 90
      130
 90
      141
 90
      142
 90
        3
 90
      130
 90
      142
 90
      129
 90
        3
 90
      129
 90
      142
 90
      143
 90
        3
 90
      129
 90
      143
 90
      128
 90
        3
 90
      128
 90
      143
 90
      144
 90
        3
 90
      128
 90
      144
 90
      127
 90
        3
 90
      127
 90
      144
 90
      145
 90
        3
 90
      127
 90
      145
 90
      126
 90
        3
 90
      126
 90
      145
 90
      146
 90
        3
 90
      126
 90
      146
 90
      125
 90
        3
 90
      125
 90
      146
 90
      147
 90
        3
 90
      135
 90
      131
 90
      124
 90
        3
 90
      124
 90
      131
 90
      130
 90
        3
 90
      124
 90
      130
 90
      125
 90
        3
 90
      125
 90
      130
 90
      129
 90
        3
 90
      125
 90
      129
 90
      126
 90
        3
 90
      126
 90
      129
 90
      128
 90
        3
 90
      126
 90
      128
 90
      127
 90
        3
 90
      131
 90
      135
 90
      132
 90
        3
 90
      132
 90
      135
 90
      134
 90
        3
 90
      132
 90
      134
 90
      133
 90
        3
 90
      147
 90
      143
 90
      136
 90
        3
 90
      136
 90
      143
 90
      142
 90
        3
 90
      136
 90
      142
 90
      137
 90
        3
 90
      137
 90
      142
 90
      141
 90
        3
 90
      137
 90
      141
 90
      138
 90
        3
 90
      138
 90
      141
 90
      140
 90
        3
 90
      138
 90
      140
 90
      139
 90
        3
 90
      143
 90
      147
 90
      144
 90
        3
 90
      144
 90
      147
 90
      146
 90
        3
 90
      144
 90
      146
 90
      145
 94
      408
 90
        1
 90
       23
 90
        0
 90
       23
 90
        0
 90
        1
 90
       12
 90
       23
 90
        0
 90
       12
 90
       11
 90
       12
 90
        0
 90
       11
 90
       12
 90
       13
 90
       11
 90
       13
 90
       10
 90
       13
 90
       10
 90
       11
 90
       13
 90
       14
 90
       10
 90
       14
 90
        9
 90
       14
 90
        9
 90
       10
 90
       14
 90
       15
 90
        9
 90
       15
 90
        8
 90
       15
 90
        8
 90
        9
 90
       15
 90
       16
 90
        8
 90
       16
 90
        7
 90
       16
 90
        7
 90
        8
 90
       16
 90
       17
 90
        7
 90
       17
 90
        6
 90
       17
 90
        6
 90
        7
 90
       17
 90
       18
 90
        6
 90
       18
 90
        5
 90
       18
 90
        5
 90
        6
 90
       18
 90
       19
 90
        5
 90
       19
 90
        4
 90
       19
 90
        4
 90
        5
 90
       19
 90
       20
 90
        4
 90
       20
 90
        3
 90
       20
 90
        3
 90
        4
 90
       20
 90
       21
 90
        3
 90
       21
 90
        2
 90
       21
 90
        2
 90
        3
 90
       21
 90
       22
 90
        2
 90
       22
 90
        1
 90
       22
 90
        1
 90
        2
 90
       22
 90
       23
 90
       25
 90
       47
 90
       24
 90
       47
 90
       24
 90
       25
 90
       36
 90
       47
 90
       24
 90
       36
 90
       35
 90
       36
 90
       24
 90
       35
 90
       36
 90
       37
 90
       35
 90
       37
 90
       34
 90
       37
 90
       34
 90
       35
 90
       37
 90
       38
 90
       34
 90
       38
 90
       33
 90
       38
 90
       33
 90
       34
 90
       38
 90
       39
 90
       33
 90
       39
 90
       32
 90
       39
 90
       32
 90
       33
 90
       39
 90
       40
 90
       32
 90
       40
 90
       31
 90
       40
 90
       31
 90
       32
 90
       40
 90
       41
 90
       31
 90
       41
 90
       30
 90
       41
 90
       30
 90
       31
 90
       41
 90
       42
 90
       30
 90
       42
 90
       29
 90
       42
 90
       29
 90
       30
 90
       42
 90
       43
 90
       29
 90
       43
 90
       28
 90
       43
 90
       28
 90
       29
 90
       43
 90
       44
 90
       28
 90
       44
 90
       27
 90
       44
 90
       27
 90
       28
 90
       44
 90
       45
 90
       27
 90
       45
 90
       26
 90
       45
 90
       26
 90
       27
 90
       45
 90
       46
 90
       26
 90
       46
 90
       25
 90
       46
 90
       25
 90
       26
 90
       46
 90
       47
 90
       48
 90
       49
 90
       49
 90
       51
 90
       48
 90
       51
 90
       49
 90
       50
 90
       50
 90
       51
 90
        0
 90
       48
 90
        1
 90
       48
 90
       11
 90
       48
 90
       10
 90
       48
 90
        9
 90
       48
 90
        9
 90
       53
 90
       48
 90
       53
 90
        8
 90
       53
 90
        7
 90
       53
 90
        6
 90
       53
 90
        5
 90
       53
 90
        5
 90
       52
 90
       52
 90
       53
 90
        5
 90
       31
 90
       31
 90
       52
 90
       30
 90
       52
 90
        5
 90
       32
 90
        4
 90
       32
 90
        3
 90
       32
 90
        2
 90
       34
 90
        3
 90
       34
 90
        3
 90
       33
 90
        1
 90
       34
 90
        1
 90
       35
 90
        1
 90
       51
 90
       35
 90
       51
 90
       24
 90
       51
 90
       25
 90
       51
 90
       26
 90
       51
 90
       27
 90
       51
 90
       51
 90
       52
 90
       27
 90
       52
 90
       28
 90
       52
 90
       29
 90
       52
 90
       49
 90
       53
 90
       53
 90
       54
 90
       49
 90
       54
 90
       54
 90
       55
 90
       49
 90
       55
 90
       55
 90
       56
 90
       49
 90
       56
 90
       52
 90
       57
 90
       53
 90
       57
 90
       54
 90
       57
 90
       12
 90
       56
 90
       13
 90
       56
 90
       23
 90
       56
 90
       23
 90
       58
 90
       56
 90
       58
 90
       23
 90
       37
 90
       37
 90
       58
 90
       36
 90
       58
 90
       23
 90
       38
 90
       22
 90
       38
 90
       21
 90
       38
 90
       20
 90
       40
 90
       21
 90
       40
 90
       21
 90
       39
 90
       19
 90
       40
 90
       19
 90
       41
 90
       19
 90
       59
 90
       41
 90
       59
 90
       42
 90
       59
 90
       43
 90
       59
 90
       44
 90
       59
 90
       45
 90
       59
 90
       58
 90
       59
 90
       45
 90
       58
 90
       46
 90
       58
 90
       47
 90
       58
 90
       19
 90
       55
 90
       55
 90
       59
 90
       18
 90
       55
 90
       17
 90
       55
 90
       16
 90
       55
 90
       15
 90
       55
 90
       15
 90
       56
 90
       14
 90
       56
 90
       50
 90
       52
 90
       50
 90
       57
 90
       50
 90
       59
 90
       57
 90
       59
 90
       50
 90
       58
 90
       54
 90
       59
 90
       50
 90
       56
 90
       61
 90
       62
 90
       60
 90
       62
 90
       60
 90
       61
 90
       62
 90
       63
 90
       60
 90
       63
 90
       65
 90
       66
 90
       64
 90
       66
 90
       64
 90
       65
 90
       66
 90
       67
 90
       64
 90
       67
 90
       62
 90
       67
 90
       62
 90
       64
 90
       61
 90
       64
 90
       63
 90
       66
 90
       63
 90
       67
 90
       60
 90
       65
 90
       60
 90
       66
 90
       61
 90
       65
 90
       69
 90
       70
 90
       68
 90
       70
 90
       68
 90
       69
 90
       70
 90
       71
 90
       68
 90
       71
 90
       73
 90
       74
 90
       72
 90
       74
 90
       72
 90
       73
 90
       74
 90
       75
 90
       72
 90
       75
 90
       70
 90
       75
 90
       70
 90
       72
 90
       69
 90
       72
 90
       71
 90
       74
 90
       71
 90
       75
 90
       68
 90
       73
 90
       68
 90
       74
 90
       69
 90
       73
 90
       77
 90
       78
 90
       76
 90
       78
 90
       76
 90
       77
 90
       78
 90
       79
 90
       76
 90
       79
 90
       81
 90
       82
 90
       80
 90
       82
 90
       80
 90
       81
 90
       82
 90
       83
 90
       80
 90
       83
 90
       78
 90
       83
 90
       78
 90
       80
 90
       77
 90
       80
 90
       79
 90
       82
 90
       79
 90
       83
 90
       76
 90
       81
 90
       76
 90
       82
 90
       77
 90
       81
 90
       85
 90
       86
 90
       84
 90
       86
 90
       84
 90
       85
 90
       86
 90
       87
 90
       84
 90
       87
 90
       89
 90
       90
 90
       88
 90
       90
 90
       88
 90
       89
 90
       90
 90
       91
 90
       88
 90
       91
 90
       86
 90
       91
 90
       86
 90
       88
 90
       85
 90
       88
 90
       87
 90
       90
 90
       87
 90
       91
 90
       84
 90
       89
 90
       84
 90
       90
 90
       85
 90
       89
 90
       93
 90
       94
 90
       92
 90
       94
 90
       92
 90
       93
 90
       94
 90
       95
 90
       92
 90
       95
 90
       97
 90
       98
 90
       96
 90
       98
 90
       96
 90
       97
 90
       98
 90
       99
 90
       96
 90
       99
 90
       94
 90
       99
 90
       94
 90
       96
 90
       93
 90
       96
 90
       95
 90
       98
 90
       95
 90
       99
 90
       92
 90
       97
 90
       92
 90
       98
 90
       93
 90
       97
 90
      101
 90
      123
 90
      100
 90
      123
 90
      100
 90
      101
 90
      112
 90
      123
 90
      100
 90
      112
 90
      111
 90
      112
 90
      100
 90
      111
 90
      112
 90
      113
 90
      111
 90
      113
 90
      110
 90
      113
 90
      110
 90
      111
 90
      113
 90
      114
 90
      110
 90
      114
 90
      109
 90
      114
 90
      109
 90
      110
 90
      114
 90
      115
 90
      109
 90
      115
 90
      108
 90
      115
 90
      108
 90
      109
 90
      115
 90
      116
 90
      108
 90
      116
 90
      107
 90
      116
 90
      107
 90
      108
 90
      116
 90
      117
 90
      107
 90
      117
 90
      106
 90
      117
 90
      106
 90
      107
 90
      117
 90
      118
 90
      106
 90
      118
 90
      105
 90
      118
 90
      105
 90
      106
 90
      118
 90
      119
 90
      105
 90
      119
 90
      104
 90
      119
 90
      104
 90
      105
 90
      119
 90
      120
 90
      104
 90
      120
 90
      103
 90
      120
 90
      103
 90
      104
 90
      120
 90
      121
 90
      103
 90
      121
 90
      102
 90
      121
 90
      102
 90
      103
 90
      121
 90
      122
 90
      102
 90
      122
 90
      101
 90
      122
 90
      101
 90
      102
 90
      122
 90
      123
 90
      107
 90
      111
 90
      100
 90
      107
 90
      100
 90
      106
 90
      101
 90
      106
 90
      101
 90
      105
 90
      102
 90
      105
 90
      102
 90
      104
 90
      108
 90
      111
 90
      108
 90
      110
 90
      119
 90
      123
 90
      112
 90
      119
 90
      112
 90
      118
 90
      113
 90
      118
 90
      113
 90
      117
 90
      114
 90
      117
 90
      114
 90
      116
 90
      120
 90
      123
 90
      120
 90
      122
 90
      125
 90
      147
 90
      124
 90
      147
 90
      124
 90
      125
 90
      136
 90
      147
 90
      124
 90
      136
 90
      135
 90
      136
 90
      124
 90
      135
 90
      136
 90
      137
 90
      135
 90
      137
 90
      134
 90
      137
 90
      134
 90
      135
 90
      137
 90
      138
 90
      134
 90
      138
 90
      133
 90
      138
 90
      133
 90
      134
 90
      138
 90
      139
 90
      133
 90
      139
 90
      132
 90
      139
 90
      132
 90
      133
 90
      139
 90
      140
 90
      132
 90
      140
 90
      131
 90
      140
 90
      131
 90
      132
 90
      140
 90
      141
 90
      131
 90
      141
 90
      130
 90
      141
 90
      130
 90
      131
 90
      141
 90
      142
 90
      130
 90
      142
 90
      129
 90
      142
 90
      129
 90
      130
 90
      142
 90
      143
 90
      129
 90
      143
 90
      128
 90
      143
 90
      128
 90
      129
 90
      143
 90
      144
 90
      128
 90
      144
 90
      127
 90
      144
 90
      127
 90
      128
 90
      144
 90
      145
 90
      127
 90
      145
 90
      126
 90
      145
 90
      126
 90
      127
 90
      145
 90
      146
 90
      126
 90
      146
 90
      125
 90
      146
 90
      125
 90
      126
 90
      146
 90
      147
 90
      131
 90
      135
 90
      124
 90
      131
 90
      124
 90
      130
 90
      125
 90
      130
 90
      125
 90
      129
 90
      126
 90
      129
 90
      126
 90
      128
 90
      132
 90
      135
 90
      132
 90
      134
 90
      143
 90
      147
 90
      136
 90
      143
 90
      136
 90
      142
 90
      137
 90
      142
 90
      137
 90
      141
 90
      138
 90
      141
 90
      138
 90
      140
 90
      144
 90
      147
 90
      144
 90
      146
 95
      408
140
0.0
140
0.0
140
0.0
140
0.0
140
0.0
140
0.0
140
0.0
140
0.0
140
0.0
140
0.0
140
0.0
140
0.0
140
0.0
140
0.0
140
0.0
140
0.0
140
0.0
140
0.0
140
0.0
140
0.0
140
0.0
140
0.0
140
0.0
140
0.0
140
0.0
140
0.0
140
0.0
140
0.0
140
0.0
140
0.0
140
0.0
140
0.0
140
0.0
140
0.0
140
0.0
140
0.0
140
0.0
140
0.0
140
0.0
140
0.0
140
0.0
140
0.0
140
0.0
140
0.0
140
0.0
140
0.0
140
0.0
140
0.0
140
0.0
140
0.0
140
0.0
140
0.0
140
0.0
140
0.0
140
0.0
140
0.0
140
0.0
140
0.0
140
0.0
140
0.0
140
0.0
140
0.0
140
0.0
140
0.0
140
0.0
140
0.0
140
0.0
140
0.0
140
0.0
140
0.0
140
0.0
140
0.0
140
0.0
140
0.0
140
0.0
140
0.0
140
0.0
140
0.0
140
0.0
140
0.0
140
0.0
140
0.0
140
0.0
140
0.0
140
0.0
140
0.0
140
0.0
140
0.0
140
0.0
140
0.0
140
0.0
140
0.0
140
0.0
140
0.0
140
0.0
140
0.0
140
0.0
140
0.0
140
0.0
140
0.0
140
0.0
140
0.0
140
0.0
140
0.0
140
0.0
140
0.0
140
0.0
140
0.0
140
0.0
140
0.0
140
0.0
140
0.0
140
0.0
140
0.0
140
0.0
140
0.0
140
0.0
140
0.0
140
0.0
140
0.0
140
0.0
140
0.0
140
0.0
140
0.0
140
0.0
140
0.0
140
0.0
140
0.0
140
0.0
140
0.0
140
0.0
140
0.0
140
0.0
140
0.0
140
0.0
140
0.0
140
0.0
140
0.0
140
0.0
140
0.0
140
0.0
140
0.0
140
0.0
140
0.0
140
0.0
140
0.0
140
0.0
140
0.0
140
0.0
140
0.0
140
0.0
140
0.0
140
0.0
140
0.0
140
0.0
140
0.0
140
0.0
140
0.0
140
0.0
140
0.0
140
0.0
140
0.0
140
0.0
140
0.0
140
0.0
140
0.0
140
0.0
140
0.0
140
0.0
140
0.0
140
0.0
140
0.0
140
0.0
140
0.0
140
0.0
140
0.0
140
0.0
140
0.0
140
0.0
140
0.0
140
0.0
140
0.0
140
0.0
140
0.0
140
0.0
140
0.0
140
0.0
140
0.0
140
0.0
140
0.0
140
0.0
140
0.0
140
0.0
140
0.0
140
0.0
140
0.0
140
0.0
140
0.0
140
0.0
140
0.0
140
0.0
140
0.0
140
0.0
140
0.0
140
0.0
140
0.0
140
0.0
140
0.0
140
0.0
140
0.0
140
0.0
140
0.0
140
0.0
140
0.0
140
0.0
140
0.0
140
0.0
140
0.0
140
0.0
140
0.0
140
0.0
140
0.0
140
0.0
140
0.0
140
0.0
140
0.0
140
0.0
140
0.0
140
0.0
140
0.0
140
0.0
140
0.0
140
0.0
140
0.0
140
0.0
140
0.0
140
0.0
140
0.0
140
0.0
140
0.0
140
0.0
140
0.0
140
0.0
140
0.0
140
0.0
140
0.0
140
0.0
140
0.0
140
0.0
140
0.0
140
0.0
140
0.0
140
0.0
140
0.0
140
0.0
140
0.0
140
0.0
140
0.0
140
0.0
140
0.0
140
0.0
140
0.0
140
0.0
140
0.0
140
0.0
140
0.0
140
0.0
140
0.0
140
0.0
140
0.0
140
0.0
140
0.0
140
0.0
140
0.0
140
0.0
140
0.0
140
0.0
140
0.0
140
0.0
140
0.0
140
0.0
140
0.0
140
0.0
140
0.0
140
0.0
140
0.0
140
0.0
140
0.0
140
0.0
140
0.0
140
0.0
140
0.0
140
0.0
140
0.0
140
0.0
140
0.0
140
0.0
140
0.0
140
0.0
140
0.0
140
0.0
140
0.0
140
0.0
140
0.0
140
0.0
140
0.0
140
0.0
140
0.0
140
0.0
140
0.0
140
0.0
140
0.0
140
0.0
140
0.0
140
0.0
140
0.0
140
0.0
140
0.0
140
0.0
140
0.0
140
0.0
140
0.0
140
0.0
140
0.0
140
0.0
140
0.0
140
0.0
140
0.0
140
0.0
140
0.0
140
0.0
140
0.0
140
0.0
140
0.0
140
0.0
140
0.0
140
0.0
140
0.0
140
0.0
140
0.0
140
0.0
140
0.0
140
0.0
140
0.0
140
0.0
140
0.0
140
0.0
140
0.0
140
0.0
140
0.0
140
0.0
140
0.0
140
0.0
140
0.0
140
0.0
140
0.0
140
0.0
140
0.0
140
0.0
140
0.0
140
0.0
140
0.0
140
0.0
140
0.0
140
0.0
140
0.0
140
0.0
140
0.0
140
0.0
140
0.0
140
0.0
140
0.0
140
0.0
140
0.0
140
0.0
140
0.0
140
0.0
140
0.0
140
0.0
140
0.0
140
0.0
140
0.0
140
0.0
140
0.0
140
0.0
140
0.0
140
0.0
140
0.0
140
0.0
140
0.0
140
0.0
140
0.0
140
0.0
140
0.0
140
0.0
140
0.0
140
0.0
140
0.0
140
0.0
140
0.0
140
0.0
140
0.0
140
0.0
140
0.0
140
0.0
140
0.0
140
0.0
140
0.0
 90
        0
  0
MESH
  5
FC
330
1F
100
AcDbEntity
  8
Mat. 33
160
              9512
310
28250000080100000C00000013000000020000003C0000000600000002000000000000E00C52314000000000000046400000000000805140000000E00C523140000000000000384000000000008051400C000000130000000A0000003C0000000600000002000000000000000000344000000000000046400000000000004E
310
40000000E00C523140000000000000384000000000008051400C00000013000000120000003C0000000600000002000000000000000000344000000000000046400000000000004E40000000E00C523140000000000000464000000000008051400C000000130000001A0000003C0000000600000002000000000000000000
310
344000000000000038400000000000004E40000000E00C523140000000000000384000000000008051400C00000013000000220000003C0000000600000002000000000000000000344000000000000046400000000000004E40000000000000344000000000000038400000000000004E400C000000130000002A0000003C
310
0000000600000002000000000000E00C52314000000000000046400000000000004940000000000000344000000000000038400000000000004E400C00000013000000320000003C0000000600000002000000000000000000344000000000000046400000000000004E40000000E00C523140000000000000464000000000
310
000049400C000000130000003A0000003C0000000600000002000000000000000000344000000000000038400000000000004E40000000E00C523140000000000000384000000000000049400C00000013000000420000003C0000000600000002000000000000E00C52314000000000000046400000000000004940000000
310
E00C523140000000000000384000000000000049400C000000130000004A0000003C000000060000000200000000000000000024400000000000004640000000C0F9564540000000E00C523140000000000000384000000000000049400C00000013000000520000003C000000060000000200000000000000000024400000
310
000000004640000000C0F9564540000000E00C523140000000000000464000000000000049400C000000130000005A0000003C0000000600000002000000000000E00C5231400000000000003840000000000000494000000000000024400000000000003840000000C0F95645400C00000013000000620000003C00000006
310
0000000200000000000000000024400000000000004640000000C0F956454000000000000024400000000000003840000000C0F95645400C000000130000006A0000003C00000006000000020000000000006027F485BD0000000000004640000000000000444000000000000024400000000000003840000000C0F9564540
310
0C00000013000000720000003C00000006000000020000000000006027F485BD0000000000004640000000000000444000000000000024400000000000004640000000C0F95645400C000000130000007A0000003C000000060000000200000000000000000024400000000000003840000000C0F956454000000040ABF985
310
BD000000000000384000000000000044400C00000013000000820000003C00000006000000020000000000006027F485BD0000000000004640000000000000444000000040ABF985BD000000000000384000000000000044400C000000130000008A0000003C000000060000000200000000000000000024C0000000000000
310
4640000000C0F956454000000040ABF985BD000000000000384000000000000044400C00000013000000920000003C000000060000000200000000000000000024C00000000000004640000000C0F95645400000006027F485BD000000000000464000000000000044400C000000130000009A0000003C0000000600000002
310
00000000000040ABF985BD0000000000003840000000000000444000000000000024C00000000000003840000000C0F95645400C00000013000000A20000003C000000060000000200000000000000000024C00000000000004640000000C0F956454000000000000024C00000000000003840000000C0F95645400C000000
310
13000000AA0000003C0000000600000002000000000000E00C5231C00000000000004640000000000000494000000000000024C00000000000003840000000C0F95645400C00000013000000B20000003C0000000600000002000000000000E00C5231C00000000000004640000000000000494000000000000024C0000000
310
0000004640000000C0F95645400C00000013000000BA0000003C000000060000000200000000000000000024C00000000000003840000000C0F9564540000000E00C5231C0000000000000384000000000000049400C00000013000000C20000003C0000000600000002000000000000E00C5231C000000000000046400000
310
000000004940000000E00C5231C0000000000000384000000000000049400C00000013000000CA0000003C000000060000000200000000000000000034C000000000000046400000000000004E40000000E00C5231C0000000000000384000000000000049400C00000013000000D20000003C000000060000000200000000
310
000000000034C000000000000046400000000000004E40000000E00C5231C0000000000000464000000000000049400C00000013000000DA0000003C0000000600000002000000000000E00C5231C00000000000003840000000000000494000000000000034C000000000000038400000000000004E400C00000013000000
310
E20000003C000000060000000200000000000000000034C000000000000046400000000000004E4000000000000034C000000000000038400000000000004E400C00000013000000EA0000003C0000000600000002000000000000E00C5231C00000000000004640000000000080514000000000000034C000000000000038
310
400000000000004E400C00000013000000F20000003C0000000600000002000000000000E00C5231C00000000000004640000000000080514000000000000034C000000000000046400000000000004E400C00000013000000FA0000003C000000060000000200000000000000000034C00000000000003840000000000000
310
4E40000000E00C5231C0000000000000384000000000008051400C00000013000000020100003C0000000600000002000000000000E00C5231C000000000000046400000000000805140000000E00C5231C0000000000000384000000000008051400C000000130000000A0100003C00000006000000020000000000000000
310
0024C000000000000046400000004083545340000000E00C5231C0000000000000384000000000008051400C00000013000000120100003C000000060000000200000000000000000024C000000000000046400000004083545340000000E00C5231C0000000000000464000000000008051400C000000130000001A010000
310
3C0000000600000002000000000000E00C5231C00000000000003840000000000080514000000000000024C0000000000000384000000040835453400C00000013000000220100003C000000060000000200000000000000000024C00000000000004640000000408354534000000000000024C00000000000003840000000
310
40835453400C000000130000002A0100003C00000006000000020000000000006027F485BD0000000000004640000000000000544000000000000024C0000000000000384000000040835453400C00000013000000320100003C00000006000000020000000000006027F485BD000000000000464000000000000054400000
310
0000000024C0000000000000464000000040835453400C000000130000003A0100003C000000060000000200000000000000000024C00000000000003840000000408354534000000040ABF985BD000000000000384000000000000054400C00000013000000420100003C00000006000000020000000000006027F485BD00
310
00000000004640000000000000544000000040ABF985BD000000000000384000000000000054400C000000130000004A0100003C000000060000000200000000000000000024400000000000004640000000408354534000000040ABF985BD000000000000384000000000000054400C00000013000000520100003C000000
310
06000000020000000000000000002440000000000000464000000040835453400000006027F485BD000000000000464000000000000054400C000000130000005A0100003C000000060000000200000000000040ABF985BD000000000000384000000000000054400000000000002440000000000000384000000040835453
310
400C00000013000000620100003C00000006000000020000000000000000002440000000000000464000000040835453400000000000002440000000000000384000000040835453400C000000130000006A0100003C0000000600000002000000000000E00C52314000000000000046400000000000805140000000000000
310
2440000000000000384000000040835453400C00000013000000720100003C0000000600000002000000000000E00C523140000000000000464000000000008051400000000000002440000000000000464000000040835453400C000000130000007A0100003C000000060000000200000000000000000024400000000000
310
0038400000004083545340000000E00C523140000000000000384000000000008051400C00000013000000820100003C0000000600000002000000000000E00C5231C000000000000046400000000000004940000000E00C523140000000000000464000000000000049400C000000130000008A0100003C00000006000000
310
02000000000000000000344000000000000046400000000000004E40000000E00C5231C0000000000000464000000000000049400C00000013000000920100003C0000000600000002000000000000000000344000000000000046400000000000004E4000000000000034C000000000000046400000000000004E400C0000
310
00130000009A0100003C0000000600000002000000000000E00C5231400000000000004640000000000080514000000000000034C000000000000046400000000000004E400C00000013000000A20100003C0000000600000002000000000000E00C52314000000000000046400000000000805140000000E00C5231C00000
310
00000000464000000000008051400C00000013000000AA0100003C0000000600000002000000000000000000244000000000000046400000004083545340000000E00C5231C0000000000000464000000000008051400C00000013000000B20100003C00000006000000020000000000000000002440000000000000464000
310
0000408354534000000000000024C0000000000000464000000040835453400C00000013000000BA0100003C000000060000000200000000000000000024C00000000000004640000000C0F9564540000000E00C523140000000000000464000000000000049400C00000013000000C20100003C0000000600000002000000
310
00000000000024C00000000000004640000000C0F956454000000000000024400000000000004640000000C0F95645400C00000013000000CA0100003C0000000600000002000000000000E00C5231C000000000000038400000000000805140000000E00C523140000000000000384000000000008051400C000000130000
310
00D20100003C0000000600000002000000000000000000344000000000000038400000000000004E40000000E00C5231C0000000000000384000000000008051400C00000013000000DA0100003C0000000600000002000000000000000000344000000000000038400000000000004E4000000000000034C0000000000000
310
38400000000000004E400C00000013000000E20100003C0000000600000002000000000000E00C5231400000000000003840000000000000494000000000000034C000000000000038400000000000004E400C00000013000000EA0100003C0000000600000002000000000000E00C52314000000000000038400000000000
310
004940000000E00C5231C0000000000000384000000000000049400C00000013000000F20100003C000000060000000200000000000000000024400000000000003840000000C0F9564540000000E00C5231C0000000000000384000000000000049400C00000013000000FA0100003C000000060000000200000000000000
310
000024400000000000003840000000C0F956454000000000000024C00000000000003840000000C0F95645400C00000013000000020200003C000000060000000200000000000000000024C000000000000038400000004083545340000000E00C523140000000000000384000000000008051400C000000130000000A0200
310
003C000000060000000200000000000000000024C0000000000000384000000040835453400000000000002440000000000000384000000040835453400C00000013000000120200003C0000000600000002000000000000E00C52314000000000000046400000000000E07040000000E00C52314000000000000038400000
310
000000E070400C000000130000001A0200003C0000000600000002000000000000000000344000000000000046400000000000407040000000E00C52314000000000000038400000000000E070400C00000013000000220200003C000000060000000200000000000000000034400000000000004640000000000040704000
310
0000E00C52314000000000000046400000000000E070400C000000130000002A0200003C0000000600000002000000000000000000344000000000000038400000000000407040000000E00C52314000000000000038400000000000E070400C00000013000000320200003C00000006000000020000000000000000003440
310
000000000000464000000000004070400000000000003440000000000000384000000000004070400C000000130000003A0200003C0000000600000002000000000000E00C52314000000000000046400000000000406F400000000000003440000000000000384000000000004070400C00000013000000420200003C0000
310
000600000002000000000000000000344000000000000046400000000000407040000000E00C52314000000000000046400000000000406F400C000000130000004A0200003C0000000600000002000000000000000000344000000000000038400000000000407040000000E00C5231400000000000003840000000000040
310
6F400C00000013000000520200003C0000000600000002000000000000E00C52314000000000000046400000000000406F40000000E00C52314000000000000038400000000000406F400C000000130000005A0200003C00000006000000020000000000000000002440000000000000464000000060BE556E40000000E00C
310
52314000000000000038400000000000406F400C00000013000000620200003C00000006000000020000000000000000002440000000000000464000000060BE556E40000000E00C52314000000000000046400000000000406F400C000000130000006A0200003C0000000600000002000000000000E00C52314000000000
310
000038400000000000406F400000000000002440000000000000384000000060BE556E400C00000013000000720200003C00000006000000020000000000000000002440000000000000464000000060BE556E400000000000002440000000000000384000000060BE556E400C000000130000007A0200003C000000060000
310
00020000000000006027F485BD00000000000046400000000000006E400000000000002440000000000000384000000060BE556E400C00000013000000820200003C00000006000000020000000000006027F485BD00000000000046400000000000006E400000000000002440000000000000464000000060BE556E400C00
310
0000130000008A0200003C00000006000000020000000000000000002440000000000000384000000060BE556E4000000040ABF985BD00000000000038400000000000006E400C00000013000000920200003C00000006000000020000000000006027F485BD00000000000046400000000000006E4000000040ABF985BD00
310
000000000038400000000000006E400C000000130000009A0200003C000000060000000200000000000000000024C0000000000000464000000060BE556E4000000040ABF985BD00000000000038400000000000006E400C00000013000000A20200003C000000060000000200000000000000000024C00000000000004640
310
00000060BE556E400000006027F485BD00000000000046400000000000006E400C00000013000000AA0200003C000000060000000200000000000040ABF985BD00000000000038400000000000006E4000000000000024C0000000000000384000000060BE556E400C00000013000000B20200003C00000006000000020000
310
0000000000000024C0000000000000464000000060BE556E4000000000000024C0000000000000384000000060BE556E400C00000013000000BA0200003C0000000600000002000000000000E00C5231C000000000000046400000000000406F4000000000000024C0000000000000384000000060BE556E400C0000001300
310
0000C20200003C0000000600000002000000000000E00C5231C000000000000046400000000000406F4000000000000024C0000000000000464000000060BE556E400C00000013000000CA0200003C000000060000000200000000000000000024C0000000000000384000000060BE556E40000000E00C5231C00000000000
310
0038400000000000406F400C00000013000000D20200003C0000000600000002000000000000E00C5231C000000000000046400000000000406F40000000E00C5231C000000000000038400000000000406F400C00000013000000DA0200003C000000060000000200000000000000000034C0000000000000464000000000
310
00407040000000E00C5231C000000000000038400000000000406F400C00000013000000E20200003C000000060000000200000000000000000034C000000000000046400000000000407040000000E00C5231C000000000000046400000000000406F400C00000013000000EA0200003C0000000600000002000000000000
310
E00C5231C000000000000038400000000000406F4000000000000034C0000000000000384000000000004070400C00000013000000F20200003C000000060000000200000000000000000034C00000000000004640000000000040704000000000000034C0000000000000384000000000004070400C00000013000000FA02
310
00003C0000000600000002000000000000E00C5231C000000000000046400000000000E0704000000000000034C0000000000000384000000000004070400C00000013000000020300003C0000000600000002000000000000E00C5231C000000000000046400000000000E0704000000000000034C0000000000000464000
310
000000004070400C000000130000000A0300003C000000060000000200000000000000000034C000000000000038400000000000407040000000E00C5231C000000000000038400000000000E070400C00000013000000120300003C0000000600000002000000000000E00C5231C000000000000046400000000000E07040
310
000000E00C5231C000000000000038400000000000E070400C000000130000001A0300003C000000060000000200000000000000000024C00000000000004640000000C020557140000000E00C5231C000000000000038400000000000E070400C00000013000000220300003C000000060000000200000000000000000024
310
C00000000000004640000000C020557140000000E00C5231C000000000000046400000000000E070400C000000130000002A0300003C0000000600000002000000000000E00C5231C000000000000038400000000000E0704000000000000024C00000000000003840000000C0205571400C00000013000000320300003C00
310
0000060000000200000000000000000024C00000000000004640000000C02055714000000000000024C00000000000003840000000C0205571400C000000130000003A0300003C00000006000000020000000000006027F485BD0000000000004640000000000080714000000000000024C00000000000003840000000C020
310
5571400C00000013000000420300003C00000006000000020000000000006027F485BD0000000000004640000000000080714000000000000024C00000000000004640000000C0205571400C000000130000004A0300003C000000060000000200000000000000000024C00000000000003840000000C02055714000000040
310
ABF985BD000000000000384000000000008071400C00000013000000520300003C00000006000000020000000000006027F485BD0000000000004640000000000080714000000040ABF985BD000000000000384000000000008071400C000000130000005A0300003C00000006000000020000000000000000002440000000
310
0000004640000000C02055714000000040ABF985BD000000000000384000000000008071400C00000013000000620300003C000000060000000200000000000000000024400000000000004640000000C0205571400000006027F485BD000000000000464000000000008071400C000000130000006A0300003C0000000600
310
00000200000000000040ABF985BD0000000000003840000000000080714000000000000024400000000000003840000000C0205571400C00000013000000720300003C000000060000000200000000000000000024400000000000004640000000C02055714000000000000024400000000000003840000000C0205571400C
310
000000130000007A0300003C0000000600000002000000000000E00C52314000000000000046400000000000E0704000000000000024400000000000003840000000C0205571400C00000013000000820300003C0000000600000002000000000000E00C52314000000000000046400000000000E070400000000000002440
310
0000000000004640000000C0205571400C000000130000008A0300003C000000060000000200000000000000000024400000000000003840000000C020557140000000E00C52314000000000000038400000000000E070400C00000013000000920300003C0000000600000002000000000000E00C5231C000000000000046
310
400000000000406F40000000E00C52314000000000000046400000000000406F400C000000130000009A0300003C0000000600000002000000000000000000344000000000000046400000000000407040000000E00C5231C000000000000046400000000000406F400C00000013000000A20300003C000000060000000200
310
000000000000000034400000000000004640000000000040704000000000000034C0000000000000464000000000004070400C00000013000000AA0300003C0000000600000002000000000000E00C52314000000000000046400000000000E0704000000000000034C0000000000000464000000000004070400C00000013
310
000000B20300003C0000000600000002000000000000E00C52314000000000000046400000000000E07040000000E00C5231C000000000000046400000000000E070400C00000013000000BA0300003C000000060000000200000000000000000024400000000000004640000000C020557140000000E00C5231C000000000
310
000046400000000000E070400C00000013000000C20300003C000000060000000200000000000000000024400000000000004640000000C02055714000000000000024C00000000000004640000000C0205571400C00000013000000CA0300003C000000060000000200000000000000000024C00000000000004640000000
310
60BE556E40000000E00C52314000000000000046400000000000406F400C00000013000000D20300003C000000060000000200000000000000000024C0000000000000464000000060BE556E400000000000002440000000000000464000000060BE556E400C00000013000000DA0300003C00000006000000020000000000
310
00E00C5231C000000000000038400000000000E07040000000E00C52314000000000000038400000000000E070400C00000013000000E20300003C0000000600000002000000000000000000344000000000000038400000000000407040000000E00C5231C000000000000038400000000000E070400C00000013000000EA
310
0300003C000000060000000200000000000000000034400000000000003840000000000040704000000000000034C0000000000000384000000000004070400C00000013000000F20300003C0000000600000002000000000000E00C52314000000000000038400000000000406F4000000000000034C00000000000003840
310
00000000004070400C00000013000000FA0300003C0000000600000002000000000000E00C52314000000000000038400000000000406F40000000E00C5231C000000000000038400000000000406F400C00000013000000020400003C00000006000000020000000000000000002440000000000000384000000060BE556E
310
40000000E00C5231C000000000000038400000000000406F400C000000130000000A0400003C00000006000000020000000000000000002440000000000000384000000060BE556E4000000000000024C0000000000000384000000060BE556E400C00000013000000120400003C0000000600000002000000000000000000
310
24C00000000000003840000000C020557140000000E00C52314000000000000038400000000000E070400C000000130000001A0400003C000000060000000200000000000000000024C00000000000003840000000C02055714000000000000024400000000000003840000000C020557140
100
AcDbSubDMesh
 71
     2
 72
     0
 91
        0
 92
       48
 10
20.0
 20
44.0
 30
60.0
 10
17.32050895690918
 20
44.0
 30
70.0
 10
10.0
 20
44.0
 30
77.32051086425781
 10
-0.0000000000024958
 20
44.0
 30
80.0
 10
-10.0
 20
44.0
 30
77.32051086425781
 10
-17.32050895690918
 20
44.0
 30
70.0
 10
-20.0
 20
44.0
 30
60.0
 10
-17.32050895690918
 20
44.0
 30
50.0
 10
-10.0
 20
44.0
 30
42.67949676513672
 10
-0.0000000000024958
 20
44.0
 30
40.0
 10
10.0
 20
44.0
 30
42.67949676513672
 10
17.32050895690918
 20
44.0
 30
50.0
 10
20.0
 20
24.0
 30
60.0
 10
17.32050895690918
 20
24.0
 30
50.0
 10
10.0
 20
24.0
 30
42.67949676513672
 10
-0.0000000000024983
 20
24.0
 30
40.0
 10
-10.0
 20
24.0
 30
42.67949676513672
 10
-17.32050895690918
 20
24.0
 30
50.0
 10
-20.0
 20
24.0
 30
60.0
 10
-17.32050895690918
 20
24.0
 30
70.0
 10
-10.0
 20
24.0
 30
77.32051086425781
 10
-0.0000000000024983
 20
24.0
 30
80.0
 10
10.0
 20
24.0
 30
77.32051086425781
 10
17.32050895690918
 20
24.0
 30
70.0
 10
20.0
 20
44.0
 30
260.0
 10
17.32050895690918
 20
44.0
 30
270.0
 10
10.0
 20
44.0
 30
277.3204956054688
 10
-0.0000000000024958
 20
44.0
 30
280.0
 10
-10.0
 20
44.0
 30
277.3204956054688
 10
-17.32050895690918
 20
44.0
 30
270.0
 10
-20.0
 20
44.0
 30
260.0
 10
-17.32050895690918
 20
44.0
 30
250.0
 10
-10.0
 20
44.0
 30
242.6794891357422
 10
-0.0000000000024958
 20
44.0
 30
240.0
 10
10.0
 20
44.0
 30
242.6794891357422
 10
17.32050895690918
 20
44.0
 30
250.0
 10
20.0
 20
24.0
 30
260.0
 10
17.32050895690918
 20
24.0
 30
250.0
 10
10.0
 20
24.0
 30
242.6794891357422
 10
-0.0000000000024983
 20
24.0
 30
240.0
 10
-10.0
 20
24.0
 30
242.6794891357422
 10
-17.32050895690918
 20
24.0
 30
250.0
 10
-20.0
 20
24.0
 30
260.0
 10
-17.32050895690918
 20
24.0
 30
270.0
 10
-10.0
 20
24.0
 30
277.3204956054688
 10
-0.0000000000024983
 20
24.0
 30
280.0
 10
10.0
 20
24.0
 30
277.3204956054688
 10
17.32050895690918
 20
24.0
 30
270.0
 93
      352
 90
        3
 90
        1
 90
       23
 90
        0
 90
        3
 90
        0
 90
       23
 90
       12
 90
        3
 90
        0
 90
       12
 90
       11
 90
        3
 90
       11
 90
       12
 90
       13
 90
        3
 90
       11
 90
       13
 90
       10
 90
        3
 90
       10
 90
       13
 90
       14
 90
        3
 90
       10
 90
       14
 90
        9
 90
        3
 90
        9
 90
       14
 90
       15
 90
        3
 90
        9
 90
       15
 90
        8
 90
        3
 90
        8
 90
       15
 90
       16
 90
        3
 90
        8
 90
       16
 90
        7
 90
        3
 90
        7
 90
       16
 90
       17
 90
        3
 90
        7
 90
       17
 90
        6
 90
        3
 90
        6
 90
       17
 90
       18
 90
        3
 90
        6
 90
       18
 90
        5
 90
        3
 90
        5
 90
       18
 90
       19
 90
        3
 90
        5
 90
       19
 90
        4
 90
        3
 90
        4
 90
       19
 90
       20
 90
        3
 90
        4
 90
       20
 90
        3
 90
        3
 90
        3
 90
       20
 90
       21
 90
        3
 90
        3
 90
       21
 90
        2
 90
        3
 90
        2
 90
       21
 90
       22
 90
        3
 90
        2
 90
       22
 90
        1
 90
        3
 90
        1
 90
       22
 90
       23
 90
        3
 90
       11
 90
        7
 90
        0
 90
        3
 90
        0
 90
        7
 90
        6
 90
        3
 90
        0
 90
        6
 90
        1
 90
        3
 90
        1
 90
        6
 90
        5
 90
        3
 90
        1
 90
        5
 90
        2
 90
        3
 90
        2
 90
        5
 90
        4
 90
        3
 90
        2
 90
        4
 90
        3
 90
        3
 90
        7
 90
       11
 90
        8
 90
        3
 90
        8
 90
       11
 90
       10
 90
        3
 90
        8
 90
       10
 90
        9
 90
        3
 90
       23
 90
       19
 90
       12
 90
        3
 90
       12
 90
       19
 90
       18
 90
        3
 90
       12
 90
       18
 90
       13
 90
        3
 90
       13
 90
       18
 90
       17
 90
        3
 90
       13
 90
       17
 90
       14
 90
        3
 90
       14
 90
       17
 90
       16
 90
        3
 90
       14
 90
       16
 90
       15
 90
        3
 90
       19
 90
       23
 90
       20
 90
        3
 90
       20
 90
       23
 90
       22
 90
        3
 90
       20
 90
       22
 90
       21
 90
        3
 90
       25
 90
       47
 90
       24
 90
        3
 90
       24
 90
       47
 90
       36
 90
        3
 90
       24
 90
       36
 90
       35
 90
        3
 90
       35
 90
       36
 90
       37
 90
        3
 90
       35
 90
       37
 90
       34
 90
        3
 90
       34
 90
       37
 90
       38
 90
        3
 90
       34
 90
       38
 90
       33
 90
        3
 90
       33
 90
       38
 90
       39
 90
        3
 90
       33
 90
       39
 90
       32
 90
        3
 90
       32
 90
       39
 90
       40
 90
        3
 90
       32
 90
       40
 90
       31
 90
        3
 90
       31
 90
       40
 90
       41
 90
        3
 90
       31
 90
       41
 90
       30
 90
        3
 90
       30
 90
       41
 90
       42
 90
        3
 90
       30
 90
       42
 90
       29
 90
        3
 90
       29
 90
       42
 90
       43
 90
        3
 90
       29
 90
       43
 90
       28
 90
        3
 90
       28
 90
       43
 90
       44
 90
        3
 90
       28
 90
       44
 90
       27
 90
        3
 90
       27
 90
       44
 90
       45
 90
        3
 90
       27
 90
       45
 90
       26
 90
        3
 90
       26
 90
       45
 90
       46
 90
        3
 90
       26
 90
       46
 90
       25
 90
        3
 90
       25
 90
       46
 90
       47
 90
        3
 90
       35
 90
       31
 90
       24
 90
        3
 90
       24
 90
       31
 90
       30
 90
        3
 90
       24
 90
       30
 90
       25
 90
        3
 90
       25
 90
       30
 90
       29
 90
        3
 90
       25
 90
       29
 90
       26
 90
        3
 90
       26
 90
       29
 90
       28
 90
        3
 90
       26
 90
       28
 90
       27
 90
        3
 90
       31
 90
       35
 90
       32
 90
        3
 90
       32
 90
       35
 90
       34
 90
        3
 90
       32
 90
       34
 90
       33
 90
        3
 90
       47
 90
       43
 90
       36
 90
        3
 90
       36
 90
       43
 90
       42
 90
        3
 90
       36
 90
       42
 90
       37
 90
        3
 90
       37
 90
       42
 90
       41
 90
        3
 90
       37
 90
       41
 90
       38
 90
        3
 90
       38
 90
       41
 90
       40
 90
        3
 90
       38
 90
       40
 90
       39
 90
        3
 90
       43
 90
       47
 90
       44
 90
        3
 90
       44
 90
       47
 90
       46
 90
        3
 90
       44
 90
       46
 90
       45
 94
      132
 90
        1
 90
       23
 90
        0
 90
       23
 90
        0
 90
        1
 90
       12
 90
       23
 90
        0
 90
       12
 90
       11
 90
       12
 90
        0
 90
       11
 90
       12
 90
       13
 90
       11
 90
       13
 90
       10
 90
       13
 90
       10
 90
       11
 90
       13
 90
       14
 90
       10
 90
       14
 90
        9
 90
       14
 90
        9
 90
       10
 90
       14
 90
       15
 90
        9
 90
       15
 90
        8
 90
       15
 90
        8
 90
        9
 90
       15
 90
       16
 90
        8
 90
       16
 90
        7
 90
       16
 90
        7
 90
        8
 90
       16
 90
       17
 90
        7
 90
       17
 90
        6
 90
       17
 90
        6
 90
        7
 90
       17
 90
       18
 90
        6
 90
       18
 90
        5
 90
       18
 90
        5
 90
        6
 90
       18
 90
       19
 90
        5
 90
       19
 90
        4
 90
       19
 90
        4
 90
        5
 90
       19
 90
       20
 90
        4
 90
       20
 90
        3
 90
       20
 90
        3
 90
        4
 90
       20
 90
       21
 90
        3
 90
       21
 90
        2
 90
       21
 90
        2
 90
        3
 90
       21
 90
       22
 90
        2
 90
       22
 90
        1
 90
       22
 90
        1
 90
        2
 90
       22
 90
       23
 90
        7
 90
       11
 90
        0
 90
        7
 90
        0
 90
        6
 90
        1
 90
        6
 90
        1
 90
        5
 90
        2
 90
        5
 90
        2
 90
        4
 90
        8
 90
       11
 90
        8
 90
       10
 90
       19
 90
       23
 90
       12
 90
       19
 90
       12
 90
       18
 90
       13
 90
       18
 90
       13
 90
       17
 90
       14
 90
       17
 90
       14
 90
       16
 90
       20
 90
       23
 90
       20
 90
       22
 90
       25
 90
       47
 90
       24
 90
       47
 90
       24
 90
       25
 90
       36
 90
       47
 90
       24
 90
       36
 90
       35
 90
       36
 90
       24
 90
       35
 90
       36
 90
       37
 90
       35
 90
       37
 90
       34
 90
       37
 90
       34
 90
       35
 90
       37
 90
       38
 90
       34
 90
       38
 90
       33
 90
       38
 90
       33
 90
       34
 90
       38
 90
       39
 90
       33
 90
       39
 90
       32
 90
       39
 90
       32
 90
       33
 90
       39
 90
       40
 90
       32
 90
       40
 90
       31
 90
       40
 90
       31
 90
       32
 90
       40
 90
       41
 90
       31
 90
       41
 90
       30
 90
       41
 90
       30
 90
       31
 90
       41
 90
       42
 90
       30
 90
       42
 90
       29
 90
       42
 90
       29
 90
       30
 90
       42
 90
       43
 90
       29
 90
       43
 90
       28
 90
       43
 90
       28
 90
       29
 90
       43
 90
       44
 90
       28
 90
       44
 90
       27
 90
       44
 90
       27
 90
       28
 90
       44
 90
       45
 90
       27
 90
       45
 90
       26
 90
       45
 90
       26
 90
       27
 90
       45
 90
       46
 90
       26
 90
       46
 90
       25
 90
       46
 90
       25
 90
       26
 90
       46
 90
       47
 90
       31
 90
       35
 90
       24
 90
       31
 90
       24
 90
       30
 90
       25
 90
       30
 90
       25
 90
       29
 90
       26
 90
       29
 90
       26
 90
       28
 90
       32
 90
       35
 90
       32
 90
       34
 90
       43
 90
       47
 90
       36
 90
       43
 90
       36
 90
       42
 90
       37
 90
       42
 90
       37
 90
       41
 90
       38
 90
       41
 90
       38
 90
       40
 90
       44
 90
       47
 90
       44
 90
       46
 95
      132
140
0.0
140
0.0
140
0.0
140
0.0
140
0.0
140
0.0
140
0.0
140
0.0
140
0.0
140
0.0
140
0.0
140
0.0
140
0.0
140
0.0
140
0.0
140
0.0
140
0.0
140
0.0
140
0.0
140
0.0
140
0.0
140
0.0
140
0.0
140
0.0
140
0.0
140
0.0
140
0.0
140
0.0
140
0.0
140
0.0
140
0.0
140
0.0
140
0.0
140
0.0
140
0.0
140
0.0
140
0.0
140
0.0
140
0.0
140
0.0
140
0.0
140
0.0
140
0.0
140
0.0
140
0.0
140
0.0
140
0.0
140
0.0
140
0.0
140
0.0
140
0.0
140
0.0
140
0.0
140
0.0
140
0.0
140
0.0
140
0.0
140
0.0
140
0.0
140
0.0
140
0.0
140
0.0
140
0.0
140
0.0
140
0.0
140
0.0
140
0.0
140
0.0
140
0.0
140
0.0
140
0.0
140
0.0
140
0.0
140
0.0
140
0.0
140
0.0
140
0.0
140
0.0
140
0.0
140
0.0
140
0.0
140
0.0
140
0.0
140
0.0
140
0.0
140
0.0
140
0.0
140
0.0
140
0.0
140
0.0
140
0.0
140
0.0
140
0.0
140
0.0
140
0.0
140
0.0
140
0.0
140
0.0
140
0.0
140
0.0
140
0.0
140
0.0
140
0.0
140
0.0
140
0.0
140
0.0
140
0.0
140
0.0
140
0.0
140
0.0
140
0.0
140
0.0
140
0.0
140
0.0
140
0.0
140
0.0
140
0.0
140
0.0
140
0.0
140
0.0
140
0.0
140
0.0
140
0.0
140
0.0
140
0.0
140
0.0
140
0.0
140
0.0
140
0.0
140
0.0
140
0.0
140
0.0
 90
        0
  0
ENDSEC
  0
SECTION
  2
OBJECTS
  0
DICTIONARY
  5
C
330
0
100
AcDbDictionary
281
     1
  3
ACAD_COLOR
350
DC
  3
ACAD_DETAILVIEWSTYLE
350
F5
  3
ACAD_GROUP
350
D
  3
ACAD_LAYOUT
350
1A
  3
ACAD_MATERIAL
350
AA
  3
ACAD_MLEADERSTYLE
350
F1
  3
ACAD_MLINESTYLE
350
17
  3
ACAD_PLOTSETTINGS
350
19
  3
ACAD_PLOTSTYLENAME
350
E
  3
ACAD_SCALELIST
350
DF
  3
ACAD_SECTIONVIEWSTYLE
350
F3
  3
ACAD_TABLESTYLE
350
DD
  3
ACAD_VISUALSTYLE
350
C3
  3
ACDB_RECOMPOSE_DATA
350
109
  3
AcDbVariableDictionary
350
FD
  0
DICTIONARY
  5
DC
102
{ACAD_REACTORS
330
C
102
}
330
C
100
AcDbDictionary
281
     1
  0
DICTIONARY
  5
F5
102
{ACAD_REACTORS
330
C
102
}
330
C
100
AcDbDictionary
281
     1
  3
Imperial24
350
F6
  0
DICTIONARY
  5
D
102
{ACAD_REACTORS
330
C
102
}
330
C
100
AcDbDictionary
281
     1
  0
DICTIONARY
  5
1A
102
{ACAD_REACTORS
330
C
102
}
330
C
100
AcDbDictionary
281
     1
  3
Layout1
350
1E
  3
Layout2
350
26
  3
Model
350
22
  0
DICTIONARY
  5
AA
102
{ACAD_REACTORS
330
C
102
}
330
C
100
AcDbDictionary
281
     1
  3
ByBlock
350
B3
  3
ByLayer
350
AB
  3
Global
350
BB
  0
DICTIONARY
  5
F1
102
{ACAD_REACTORS
330
C
102
}
330
C
100
AcDbDictionary
281
     1
  3
Standard
350
F2
  0
DICTIONARY
  5
17
102
{ACAD_REACTORS
330
C
102
}
330
C
100
AcDbDictionary
281
     1
  3
Standard
350
18
  0
DICTIONARY
  5
19
102
{ACAD_REACTORS
330
C
102
}
330
C
100
AcDbDictionary
281
     1
  0
ACDBDICTIONARYWDFLT
  5
E
102
{ACAD_REACTORS
330
C
102
}
330
C
100
AcDbDictionary
281
     1
  3
ByLayer
350
2D
  3
Normal
350
F
100
AcDbDictionaryWithDefault
340
F
  0
DICTIONARY
  5
DF
102
{ACAD_REACTORS
330
C
102
}
330
C
100
AcDbDictionary
281
     1
  3
A0
350
E0
  3
A1
350
E1
  3
A2
350
E2
  3
A3
350
E3
  3
A4
350
E4
  3
A5
350
E5
  3
A6
350
E6
  3
A7
350
E7
  3
A8
350
E8
  3
A9
350
E9
  3
B0
350
EA
  3
B1
350
EB
  3
B2
350
EC
  3
B3
350
ED
  3
B4
350
EE
  3
B5
350
EF
  3
B6
350
F0
  0
DICTIONARY
  5
F3
102
{ACAD_REACTORS
330
C
102
}
330
C
100
AcDbDictionary
281
     1
  3
Imperial24
350
F4
  0
DICTIONARY
  5
DD
102
{ACAD_REACTORS
330
C
102
}
330
C
100
AcDbDictionary
281
     1
  3
Standard
350
DE
  0
DICTIONARY
  5
C3
102
{ACAD_REACTORS
330
C
102
}
330
C
100
AcDbDictionary
281
     1
  3
2dWireframe
350
C9
  3
Basic
350
C8
  3
Brighten
350
CF
  3
ColorChange
350
D3
  3
Conceptual
350
CC
  3
Dim
350
CE
  3
EdgeColorOff
350
DB
  3
Facepattern
350
D2
  3
Flat
350
C4
  3
FlatWithEdges
350
C5
  3
Gouraud
350
C6
  3
GouraudWithEdges
350
C7
  3
Hidden
350
CB
  3
JitterOff
350
D9
  3
Linepattern
350
D1
  3
OverhangOff
350
DA
  3
Realistic
350
CD
  3
Shaded
350
D8
  3
Shaded with edges
350
D7
  3
Shades of Gray
350
D4
  3
Sketchy
350
D5
  3
Thicken
350
D0
  3
Wireframe
350
CA
  3
X-Ray
350
D6
  0
XRECORD
  5
109
102
{ACAD_REACTORS
330
C
102
}
330
C
100
AcDbXrecord
280
     1
 90
        1
330
DE
  0
DICTIONARY
  5
FD
102
{ACAD_REACTORS
330
C
102
}
330
C
100
AcDbDictionary
281
     1
  3
CANNOSCALE
350
103
  3
CMLEADERSTYLE
350
FF
  3
CTABLESTYLE
350
FE
  3
CVIEWDETAILSTYLE
350
100
  3
CVIEWSECTIONSTYLE
350
101
  3
LAYEREVAL
350
105
  3
LAYERNOTIFY
350
106
  3
LIGHTINGUNITS
350
104
  3
MSLTSCALE
350
102
  0
ACDBDETAILVIEWSTYLE
  5
F6
102
{ACAD_XDICTIONARY
360
13E
102
}
102
{ACAD_REACTORS
330
F5
102
}
330
F5
100
AcDbModelDocViewStyle
 70
     0
  3
Imperial24
290
     0
100
AcDbDetailViewStyle
 70
     0
 71
     0
 90
        3
 71
     1
340
11
 62
   256
 40
0.24
340
0
 62
   256
 40
0.24
300

 40
0.36
280
     3
 71
     2
340
16
 90
       25
 62
   256
 71
     3
340
11
 62
   256
 40
0.24
 90
        1
 40
0.75
 90
        1
300
%<\AcVar ViewType \f "%tc1">% %<\AcVar ViewDetailId>%\PSCALE %<\AcVar ViewScale \f "%sn">%
 71
     4
340
16
 90
       25
 62
   256
340
16
 90
       25
 62
   256
280
     0
  0
LAYOUT
  5
1E
102
{ACAD_REACTORS
330
1A
102
}
330
1A
100
AcDbPlotSettings
  1

  2
\\KTXNTBDC\CASF2PN1
  4

  6

 40
0.0
 41
0.0
 42
0.0
 43
0.0
 44
0.0
 45
0.0
 46
0.0
 47
0.0
 48
0.0
 49
0.0
140
0.0
141
0.0
142
1.0
143
1.0
 70
   688
 72
     0
 73
     0
 74
     5
  7

 75
    16
147
1.0
 76
     0
 77
     2
 78
   300
148
0.0
149
0.0
100
AcDbLayout
  1
Layout1
 70
     1
 71
     1
 10
0.0
 20
0.0
 11
12.0
 21
9.0
 12
0.0
 22
0.0
 32
0.0
 14
1.000000000000000E+20
 24
1.000000000000000E+20
 34
1.000000000000000E+20
 15
-1.000000000000000E+20
 25
-1.000000000000000E+20
 35
-1.000000000000000E+20
146
0.0
 13
0.0
 23
0.0
 33
0.0
 16
1.0
 26
0.0
 36
0.0
 17
0.0
 27
1.0
 37
0.0
 76
     0
330
1B
  0
LAYOUT
  5
26
102
{ACAD_REACTORS
330
1A
102
}
330
1A
100
AcDbPlotSettings
  1

  2
\\KTXNTBDC\CASF2PN1
  4

  6

 40
0.0
 41
0.0
 42
0.0
 43
0.0
 44
0.0
 45
0.0
 46
0.0
 47
0.0
 48
0.0
 49
0.0
140
0.0
141
0.0
142
1.0
143
1.0
 70
   688
 72
     0
 73
     0
 74
     5
  7

 75
    16
147
1.0
 76
     0
 77
     2
 78
   300
148
0.0
149
0.0
100
AcDbLayout
  1
Layout2
 70
     1
 71
     2
 10
0.0
 20
0.0
 11
12.0
 21
9.0
 12
0.0
 22
0.0
 32
0.0
 14
0.0
 24
0.0
 34
0.0
 15
0.0
 25
0.0
 35
0.0
146
0.0
 13
0.0
 23
0.0
 33
0.0
 16
1.0
 26
0.0
 36
0.0
 17
0.0
 27
1.0
 37
0.0
 76
     0
330
23
  0
LAYOUT
  5
22
102
{ACAD_REACTORS
330
1A
102
}
330
1A
100
AcDbPlotSettings
  1

  2
\\KTXNTBDC\CASF2PN1
  4

  6

 40
0.0
 41
0.0
 42
0.0
 43
0.0
 44
0.0
 45
0.0
 46
0.0
 47
0.0
 48
0.0
 49
0.0
140
0.0
141
0.0
142
1.0
143
1.0
 70
  1712
 72
     0
 73
     0
 74
     0
  7

 75
     0
147
1.0
 76
     0
 77
     2
 78
   300
148
0.0
149
0.0
100
AcDbLayout
  1
Model
 70
     1
 71
     0
 10
0.0
 20
0.0
 11
12.0
 21
9.0
 12
0.0
 22
0.0
 32
0.0
 14
0.0
 24
0.0
 34
0.0
 15
0.0
 25
0.0
 35
0.0
146
0.0
 13
0.0
 23
0.0
 33
0.0
 16
1.0
 26
0.0
 36
0.0
 17
0.0
 27
1.0
 37
0.0
 76
     0
330
1F
  0
MATERIAL
  5
B3
102
{ACAD_XDICTIONARY
360
B4
102
}
102
{ACAD_REACTORS
330
AA
102
}
330
AA
100
AcDbMaterial
  1
ByBlock
 72
     0
 43
0.0208333333333333
 43
0.0
 43
0.0
 43
0.0
 43
0.0
 43
0.0208333333333333
 43
0.0
 43
0.0
 43
0.0
 43
0.0
 43
1.0
 43
0.0
 43
0.0
 43
0.0
 43
0.0
 43
1.0
 77
     0
 47
0.0208333333333333
 47
0.0
 47
0.0
 47
0.0
 47
0.0
 47
0.0208333333333333
 47
0.0
 47
0.0
 47
0.0
 47
0.0
 47
1.0
 47
0.0
 47
0.0
 47
0.0
 47
0.0
 47
1.0
171
     0
 49
0.0208333333333333
 49
0.0
 49
0.0
 49
0.0
 49
0.0
 49
0.0208333333333333
 49
0.0
 49
0.0
 49
0.0
 49
0.0
 49
1.0
 49
0.0
 49
0.0
 49
0.0
 49
0.0
 49
1.0
175
     0
142
0.0208333333333333
142
0.0
142
0.0
142
0.0
142
0.0
142
0.0208333333333333
142
0.0
142
0.0
142
0.0
142
0.0
142
1.0
142
0.0
142
0.0
142
0.0
142
0.0
142
1.0
179
     0
144
0.0208333333333333
144
0.0
144
0.0
144
0.0
144
0.0
144
0.0208333333333333
144
0.0
144
0.0
144
0.0
144
0.0
144
1.0
144
0.0
144
0.0
144
0.0
144
0.0
144
1.0
147
0.0208333333333333
147
0.0
147
0.0
147
0.0
147
0.0
147
0.0208333333333333
147
0.0
147
0.0
147
0.0
147
0.0
147
1.0
147
0.0
147
0.0
147
0.0
147
0.0
147
1.0
  0
MATERIAL
  5
AB
102
{ACAD_XDICTIONARY
360
AC
102
}
102
{ACAD_REACTORS
330
AA
102
}
330
AA
100
AcDbMaterial
  1
ByLayer
 72
     0
 43
0.0208333333333333
 43
0.0
 43
0.0
 43
0.0
 43
0.0
 43
0.0208333333333333
 43
0.0
 43
0.0
 43
0.0
 43
0.0
 43
1.0
 43
0.0
 43
0.0
 43
0.0
 43
0.0
 43
1.0
 77
     0
 47
0.0208333333333333
 47
0.0
 47
0.0
 47
0.0
 47
0.0
 47
0.0208333333333333
 47
0.0
 47
0.0
 47
0.0
 47
0.0
 47
1.0
 47
0.0
 47
0.0
 47
0.0
 47
0.0
 47
1.0
171
     0
 49
0.0208333333333333
 49
0.0
 49
0.0
 49
0.0
 49
0.0
 49
0.0208333333333333
 49
0.0
 49
0.0
 49
0.0
 49
0.0
 49
1.0
 49
0.0
 49
0.0
 49
0.0
 49
0.0
 49
1.0
175
     0
142
0.0208333333333333
142
0.0
142
0.0
142
0.0
142
0.0
142
0.0208333333333333
142
0.0
142
0.0
142
0.0
142
0.0
142
1.0
142
0.0
142
0.0
142
0.0
142
0.0
142
1.0
179
     0
144
0.0208333333333333
144
0.0
144
0.0
144
0.0
144
0.0
144
0.0208333333333333
144
0.0
144
0.0
144
0.0
144
0.0
144
1.0
144
0.0
144
0.0
144
0.0
144
0.0
144
1.0
147
0.0208333333333333
147
0.0
147
0.0
147
0.0
147
0.0
147
0.0208333333333333
147
0.0
147
0.0
147
0.0
147
0.0
147
1.0
147
0.0
147
0.0
147
0.0
147
0.0
147
1.0
  0
MATERIAL
  5
BB
102
{ACAD_XDICTIONARY
360
BC
102
}
102
{ACAD_REACTORS
330
AA
102
}
330
AA
100
AcDbMaterial
  1
Global
 72
     0
 43
0.0208333333333333
 43
0.0
 43
0.0
 43
0.0
 43
0.0
 43
0.0208333333333333
 43
0.0
 43
0.0
 43
0.0
 43
0.0
 43
1.0
 43
0.0
 43
0.0
 43
0.0
 43
0.0
 43
1.0
 77
     0
 47
0.0208333333333333
 47
0.0
 47
0.0
 47
0.0
 47
0.0
 47
0.0208333333333333
 47
0.0
 47
0.0
 47
0.0
 47
0.0
 47
1.0
 47
0.0
 47
0.0
 47
0.0
 47
0.0
 47
1.0
171
     0
 49
0.0208333333333333
 49
0.0
 49
0.0
 49
0.0
 49
0.0
 49
0.0208333333333333
 49
0.0
 49
0.0
 49
0.0
 49
0.0
 49
1.0
 49
0.0
 49
0.0
 49
0.0
 49
0.0
 49
1.0
175
     0
142
0.0208333333333333
142
0.0
142
0.0
142
0.0
142
0.0
142
0.0208333333333333
142
0.0
142
0.0
142
0.0
142
0.0
142
1.0
142
0.0
142
0.0
142
0.0
142
0.0
142
1.0
179
     0
144
0.0208333333333333
144
0.0
144
0.0
144
0.0
144
0.0
144
0.0208333333333333
144
0.0
144
0.0
144
0.0
144
0.0
144
1.0
144
0.0
144
0.0
144
0.0
144
0.0
144
1.0
147
0.0208333333333333
147
0.0
147
0.0
147
0.0
147
0.0
147
0.0208333333333333
147
0.0
147
0.0
147
0.0
147
0.0
147
1.0
147
0.0
147
0.0
147
0.0
147
0.0
147
1.0
  0
MLEADERSTYLE
  5
F2
102
{ACAD_XDICTIONARY
360
13A
102
}
102
{ACAD_REACTORS
330
F1
102
}
330
F1
100
AcDbMLeaderStyle
179
     2
170
     2
171
     1
172
     0
 90
        2
 40
0.0
 41
0.0
173
     1
 91
-1056964608
340
14
 92
       -2
290
     1
 42
0.09
291
     1
 43
0.36
  3
Standard
 44
0.18
300

342
11
174
     1
178
     6
175
     1
176
     0
 93
-1056964608
 45
0.18
292
     0
297
     0
 46
0.18
 94
-1056964608
 47
1.0
 49
1.0
140
1.0
293
     1
141
0.0
294
     1
177
     0
142
1.0
295
     0
296
     0
143
0.125
271
     0
272
     9
273
     9
  0
MLINESTYLE
  5
18
102
{ACAD_REACTORS
330
17
102
}
330
17
100
AcDbMlineStyle
  2
STANDARD
 70
     0
  3

 62
   256
 51
90.0
 52
90.0
 71
     2
 49
0.5
 62
   256
  6
BYLAYER
 49
-0.5
 62
   256
  6
BYLAYER
  0
ACDBPLACEHOLDER
  5
2D
102
{ACAD_REACTORS
330
E
102
}
330
E
  0
ACDBPLACEHOLDER
  5
F
102
{ACAD_REACTORS
330
E
102
}
330
E
  0
SCALE
  5
E0
102
{ACAD_REACTORS
330
DF
102
}
330
DF
100
AcDbScale
 70
     0
300
1:1
140
1.0
141
1.0
290
     1
  0
SCALE
  5
E1
102
{ACAD_REACTORS
330
DF
102
}
330
DF
100
AcDbScale
 70
     0
300
1/128" = 1'-0"
140
0.0078125
141
12.0
290
     0
  0
SCALE
  5
E2
102
{ACAD_REACTORS
330
DF
102
}
330
DF
100
AcDbScale
 70
     0
300
1/64" = 1'-0"
140
0.015625
141
12.0
290
     0
  0
SCALE
  5
E3
102
{ACAD_REACTORS
330
DF
102
}
330
DF
100
AcDbScale
 70
     0
300
1/32" = 1'-0"
140
0.03125
141
12.0
290
     0
  0
SCALE
  5
E4
102
{ACAD_REACTORS
330
DF
102
}
330
DF
100
AcDbScale
 70
     0
300
1/16" = 1'-0"
140
0.0625
141
12.0
290
     0
  0
SCALE
  5
E5
102
{ACAD_REACTORS
330
DF
102
}
330
DF
100
AcDbScale
 70
     0
300
3/32" = 1'-0"
140
0.09375
141
12.0
290
     0
  0
SCALE
  5
E6
102
{ACAD_REACTORS
330
DF
102
}
330
DF
100
AcDbScale
 70
     0
300
1/8" = 1'-0"
140
0.125
141
12.0
290
     0
  0
SCALE
  5
E7
102
{ACAD_REACTORS
330
DF
102
}
330
DF
100
AcDbScale
 70
     0
300
3/16" = 1'-0"
140
0.1875
141
12.0
290
     0
  0
SCALE
  5
E8
102
{ACAD_REACTORS
330
DF
102
}
330
DF
100
AcDbScale
 70
     0
300
1/4" = 1'-0"
140
0.25
141
12.0
290
     0
  0
SCALE
  5
E9
102
{ACAD_REACTORS
330
DF
102
}
330
DF
100
AcDbScale
 70
     0
300
3/8" = 1'-0"
140
0.375
141
12.0
290
     0
  0
SCALE
  5
EA
102
{ACAD_REACTORS
330
DF
102
}
330
DF
100
AcDbScale
 70
     0
300
1/2" = 1'-0"
140
0.5
141
12.0
290
     0
  0
SCALE
  5
EB
102
{ACAD_REACTORS
330
DF
102
}
330
DF
100
AcDbScale
 70
     0
300
3/4" = 1'-0"
140
0.75
141
12.0
290
     0
  0
SCALE
  5
EC
102
{ACAD_REACTORS
330
DF
102
}
330
DF
100
AcDbScale
 70
     0
300
1" = 1'-0"
140
1.0
141
12.0
290
     0
  0
SCALE
  5
ED
102
{ACAD_REACTORS
330
DF
102
}
330
DF
100
AcDbScale
 70
     0
300
1-1/2" = 1'-0"
140
1.5
141
12.0
290
     0
  0
SCALE
  5
EE
102
{ACAD_REACTORS
330
DF
102
}
330
DF
100
AcDbScale
 70
     0
300
3" = 1'-0"
140
3.0
141
12.0
290
     0
  0
SCALE
  5
EF
102
{ACAD_REACTORS
330
DF
102
}
330
DF
100
AcDbScale
 70
     0
300
6" = 1'-0"
140
6.0
141
12.0
290
     0
  0
SCALE
  5
F0
102
{ACAD_REACTORS
330
DF
102
}
330
DF
100
AcDbScale
 70
     0
300
1'-0" = 1'-0"
140
12.0
141
12.0
290
     0
  0
ACDBSECTIONVIEWSTYLE
  5
F4
102
{ACAD_XDICTIONARY
360
13C
102
}
102
{ACAD_REACTORS
330
F3
102
}
330
F3
100
AcDbModelDocViewStyle
 70
     0
  3
Imperial24
290
     0
100
AcDbSectionViewStyle
 70
     0
 71
     0
 90
       78
 71
     1
340
11
 62
   256
 40
0.24
340
0
340
0
 62
   256
 40
0.24
300
I, O, Q, S, X, Z
 40
0.48
 90
        3
 40
0.18
 90
        1
 71
     2
340
16
 90
       25
 62
   256
340
16
 90
       50
 62
   256
 40
0.24
 40
0.0
 40
0.24
 71
     3
340
11
 62
   256
 40
0.24
 90
        1
 40
0.75
 90
        1
300
%<\AcVar ViewType \f "%tc1">% %<\AcVar ViewSectionStartId>%-%<\AcVar ViewSectionEndId>%\PSCALE %<\AcVar ViewScale \f "%sn">%
 71
     4
 62
   256
 62
   257
300
ANSI31
 40
1.0
 90
        0
290
     0
290
     0
 90
        6
 40
0.0
 40
1.570796326794896
 40
0.2617993877991494
 40
1.308996938995747
 40
-0.2617993877991494
 40
1.832595714594046
  0
TABLESTYLE
  5
DE
102
{ACAD_XDICTIONARY
360
107
102
}
102
{ACAD_REACTORS
330
DD
102
}
330
DD
100
AcDbTableStyle
280
     0
  3
Standard
 70
     0
 71
     0
 40
0.06
 41
0.06
280
     0
281
     0
  7
Standard
140
0.18
170
     2
 62
     0
 63
     7
283
     0
 90
      512
 91
        0
  1

274
    -2
284
     1
 64
     0
275
    -2
285
     1
 65
     0
276
    -2
286
     1
 66
     0
277
    -2
287
     1
 67
     0
278
    -2
288
     1
 68
     0
279
    -2
289
     1
 69
     0
  7
Standard
140
0.25
170
     5
 62
     0
 63
     7
283
     0
 90
      512
 91
        0
  1

274
    -2
284
     1
 64
     0
275
    -2
285
     1
 65
     0
276
    -2
286
     1
 66
     0
277
    -2
287
     1
 67
     0
278
    -2
288
     1
 68
     0
279
    -2
289
     1
 69
     0
  7
Standard
140
0.18
170
     5
 62
     0
 63
     7
283
     0
 90
      512
 91
        0
  1

274
    -2
284
     1
 64
     0
275
    -2
285
     1
 65
     0
276
    -2
286
     1
 66
     0
277
    -2
287
     1
 67
     0
278
    -2
288
     1
 68
     0
279
    -2
289
     1
 69
     0
  0
VISUALSTYLE
  5
C9
102
{ACAD_XDICTIONARY
360
114
102
}
102
{ACAD_REACTORS
330
C3
102
}
330
C3
100
AcDbVisualStyle
  2
2dWireframe
 70
     4
177
     2
291
     0
 71
     0
176
     1
 72
     2
176
     1
 73
     0
176
     1
 90
        0
176
     1
 40
0.6
176
     1
 41
30.0
176
     1
 63
     7
421
 16777215
176
     1
 74
     1
176
     1
 91
        4
176
     1
 64
     7
176
     1
 65
   257
176
     1
 75
     1
176
     1
175
     1
176
     1
 42
1.0
176
     1
 92
        0
176
     1
 66
   257
176
     1
 43
1.0
176
     1
 76
     1
176
     1
 77
     6
176
     1
 78
     2
176
     1
 67
     7
176
     1
 79
     5
176
     1
170
     0
176
     1
171
     0
176
     1
290
     0
176
     1
 93
        1
176
     1
 44
0.0
176
     1
173
     0
176
     1
1001
ACAD
1000
AcDbSavedByObjectVersion
1070
     0
  0
VISUALSTYLE
  5
C8
102
{ACAD_XDICTIONARY
360
112
102
}
102
{ACAD_REACTORS
330
C3
102
}
330
C3
100
AcDbVisualStyle
  2
Basic
 70
     7
177
     2
291
     1
 71
     1
176
     1
 72
     0
176
     1
 73
     1
176
     1
 90
        0
176
     1
 40
0.6
176
     1
 41
30.0
176
     1
 63
     7
421
 16777215
176
     1
 74
     0
176
     1
 91
        4
176
     1
 64
     7
176
     1
 65
   257
176
     1
 75
     1
176
     1
175
     1
176
     1
 42
1.0
176
     1
 92
        8
176
     1
 66
     7
176
     1
 43
1.0
176
     1
 76
     1
176
     1
 77
     6
176
     1
 78
     2
176
     1
 67
     7
176
     1
 79
     5
176
     1
170
     0
176
     1
171
     0
176
     1
290
     0
176
     1
 93
        1
176
     1
 44
0.0
176
     1
173
     0
176
     1
1001
ACAD
1000
AcDbSavedByObjectVersion
1070
     0
  0
VISUALSTYLE
  5
CF
102
{ACAD_XDICTIONARY
360
120
102
}
102
{ACAD_REACTORS
330
C3
102
}
330
C3
100
AcDbVisualStyle
  2
Brighten
 70
    12
177
     2
291
     1
 71
     2
176
     1
 72
     2
176
     1
 73
     0
176
     1
 90
        0
176
     1
 40
0.6
176
     1
 41
30.0
176
     1
 63
     7
421
 16777215
176
     1
 74
     1
176
     1
 91
        4
176
     1
 64
     7
176
     1
 65
   257
176
     1
 75
     1
176
     1
175
     1
176
     1
 42
1.0
176
     1
 92
        8
176
     1
 66
     7
176
     1
 43
1.0
176
     1
 76
     1
176
     1
 77
     6
176
     1
 78
     2
176
     1
 67
     7
176
     1
 79
     5
176
     1
170
     0
176
     1
171
     0
176
     1
290
     0
176
     1
 93
        1
176
     1
 44
50.0
176
     1
173
     0
176
     1
1001
ACAD
1000
AcDbSavedByObjectVersion
1070
     0
  0
VISUALSTYLE
  5
D3
102
{ACAD_XDICTIONARY
360
128
102
}
102
{ACAD_REACTORS
330
C3
102
}
330
C3
100
AcDbVisualStyle
  2
ColorChange
 70
    16
177
     2
291
     1
 71
     2
176
     1
 72
     2
176
     1
 73
     3
176
     1
 90
        0
176
     1
 40
0.6
176
     1
 41
30.0
176
     1
 63
     8
421
  8421504
176
     1
 74
     1
176
     1
 91
        4
176
     1
 64
     7
176
     1
 65
   257
176
     1
 75
     1
176
     1
175
     1
176
     1
 42
1.0
176
     1
 92
        8
176
     1
 66
     8
424
  8421504
176
     1
 43
1.0
176
     1
 76
     1
176
     1
 77
     6
176
     1
 78
     2
176
     1
 67
     7
176
     1
 79
     5
176
     1
170
     0
176
     1
171
     0
176
     1
290
     0
176
     1
 93
        1
176
     1
 44
0.0
176
     1
173
     0
176
     1
1001
ACAD
1000
AcDbSavedByObjectVersion
1070
     0
  0
VISUALSTYLE
  5
CC
102
{ACAD_XDICTIONARY
360
11A
102
}
102
{ACAD_REACTORS
330
C3
102
}
330
C3
100
AcDbVisualStyle
  2
Conceptual
 70
     9
177
     2
291
     0
 71
     3
176
     1
 72
     2
176
     1
 73
     0
176
     1
 90
        0
176
     1
 40
0.6
176
     1
 41
30.0
176
     1
 63
     7
421
 16777215
176
     1
 74
     2
176
     1
 91
        2
176
     1
 64
     7
176
     1
 65
   257
176
     1
 75
     1
176
     1
175
     1
176
     1
 42
179.0
176
     1
 92
        8
176
     1
 66
     7
176
     1
 43
1.0
176
     1
 76
     1
176
     1
 77
     6
176
     1
 78
     2
176
     1
 67
     7
176
     1
 79
     3
176
     1
170
     0
176
     1
171
     0
176
     1
290
     0
176
     1
 93
        1
176
     1
 44
0.0
176
     1
173
     0
176
     1
1001
ACAD
1000
AcDbSavedByObjectVersion
1070
     0
  0
VISUALSTYLE
  5
CE
102
{ACAD_XDICTIONARY
360
11E
102
}
102
{ACAD_REACTORS
330
C3
102
}
330
C3
100
AcDbVisualStyle
  2
Dim
 70
    11
177
     2
291
     1
 71
     2
176
     1
 72
     2
176
     1
 73
     0
176
     1
 90
        0
176
     1
 40
0.6
176
     1
 41
30.0
176
     1
 63
     7
421
 16777215
176
     1
 74
     1
176
     1
 91
        4
176
     1
 64
     7
176
     1
 65
   257
176
     1
 75
     1
176
     1
175
     1
176
     1
 42
1.0
176
     1
 92
        8
176
     1
 66
     7
176
     1
 43
1.0
176
     1
 76
     1
176
     1
 77
     6
176
     1
 78
     2
176
     1
 67
     7
176
     1
 79
     5
176
     1
170
     0
176
     1
171
     0
176
     1
290
     0
176
     1
 93
        1
176
     1
 44
-50.0
176
     1
173
     0
176
     1
1001
ACAD
1000
AcDbSavedByObjectVersion
1070
     0
  0
VISUALSTYLE
  5
DB
102
{ACAD_XDICTIONARY
360
138
102
}
102
{ACAD_REACTORS
330
C3
102
}
330
C3
100
AcDbVisualStyle
  2
EdgeColorOff
 70
    22
177
     2
291
     1
 71
     2
176
     0
 72
     2
176
     0
 73
     0
176
     0
 90
        0
176
     0
 40
0.6
176
     0
 41
30.0
176
     0
 63
     7
421
 16777215
176
     0
 74
     1
176
     0
 91
        4
176
     0
 64
     7
176
     0
 65
   257
176
     0
 75
     1
176
     0
175
     1
176
     0
 42
1.0
176
     0
 92
        8
176
     2
 66
     7
176
     0
 43
1.0
176
     0
 76
     1
176
     0
 77
     6
176
     0
 78
     2
176
     0
 67
     7
176
     0
 79
     5
176
     0
170
     0
176
     0
171
     0
176
     0
290
     0
176
     0
 93
        1
176
     0
 44
0.0
176
     0
173
     0
176
     0
1001
ACAD
1000
AcDbSavedByObjectVersion
1070
     0
  0
VISUALSTYLE
  5
D2
102
{ACAD_XDICTIONARY
360
126
102
}
102
{ACAD_REACTORS
330
C3
102
}
330
C3
100
AcDbVisualStyle
  2
Facepattern
 70
    15
177
     2
291
     1
 71
     2
176
     1
 72
     2
176
     1
 73
     0
176
     1
 90
        0
176
     1
 40
0.6
176
     1
 41
30.0
176
     1
 63
     7
421
 16777215
176
     1
 74
     1
176
     1
 91
        4
176
     1
 64
     7
176
     1
 65
   257
176
     1
 75
     1
176
     1
175
     1
176
     1
 42
1.0
176
     1
 92
        8
176
     1
 66
     7
176
     1
 43
1.0
176
     1
 76
     1
176
     1
 77
     6
176
     1
 78
     2
176
     1
 67
     7
176
     1
 79
     5
176
     1
170
     0
176
     1
171
     0
176
     1
290
     0
176
     1
 93
        1
176
     1
 44
0.0
176
     1
173
     0
176
     1
1001
ACAD
1000
AcDbSavedByObjectVersion
1070
     0
  0
VISUALSTYLE
  5
C4
102
{ACAD_XDICTIONARY
360
10A
102
}
102
{ACAD_REACTORS
330
C3
102
}
330
C3
100
AcDbVisualStyle
  2
Flat
 70
     0
177
     2
291
     1
 71
     2
176
     1
 72
     1
176
     1
 73
     1
176
     1
 90
        2
176
     1
 40
0.6
176
     1
 41
30.0
176
     1
 63
     7
421
 16777215
176
     1
 74
     0
176
     1
 91
        0
176
     1
 64
     7
176
     1
 65
   257
176
     1
 75
     1
176
     1
175
     1
176
     1
 42
1.0
176
     1
 92
        8
176
     1
 66
     7
176
     1
 43
1.0
176
     1
 76
     1
176
     1
 77
     6
176
     1
 78
     2
176
     1
 67
     7
176
     1
 79
     5
176
     1
170
     0
176
     1
171
     0
176
     1
290
     0
176
     1
 93
       13
176
     1
 44
0.0
176
     1
173
     0
176
     1
1001
ACAD
1000
AcDbSavedByObjectVersion
1070
     0
  0
VISUALSTYLE
  5
C5
102
{ACAD_XDICTIONARY
360
10C
102
}
102
{ACAD_REACTORS
330
C3
102
}
330
C3
100
AcDbVisualStyle
  2
FlatWithEdges
 70
     1
177
     2
291
     1
 71
     2
176
     1
 72
     1
176
     1
 73
     1
176
     1
 90
        2
176
     1
 40
0.6
176
     1
 41
30.0
176
     1
 63
     7
421
 16777215
176
     1
 74
     1
176
     1
 91
        0
176
     1
 64
     7
176
     1
 65
   257
176
     1
 75
     1
176
     1
175
     1
176
     1
 42
1.0
176
     1
 92
        0
176
     1
 66
   257
176
     1
 43
1.0
176
     1
 76
     1
176
     1
 77
     6
176
     1
 78
     2
176
     1
 67
     7
176
     1
 79
     5
176
     1
170
     0
176
     1
171
     0
176
     1
290
     0
176
     1
 93
       13
176
     1
 44
0.0
176
     1
173
     0
176
     1
1001
ACAD
1000
AcDbSavedByObjectVersion
1070
     0
  0
VISUALSTYLE
  5
C6
102
{ACAD_XDICTIONARY
360
10E
102
}
102
{ACAD_REACTORS
330
C3
102
}
330
C3
100
AcDbVisualStyle
  2
Gouraud
 70
     2
177
     2
291
     1
 71
     2
176
     1
 72
     2
176
     1
 73
     1
176
     1
 90
        2
176
     1
 40
0.6
176
     1
 41
30.0
176
     1
 63
     7
421
 16777215
176
     1
 74
     0
176
     1
 91
        0
176
     1
 64
     7
176
     1
 65
   257
176
     1
 75
     1
176
     1
175
     1
176
     1
 42
1.0
176
     1
 92
        0
176
     1
 66
     7
176
     1
 43
1.0
176
     1
 76
     1
176
     1
 77
     6
176
     1
 78
     2
176
     1
 67
     7
176
     1
 79
     5
176
     1
170
     0
176
     1
171
     0
176
     1
290
     0
176
     1
 93
       13
176
     1
 44
0.0
176
     1
173
     0
176
     1
1001
ACAD
1000
AcDbSavedByObjectVersion
1070
     0
  0
VISUALSTYLE
  5
C7
102
{ACAD_XDICTIONARY
360
110
102
}
102
{ACAD_REACTORS
330
C3
102
}
330
C3
100
AcDbVisualStyle
  2
GouraudWithEdges
 70
     3
177
     2
291
     1
 71
     2
176
     1
 72
     2
176
     1
 73
     1
176
     1
 90
        2
176
     1
 40
0.6
176
     1
 41
30.0
176
     1
 63
     7
421
 16777215
176
     1
 74
     1
176
     1
 91
        0
176
     1
 64
     7
176
     1
 65
   257
176
     1
 75
     1
176
     1
175
     1
176
     1
 42
1.0
176
     1
 92
        0
176
     1
 66
   257
176
     1
 43
1.0
176
     1
 76
     1
176
     1
 77
     6
176
     1
 78
     2
176
     1
 67
     7
176
     1
 79
     5
176
     1
170
     0
176
     1
171
     0
176
     1
290
     0
176
     1
 93
       13
176
     1
 44
0.0
176
     1
173
     0
176
     1
1001
ACAD
1000
AcDbSavedByObjectVersion
1070
     0
  0
VISUALSTYLE
  5
CB
102
{ACAD_XDICTIONARY
360
118
102
}
102
{ACAD_REACTORS
330
C3
102
}
330
C3
100
AcDbVisualStyle
  2
Hidden
 70
     6
177
     2
291
     0
 71
     1
176
     1
 72
     2
176
     1
 73
     2
176
     1
 90
        0
176
     1
 40
0.6
176
     1
 41
30.0
176
     1
 63
     7
421
 16777215
176
     1
 74
     2
176
     1
 91
        2
176
     1
 64
     7
176
     1
 65
   257
176
     1
 75
     2
176
     1
175
     1
176
     1
 42
40.0
176
     1
 92
        0
176
     1
 66
   257
176
     1
 43
1.0
176
     1
 76
     1
176
     1
 77
     6
176
     1
 78
     2
176
     1
 67
     7
176
     1
 79
     3
176
     1
170
     0
176
     1
171
     0
176
     1
290
     0
176
     1
 93
        1
176
     1
 44
0.0
176
     1
173
     0
176
     1
1001
ACAD
1000
AcDbSavedByObjectVersion
1070
     0
  0
VISUALSTYLE
  5
D9
102
{ACAD_XDICTIONARY
360
134
102
}
102
{ACAD_REACTORS
330
C3
102
}
330
C3
100
AcDbVisualStyle
  2
JitterOff
 70
    20
177
     2
291
     1
 71
     2
176
     0
 72
     2
176
     0
 73
     0
176
     0
 90
        0
176
     0
 40
0.6
176
     0
 41
30.0
176
     0
 63
     7
421
 16777215
176
     0
 74
     1
176
     0
 91
        4
176
     0
 64
     7
176
     0
 65
   257
176
     0
 75
     1
176
     0
175
     1
176
     0
 42
1.0
176
     0
 92
       10
176
     2
 66
     7
176
     0
 43
1.0
176
     0
 76
     1
176
     0
 77
     6
176
     0
 78
     2
176
     0
 67
     7
176
     0
 79
     5
176
     0
170
     0
176
     0
171
     0
176
     0
290
     0
176
     0
 93
        1
176
     0
 44
0.0
176
     0
173
     0
176
     0
1001
ACAD
1000
AcDbSavedByObjectVersion
1070
     0
  0
VISUALSTYLE
  5
D1
102
{ACAD_XDICTIONARY
360
124
102
}
102
{ACAD_REACTORS
330
C3
102
}
330
C3
100
AcDbVisualStyle
  2
Linepattern
 70
    14
177
     2
291
     1
 71
     2
176
     1
 72
     2
176
     1
 73
     0
176
     1
 90
        0
176
     1
 40
0.6
176
     1
 41
30.0
176
     1
 63
     7
421
 16777215
176
     1
 74
     1
176
     1
 91
        4
176
     1
 64
     7
176
     1
 65
   257
176
     1
 75
     7
176
     1
175
     7
176
     1
 42
1.0
176
     1
 92
        8
176
     1
 66
     7
176
     1
 43
1.0
176
     1
 76
     1
176
     1
 77
     6
176
     1
 78
     2
176
     1
 67
     7
176
     1
 79
     5
176
     1
170
     0
176
     1
171
     0
176
     1
290
     0
176
     1
 93
        1
176
     1
 44
0.0
176
     1
173
     0
176
     1
1001
ACAD
1000
AcDbSavedByObjectVersion
1070
     0
  0
VISUALSTYLE
  5
DA
102
{ACAD_XDICTIONARY
360
136
102
}
102
{ACAD_REACTORS
330
C3
102
}
330
C3
100
AcDbVisualStyle
  2
OverhangOff
 70
    21
177
     2
291
     1
 71
     2
176
     0
 72
     2
176
     0
 73
     0
176
     0
 90
        0
176
     0
 40
0.6
176
     0
 41
30.0
176
     0
 63
     7
421
 16777215
176
     0
 74
     1
176
     0
 91
        4
176
     0
 64
     7
176
     0
 65
   257
176
     0
 75
     1
176
     0
175
     1
176
     0
 42
1.0
176
     0
 92
        9
176
     2
 66
     7
176
     0
 43
1.0
176
     0
 76
     1
176
     0
 77
     6
176
     0
 78
     2
176
     0
 67
     7
176
     0
 79
     5
176
     0
170
     0
176
     0
171
     0
176
     0
290
     0
176
     0
 93
        1
176
     0
 44
0.0
176
     0
173
     0
176
     0
1001
ACAD
1000
AcDbSavedByObjectVersion
1070
     0
  0
VISUALSTYLE
  5
CD
102
{ACAD_XDICTIONARY
360
11C
102
}
102
{ACAD_REACTORS
330
C3
102
}
330
C3
100
AcDbVisualStyle
  2
Realistic
 70
     8
177
     2
291
     0
 71
     2
176
     1
 72
     3
176
     1
 73
     0
176
     1
 90
        2
176
     1
 40
0.6
176
     1
 41
30.0
176
     1
 63
     7
421
 16777215
176
     1
 74
     0
176
     1
 91
        0
176
     1
 64
     7
176
     1
 65
   257
176
     1
 75
     1
176
     1
175
     1
176
     1
 42
1.0
176
     1
 92
        8
176
     1
 66
   257
176
     1
 43
1.0
176
     1
 76
     1
176
     1
 77
     6
176
     1
 78
     2
176
     1
 67
     7
176
     1
 79
     3
176
     1
170
     0
176
     1
171
     0
176
     1
290
     0
176
     1
 93
       13
176
     1
 44
0.0
176
     1
173
     0
176
     1
1001
ACAD
1000
AcDbSavedByObjectVersion
1070
     0
  0
VISUALSTYLE
  5
D8
102
{ACAD_XDICTIONARY
360
132
102
}
102
{ACAD_REACTORS
330
C3
102
}
330
C3
100
AcDbVisualStyle
  2
Shaded
 70
    27
177
     2
291
     0
 71
     2
176
     1
 72
     2
176
     1
 73
     1
176
     1
 90
        2
176
     1
 40
0.6
176
     1
 41
30.0
176
     1
 63
     7
421
 16777215
176
     1
 74
     0
176
     1
 91
        4
176
     1
 64
     7
176
     1
 65
   257
176
     1
 75
     1
176
     1
175
     1
176
     1
 42
1.0
176
     1
 92
        8
176
     1
 66
   257
176
     1
 43
1.0
176
     1
 76
     1
176
     1
 77
     6
176
     1
 78
     2
176
     1
 67
     8
425
  7895160
176
     1
 79
     3
176
     1
170
     0
176
     1
171
     0
176
     1
290
     0
176
     1
 93
        5
176
     1
 44
0.0
176
     1
173
     0
176
     1
1001
ACAD
1000
AcDbSavedByObjectVersion
1070
     0
  0
VISUALSTYLE
  5
D7
102
{ACAD_XDICTIONARY
360
130
102
}
102
{ACAD_REACTORS
330
C3
102
}
330
C3
100
AcDbVisualStyle
  2
Shaded with edges
 70
    26
177
     2
291
     0
 71
     2
176
     1
 72
     2
176
     1
 73
     1
176
     1
 90
        2
176
     1
 40
0.6
176
     1
 41
30.0
176
     1
 63
     7
421
 16777215
176
     1
 74
     1
176
     1
 91
        2
176
     1
 64
     7
176
     1
 65
   257
176
     1
 75
     2
176
     1
175
     1
176
     1
 42
1.0
176
     1
 92
        8
176
     1
 66
   257
176
     1
 43
1.0
176
     1
 76
     1
176
     1
 77
     6
176
     1
 78
     2
176
     1
 67
     7
176
     1
 79
     3
176
     1
170
     0
176
     1
171
     0
176
     1
290
     0
176
     1
 93
        5
176
     1
 44
0.0
176
     1
173
     0
176
     1
1001
ACAD
1000
AcDbSavedByObjectVersion
1070
     0
  0
VISUALSTYLE
  5
D4
102
{ACAD_XDICTIONARY
360
12A
102
}
102
{ACAD_REACTORS
330
C3
102
}
330
C3
100
AcDbVisualStyle
  2
Shades of Gray
 70
    23
177
     2
291
     0
 71
     2
176
     1
 72
     2
176
     1
 73
     3
176
     1
 90
        0
176
     1
 40
0.6
176
     1
 41
30.0
176
     1
 63
     7
421
 16777215
176
     1
 74
     2
176
     1
 91
        2
176
     1
 64
     7
176
     1
 65
     7
176
     1
 75
     1
176
     1
175
     1
176
     1
 42
40.0
176
     1
 92
        8
176
     1
 66
     7
176
     1
 43
1.0
176
     1
 76
     1
176
     1
 77
     6
176
     1
 78
     2
176
     1
 67
     7
176
     1
 79
     3
176
     1
170
     0
176
     1
171
     0
176
     1
290
     0
176
     1
 93
        1
176
     1
 44
0.0
176
     1
173
     0
176
     1
1001
ACAD
1000
AcDbSavedByObjectVersion
1070
     0
  0
VISUALSTYLE
  5
D5
102
{ACAD_XDICTIONARY
360
12C
102
}
102
{ACAD_REACTORS
330
C3
102
}
330
C3
100
AcDbVisualStyle
  2
Sketchy
 70
    24
177
     2
291
     0
 71
     1
176
     1
 72
     2
176
     1
 73
     2
176
     1
 90
        0
176
     1
 40
0.6
176
     1
 41
30.0
176
     1
 63
     7
421
 16777215
176
     1
 74
     2
176
     1
 91
        2
176
     1
 64
     7
176
     1
 65
     7
176
     1
 75
     1
176
     1
175
     1
176
     1
 42
40.0
176
     1
 92
       11
176
     1
 66
     7
176
     1
 43
1.0
176
     1
 76
     1
176
     1
 77
     6
176
     1
 78
     2
176
     1
 67
     7
176
     1
 79
     6
176
     1
170
     0
176
     1
171
     0
176
     1
290
     0
176
     1
 93
        1
176
     1
 44
0.0
176
     1
173
     0
176
     1
1001
ACAD
1000
AcDbSavedByObjectVersion
1070
     0
  0
VISUALSTYLE
  5
D0
102
{ACAD_XDICTIONARY
360
122
102
}
102
{ACAD_REACTORS
330
C3
102
}
330
C3
100
AcDbVisualStyle
  2
Thicken
 70
    13
177
     2
291
     1
 71
     2
176
     1
 72
     2
176
     1
 73
     0
176
     1
 90
        0
176
     1
 40
0.6
176
     1
 41
30.0
176
     1
 63
     7
421
 16777215
176
     1
 74
     1
176
     1
 91
        4
176
     1
 64
     7
176
     1
 65
   257
176
     1
 75
     1
176
     1
175
     1
176
     1
 42
1.0
176
     1
 92
       12
176
     1
 66
     7
176
     1
 43
1.0
176
     1
 76
     1
176
     1
 77
     6
176
     1
 78
     2
176
     1
 67
     7
176
     1
 79
     5
176
     1
170
     0
176
     1
171
     0
176
     1
290
     0
176
     1
 93
        1
176
     1
 44
0.0
176
     1
173
     0
176
     1
1001
ACAD
1000
AcDbSavedByObjectVersion
1070
     0
  0
VISUALSTYLE
  5
CA
102
{ACAD_XDICTIONARY
360
116
102
}
102
{ACAD_REACTORS
330
C3
102
}
330
C3
100
AcDbVisualStyle
  2
Wireframe
 70
     5
177
     2
291
     0
 71
     0
176
     1
 72
     2
176
     1
 73
     0
176
     1
 90
        0
176
     1
 40
0.6
176
     1
 41
30.0
176
     1
 63
     7
421
 16777215
176
     1
 74
     1
176
     1
 91
        4
176
     1
 64
     7
176
     1
 65
   257
176
     1
 75
     1
176
     1
175
     1
176
     1
 42
1.0
176
     1
 92
        0
176
     1
 66
   257
176
     1
 43
1.0
176
     1
 76
     1
176
     1
 77
     6
176
     1
 78
     2
176
     1
 67
     7
176
     1
 79
     3
176
     1
170
     0
176
     1
171
     0
176
     1
290
     0
176
     1
 93
        1
176
     1
 44
0.0
176
     1
173
     0
176
     1
1001
ACAD
1000
AcDbSavedByObjectVersion
1070
     0
  0
VISUALSTYLE
  5
D6
102
{ACAD_XDICTIONARY
360
12E
102
}
102
{ACAD_REACTORS
330
C3
102
}
330
C3
100
AcDbVisualStyle
  2
X-Ray
 70
    25
177
     2
291
     0
 71
     2
176
     1
 72
     2
176
     1
 73
     1
176
     1
 90
        1
176
     1
 40
0.5
176
     1
 41
30.0
176
     1
 63
     7
421
 16777215
176
     1
 74
     1
176
     1
 91
        0
176
     1
 64
     7
176
     1
 65
   257
176
     1
 75
     1
176
     1
175
     1
176
     1
 42
1.0
176
     1
 92
        8
176
     1
 66
     7
176
     1
 43
1.0
176
     1
 76
     1
176
     1
 77
     6
176
     1
 78
     2
176
     1
 67
     7
176
     1
 79
     3
176
     1
170
     0
176
     1
171
     0
176
     1
290
     0
176
     1
 93
       13
176
     1
 44
0.0
176
     1
173
     0
176
     1
1001
ACAD
1000
AcDbSavedByObjectVersion
1070
     0
  0
DICTIONARYVAR
  5
103
102
{ACAD_REACTORS
330
FD
102
}
330
FD
100
DictionaryVariables
280
     0
  1
1:1
  0
DICTIONARYVAR
  5
FF
102
{ACAD_REACTORS
330
FD
102
}
330
FD
100
DictionaryVariables
280
     0
  1
STANDARD
  0
DICTIONARYVAR
  5
FE
102
{ACAD_REACTORS
330
FD
102
}
330
FD
100
DictionaryVariables
280
     0
  1
STANDARD
  0
DICTIONARYVAR
  5
100
102
{ACAD_REACTORS
330
FD
102
}
330
FD
100
DictionaryVariables
280
     0
  1
Imperial24
  0
DICTIONARYVAR
  5
101
102
{ACAD_REACTORS
330
FD
102
}
330
FD
100
DictionaryVariables
280
     0
  1
Imperial24
  0
DICTIONARYVAR
  5
105
102
{ACAD_REACTORS
330
FD
102
}
330
FD
100
DictionaryVariables
280
     0
  1
1
  0
DICTIONARYVAR
  5
106
102
{ACAD_REACTORS
330
FD
102
}
330
FD
100
DictionaryVariables
280
     0
  1
15
  0
DICTIONARYVAR
  5
104
102
{ACAD_REACTORS
330
FD
102
}
330
FD
100
DictionaryVariables
280
     0
  1
0
  0
DICTIONARYVAR
  5
102
102
{ACAD_REACTORS
330
FD
102
}
330
FD
100
DictionaryVariables
280
     0
  1
0
  0
DICTIONARY
  5
13E
330
F6
100
AcDbDictionary
280
     1
281
     1
  3
ACAD_XREC_ROUNDTRIP
360
13F
  0
DICTIONARY
  5
B4
330
B3
100
AcDbDictionary
280
     1
281
     1
  3
BUMPTILE
360
B6
  3
DIFFUSETILE
360
B5
  3
OPACITYTILE
360
B9
  3
REFLECTIONTILE
360
B8
  3
REFRACTIONTILE
360
BA
  3
SPECULARTILE
360
B7
  0
DICTIONARY
  5
AC
330
AB
100
AcDbDictionary
280
     1
281
     1
  3
BUMPTILE
360
AE
  3
DIFFUSETILE
360
AD
  3
OPACITYTILE
360
B1
  3
REFLECTIONTILE
360
B0
  3
REFRACTIONTILE
360
B2
  3
SPECULARTILE
360
AF
  0
DICTIONARY
  5
BC
330
BB
100
AcDbDictionary
280
     1
281
     1
  3
BUMPTILE
360
BE
  3
DIFFUSETILE
360
BD
  3
OPACITYTILE
360
C1
  3
REFLECTIONTILE
360
C0
  3
REFRACTIONTILE
360
C2
  3
SPECULARTILE
360
BF
  0
DICTIONARY
  5
13A
330
F2
100
AcDbDictionary
280
     1
281
     1
  3
ACAD_XREC_ROUNDTRIP
360
13B
  0
DICTIONARY
  5
13C
330
F4
100
AcDbDictionary
280
     1
281
     1
  3
ACAD_XREC_ROUNDTRIP
360
13D
  0
DICTIONARY
  5
107
330
DE
100
AcDbDictionary
280
     1
281
     1
  3
ACAD_ROUNDTRIP_2008_TABLESTYLE_CELLSTYLEMAP
360
108
  0
DICTIONARY
  5
114
330
C9
100
AcDbDictionary
280
     1
281
     1
  3
ACAD_XREC_ROUNDTRIP
360
115
  0
DICTIONARY
  5
112
330
C8
100
AcDbDictionary
280
     1
281
     1
  3
ACAD_XREC_ROUNDTRIP
360
113
  0
DICTIONARY
  5
120
330
CF
100
AcDbDictionary
280
     1
281
     1
  3
ACAD_XREC_ROUNDTRIP
360
121
  0
DICTIONARY
  5
128
330
D3
100
AcDbDictionary
280
     1
281
     1
  3
ACAD_XREC_ROUNDTRIP
360
129
  0
DICTIONARY
  5
11A
330
CC
100
AcDbDictionary
280
     1
281
     1
  3
ACAD_XREC_ROUNDTRIP
360
11B
  0
DICTIONARY
  5
11E
330
CE
100
AcDbDictionary
280
     1
281
     1
  3
ACAD_XREC_ROUNDTRIP
360
11F
  0
DICTIONARY
  5
138
330
DB
100
AcDbDictionary
280
     1
281
     1
  3
ACAD_XREC_ROUNDTRIP
360
139
  0
DICTIONARY
  5
126
330
D2
100
AcDbDictionary
280
     1
281
     1
  3
ACAD_XREC_ROUNDTRIP
360
127
  0
DICTIONARY
  5
10A
330
C4
100
AcDbDictionary
280
     1
281
     1
  3
ACAD_XREC_ROUNDTRIP
360
10B
  0
DICTIONARY
  5
10C
330
C5
100
AcDbDictionary
280
     1
281
     1
  3
ACAD_XREC_ROUNDTRIP
360
10D
  0
DICTIONARY
  5
10E
330
C6
100
AcDbDictionary
280
     1
281
     1
  3
ACAD_XREC_ROUNDTRIP
360
10F
  0
DICTIONARY
  5
110
330
C7
100
AcDbDictionary
280
     1
281
     1
  3
ACAD_XREC_ROUNDTRIP
360
111
  0
DICTIONARY
  5
118
330
CB
100
AcDbDictionary
280
     1
281
     1
  3
ACAD_XREC_ROUNDTRIP
360
119
  0
DICTIONARY
  5
134
330
D9
100
AcDbDictionary
280
     1
281
     1
  3
ACAD_XREC_ROUNDTRIP
360
135
  0
DICTIONARY
  5
124
330
D1
100
AcDbDictionary
280
     1
281
     1
  3
ACAD_XREC_ROUNDTRIP
360
125
  0
DICTIONARY
  5
136
330
DA
100
AcDbDictionary
280
     1
281
     1
  3
ACAD_XREC_ROUNDTRIP
360
137
  0
DICTIONARY
  5
11C
330
CD
100
AcDbDictionary
280
     1
281
     1
  3
ACAD_XREC_ROUNDTRIP
360
11D
  0
DICTIONARY
  5
132
330
D8
100
AcDbDictionary
280
     1
281
     1
  3
ACAD_XREC_ROUNDTRIP
360
133
  0
DICTIONARY
  5
130
330
D7
100
AcDbDictionary
280
     1
281
     1
  3
ACAD_XREC_ROUNDTRIP
360
131
  0
DICTIONARY
  5
12A
330
D4
100
AcDbDictionary
280
     1
281
     1
  3
ACAD_XREC_ROUNDTRIP
360
12B
  0
DICTIONARY
  5
12C
330
D5
100
AcDbDictionary
280
     1
281
     1
  3
ACAD_XREC_ROUNDTRIP
360
12D
  0
DICTIONARY
  5
122
330
D0
100
AcDbDictionary
280
     1
281
     1
  3
ACAD_XREC_ROUNDTRIP
360
123
  0
DICTIONARY
  5
116
330
CA
100
AcDbDictionary
280
     1
281
     1
  3
ACAD_XREC_ROUNDTRIP
360
117
  0
DICTIONARY
  5
12E
330
D6
100
AcDbDictionary
280
     1
281
     1
  3
ACAD_XREC_ROUNDTRIP
360
12F
  0
XRECORD
  5
13F
102
{ACAD_REACTORS
330
13E
102
}
330
13E
100
AcDbXrecord
280
     1
102
DISPLAYNAME
  1
Imperial24
102
FLAGS
 90
        0
  0
XRECORD
  5
B6
102
{ACAD_REACTORS
330
B4
102
}
330
B4
100
AcDbXrecord
280
     1
270
     1
271
     1
  0
XRECORD
  5
B5
102
{ACAD_REACTORS
330
B4
102
}
330
B4
100
AcDbXrecord
280
     1
270
     1
271
     1
  0
XRECORD
  5
B9
102
{ACAD_REACTORS
330
B4
102
}
330
B4
100
AcDbXrecord
280
     1
270
     1
271
     1
  0
XRECORD
  5
B8
102
{ACAD_REACTORS
330
B4
102
}
330
B4
100
AcDbXrecord
280
     1
270
     1
271
     1
  0
XRECORD
  5
BA
102
{ACAD_REACTORS
330
B4
102
}
330
B4
100
AcDbXrecord
280
     1
270
     1
271
     1
  0
XRECORD
  5
B7
102
{ACAD_REACTORS
330
B4
102
}
330
B4
100
AcDbXrecord
280
     1
270
     1
271
     1
  0
XRECORD
  5
AE
102
{ACAD_REACTORS
330
AC
102
}
330
AC
100
AcDbXrecord
280
     1
270
     1
271
     1
  0
XRECORD
  5
AD
102
{ACAD_REACTORS
330
AC
102
}
330
AC
100
AcDbXrecord
280
     1
270
     1
271
     1
  0
XRECORD
  5
B1
102
{ACAD_REACTORS
330
AC
102
}
330
AC
100
AcDbXrecord
280
     1
270
     1
271
     1
  0
XRECORD
  5
B0
102
{ACAD_REACTORS
330
AC
102
}
330
AC
100
AcDbXrecord
280
     1
270
     1
271
     1
  0
XRECORD
  5
B2
102
{ACAD_REACTORS
330
AC
102
}
330
AC
100
AcDbXrecord
280
     1
270
     1
271
     1
  0
XRECORD
  5
AF
102
{ACAD_REACTORS
330
AC
102
}
330
AC
100
AcDbXrecord
280
     1
270
     1
271
     1
  0
XRECORD
  5
BE
102
{ACAD_REACTORS
330
BC
102
}
330
BC
100
AcDbXrecord
280
     1
270
     1
271
     1
  0
XRECORD
  5
BD
102
{ACAD_REACTORS
330
BC
102
}
330
BC
100
AcDbXrecord
280
     1
270
     1
271
     1
  0
XRECORD
  5
C1
102
{ACAD_REACTORS
330
BC
102
}
330
BC
100
AcDbXrecord
280
     1
270
     1
271
     1
  0
XRECORD
  5
C0
102
{ACAD_REACTORS
330
BC
102
}
330
BC
100
AcDbXrecord
280
     1
270
     1
271
     1
  0
XRECORD
  5
C2
102
{ACAD_REACTORS
330
BC
102
}
330
BC
100
AcDbXrecord
280
     1
270
     1
271
     1
  0
XRECORD
  5
BF
102
{ACAD_REACTORS
330
BC
102
}
330
BC
100
AcDbXrecord
280
     1
270
     1
271
     1
  0
XRECORD
  5
13B
102
{ACAD_REACTORS
330
13A
102
}
330
13A
100
AcDbXrecord
280
     1
102
ACAD_ROUNDTRIP_2012_MLEADER_STYLE
298
     1
  0
XRECORD
  5
13D
102
{ACAD_REACTORS
330
13C
102
}
330
13C
100
AcDbXrecord
280
     1
102
DISPLAYNAME
  1
Imperial24
102
FLAGS
 90
        0
  0
CELLSTYLEMAP
  5
108
102
{ACAD_REACTORS
330
107
102
}
330
107
100
AcDbCellStyleMap
 90
        3
300
CELLSTYLE
  1
TABLEFORMAT_BEGIN
 90
        5
170
     1
 91
        0
 92
    32768
 62
   257
 93
        1
300
CONTENTFORMAT
  1
CONTENTFORMAT_BEGIN
 90
        0
 91
        0
 92
      512
 93
        0
300

 40
0.0
140
1.0
 94
        5
 62
     0
340
11
144
0.25
309
CONTENTFORMAT_END
171
     0
 94
        0
309
TABLEFORMAT_END
  1
CELLSTYLE_BEGIN
 90
        1
 91
        1
300
_TITLE
309
CELLSTYLE_END
300
CELLSTYLE
  1
TABLEFORMAT_BEGIN
 90
        5
170
     1
 91
        0
 92
        0
 62
   257
 93
        1
300
CONTENTFORMAT
  1
CONTENTFORMAT_BEGIN
 90
        0
 91
        0
 92
      512
 93
        0
300

 40
0.0
140
1.0
 94
        5
 62
     0
340
11
144
0.18
309
CONTENTFORMAT_END
171
     0
 94
        0
309
TABLEFORMAT_END
  1
CELLSTYLE_BEGIN
 90
        2
 91
        1
300
_HEADER
309
CELLSTYLE_END
300
CELLSTYLE
  1
TABLEFORMAT_BEGIN
 90
        5
170
     1
 91
        0
 92
        0
 62
   257
 93
        1
300
CONTENTFORMAT
  1
CONTENTFORMAT_BEGIN
 90
        0
 91
        0
 92
      512
 93
        0
300

 40
0.0
140
1.0
 94
        2
 62
     0
340
11
144
0.18
309
CONTENTFORMAT_END
171
     0
 94
        0
309
TABLEFORMAT_END
  1
CELLSTYLE_BEGIN
 90
        3
 91
        2
300
_DATA
309
CELLSTYLE_END
  0
XRECORD
  5
115
102
{ACAD_REACTORS
330
114
102
}
330
114
100
AcDbXrecord
280
     1
102
RTVSPost2010Prop28
280
     1
102
RTVSPost2010PropOp28
 70
     1
102
RTVSPost2010Prop29
280
     1
102
RTVSPost2010PropOp29
 70
     1
102
RTVSPost2010Prop30
280
     0
102
RTVSPost2010PropOp30
 70
     1
102
RTVSPost2010Prop31
280
     0
102
RTVSPost2010PropOp31
 70
     1
102
RTVSPost2010Prop32
280
     0
102
RTVSPost2010PropOp32
 70
     1
102
RTVSPost2010Prop33
280
     0
102
RTVSPost2010PropOp33
 70
     1
102
RTVSPost2010Prop34
280
     0
102
RTVSPost2010PropOp34
 70
     1
102
RTVSPost2010Prop35
280
     0
102
RTVSPost2010PropOp35
 70
     1
102
RTVSPost2010Prop36
280
     0
102
RTVSPost2010PropOp36
 70
     1
102
RTVSPost2010Prop37
 90
       50
102
RTVSPost2010PropOp37
 70
     1
102
RTVSPost2010Prop38
140
0.0
102
RTVSPost2010PropOp38
 70
     1
102
RTVSPost2010Prop39
140
1.0
102
RTVSPost2010PropOp39
 70
     1
102
RTVSPost2010Prop40
 90
        0
102
RTVSPost2010PropOp40
 70
     1
102
RTVSPost2010Prop41ColorIndex
 90
       18
102
RTVSPost2010Prop41ColorRGB
 90
        0
102
RTVSPost2010PropOp41
 70
     1
102
RTVSPost2010Prop42
 90
       50
102
RTVSPost2010PropOp42
 70
     1
102
RTVSPost2010Prop43
 90
        3
102
RTVSPost2010PropOp43
 70
     1
102
RTVSPost2010Prop44ColorIndex
 90
        5
102
RTVSPost2010Prop44ColorRGB
 90
      255
102
RTVSPost2010PropOp44
 70
     1
102
RTVSPost2010Prop45
280
     0
102
RTVSPost2010PropOp45
 70
     1
102
RTVSPost2010Prop46
 90
       50
102
RTVSPost2010PropOp46
 70
     1
102
RTVSPost2010Prop47
 90
       50
102
RTVSPost2010PropOp47
 70
     1
102
RTVSPost2010Prop48
 90
       50
102
RTVSPost2010PropOp48
 70
     1
102
RTVSPost2010Prop49
280
     0
102
RTVSPost2010PropOp49
 70
     1
102
RTVSPost2010Prop50
 90
       50
102
RTVSPost2010PropOp50
 70
     1
102
RTVSPost2010Prop51ColorIndex
 90
      256
102
RTVSPost2010Prop51ColorRGB
 90
-16777216
102
RTVSPost2010PropOp51
 70
     0
102
RTVSPost2010Prop52
140
1.0
102
RTVSPost2010PropOp52
 70
     0
102
RTVSPost2010Prop53
 90
        2
102
RTVSPost2010PropOp53
 70
     1
102
RTVSPost2010Prop54
  1
strokes_ogs.tif
102
RTVSPost2010PropOp54
 70
     1
102
RTVSPost2010Prop55
280
     0
102
RTVSPost2010PropOp55
 70
     1
102
RTVSPost2010Prop56
140
1.0
102
RTVSPost2010PropOp56
 70
     1
102
RTVSPost2010Prop57
140
1.0
102
RTVSPost2010PropOp57
 70
     1
  0
XRECORD
  5
113
102
{ACAD_REACTORS
330
112
102
}
330
112
100
AcDbXrecord
280
     1
102
RTVSPost2010Prop28
280
     0
102
RTVSPost2010PropOp28
 70
     1
102
RTVSPost2010Prop29
280
     1
102
RTVSPost2010PropOp29
 70
     1
102
RTVSPost2010Prop30
280
     1
102
RTVSPost2010PropOp30
 70
     1
102
RTVSPost2010Prop31
280
     0
102
RTVSPost2010PropOp31
 70
     1
102
RTVSPost2010Prop32
280
     0
102
RTVSPost2010PropOp32
 70
     1
102
RTVSPost2010Prop33
280
     0
102
RTVSPost2010PropOp33
 70
     1
102
RTVSPost2010Prop34
280
     0
102
RTVSPost2010PropOp34
 70
     1
102
RTVSPost2010Prop35
280
     0
102
RTVSPost2010PropOp35
 70
     1
102
RTVSPost2010Prop36
280
     0
102
RTVSPost2010PropOp36
 70
     1
102
RTVSPost2010Prop37
 90
       50
102
RTVSPost2010PropOp37
 70
     1
102
RTVSPost2010Prop38
140
0.0
102
RTVSPost2010PropOp38
 70
     1
102
RTVSPost2010Prop39
140
1.0
102
RTVSPost2010PropOp39
 70
     1
102
RTVSPost2010Prop40
 90
        0
102
RTVSPost2010PropOp40
 70
     1
102
RTVSPost2010Prop41ColorIndex
 90
       18
102
RTVSPost2010Prop41ColorRGB
 90
        0
102
RTVSPost2010PropOp41
 70
     1
102
RTVSPost2010Prop42
 90
       50
102
RTVSPost2010PropOp42
 70
     1
102
RTVSPost2010Prop43
 90
        3
102
RTVSPost2010PropOp43
 70
     1
102
RTVSPost2010Prop44ColorIndex
 90
        5
102
RTVSPost2010Prop44ColorRGB
 90
      255
102
RTVSPost2010PropOp44
 70
     1
102
RTVSPost2010Prop45
280
     0
102
RTVSPost2010PropOp45
 70
     1
102
RTVSPost2010Prop46
 90
       50
102
RTVSPost2010PropOp46
 70
     1
102
RTVSPost2010Prop47
 90
       50
102
RTVSPost2010PropOp47
 70
     1
102
RTVSPost2010Prop48
 90
       50
102
RTVSPost2010PropOp48
 70
     1
102
RTVSPost2010Prop49
280
     0
102
RTVSPost2010PropOp49
 70
     1
102
RTVSPost2010Prop50
 90
       50
102
RTVSPost2010PropOp50
 70
     1
102
RTVSPost2010Prop51ColorIndex
 90
      256
102
RTVSPost2010Prop51ColorRGB
 90
-16777216
102
RTVSPost2010PropOp51
 70
     0
102
RTVSPost2010Prop52
140
1.0
102
RTVSPost2010PropOp52
 70
     0
102
RTVSPost2010Prop53
 90
        2
102
RTVSPost2010PropOp53
 70
     1
102
RTVSPost2010Prop54
  1
strokes_ogs.tif
102
RTVSPost2010PropOp54
 70
     1
102
RTVSPost2010Prop55
280
     0
102
RTVSPost2010PropOp55
 70
     1
102
RTVSPost2010Prop56
140
1.0
102
RTVSPost2010PropOp56
 70
     1
102
RTVSPost2010Prop57
140
1.0
102
RTVSPost2010PropOp57
 70
     1
  0
XRECORD
  5
121
102
{ACAD_REACTORS
330
120
102
}
330
120
100
AcDbXrecord
280
     1
102
RTVSPost2010Prop28
280
     0
102
RTVSPost2010PropOp28
 70
     1
102
RTVSPost2010Prop29
280
     1
102
RTVSPost2010PropOp29
 70
     1
102
RTVSPost2010Prop30
280
     1
102
RTVSPost2010PropOp30
 70
     1
102
RTVSPost2010Prop31
280
     0
102
RTVSPost2010PropOp31
 70
     1
102
RTVSPost2010Prop32
280
     0
102
RTVSPost2010PropOp32
 70
     1
102
RTVSPost2010Prop33
280
     0
102
RTVSPost2010PropOp33
 70
     1
102
RTVSPost2010Prop34
280
     0
102
RTVSPost2010PropOp34
 70
     1
102
RTVSPost2010Prop35
280
     0
102
RTVSPost2010PropOp35
 70
     1
102
RTVSPost2010Prop36
280
     0
102
RTVSPost2010PropOp36
 70
     1
102
RTVSPost2010Prop37
 90
       50
102
RTVSPost2010PropOp37
 70
     1
102
RTVSPost2010Prop38
140
0.0
102
RTVSPost2010PropOp38
 70
     1
102
RTVSPost2010Prop39
140
1.0
102
RTVSPost2010PropOp39
 70
     1
102
RTVSPost2010Prop40
 90
        0
102
RTVSPost2010PropOp40
 70
     1
102
RTVSPost2010Prop41ColorIndex
 90
       18
102
RTVSPost2010Prop41ColorRGB
 90
        0
102
RTVSPost2010PropOp41
 70
     1
102
RTVSPost2010Prop42
 90
       50
102
RTVSPost2010PropOp42
 70
     1
102
RTVSPost2010Prop43
 90
        3
102
RTVSPost2010PropOp43
 70
     1
102
RTVSPost2010Prop44ColorIndex
 90
        5
102
RTVSPost2010Prop44ColorRGB
 90
      255
102
RTVSPost2010PropOp44
 70
     1
102
RTVSPost2010Prop45
280
     0
102
RTVSPost2010PropOp45
 70
     1
102
RTVSPost2010Prop46
 90
       50
102
RTVSPost2010PropOp46
 70
     1
102
RTVSPost2010Prop47
 90
       50
102
RTVSPost2010PropOp47
 70
     1
102
RTVSPost2010Prop48
 90
       50
102
RTVSPost2010PropOp48
 70
     1
102
RTVSPost2010Prop49
280
     0
102
RTVSPost2010PropOp49
 70
     1
102
RTVSPost2010Prop50
 90
       50
102
RTVSPost2010PropOp50
 70
     1
102
RTVSPost2010Prop51ColorIndex
 90
      256
102
RTVSPost2010Prop51ColorRGB
 90
-16777216
102
RTVSPost2010PropOp51
 70
     0
102
RTVSPost2010Prop52
140
1.0
102
RTVSPost2010PropOp52
 70
     0
102
RTVSPost2010Prop53
 90
        2
102
RTVSPost2010PropOp53
 70
     1
102
RTVSPost2010Prop54
  1
strokes_ogs.tif
102
RTVSPost2010PropOp54
 70
     1
102
RTVSPost2010Prop55
280
     0
102
RTVSPost2010PropOp55
 70
     1
102
RTVSPost2010Prop56
140
1.0
102
RTVSPost2010PropOp56
 70
     1
102
RTVSPost2010Prop57
140
1.0
102
RTVSPost2010PropOp57
 70
     1
  0
XRECORD
  5
129
102
{ACAD_REACTORS
330
128
102
}
330
128
100
AcDbXrecord
280
     1
102
RTVSPost2010Prop28
280
     0
102
RTVSPost2010PropOp28
 70
     1
102
RTVSPost2010Prop29
280
     1
102
RTVSPost2010PropOp29
 70
     1
102
RTVSPost2010Prop30
280
     1
102
RTVSPost2010PropOp30
 70
     1
102
RTVSPost2010Prop31
280
     0
102
RTVSPost2010PropOp31
 70
     1
102
RTVSPost2010Prop32
280
     0
102
RTVSPost2010PropOp32
 70
     1
102
RTVSPost2010Prop33
280
     0
102
RTVSPost2010PropOp33
 70
     1
102
RTVSPost2010Prop34
280
     0
102
RTVSPost2010PropOp34
 70
     1
102
RTVSPost2010Prop35
280
     0
102
RTVSPost2010PropOp35
 70
     1
102
RTVSPost2010Prop36
280
     0
102
RTVSPost2010PropOp36
 70
     1
102
RTVSPost2010Prop37
 90
       50
102
RTVSPost2010PropOp37
 70
     1
102
RTVSPost2010Prop38
140
0.0
102
RTVSPost2010PropOp38
 70
     1
102
RTVSPost2010Prop39
140
1.0
102
RTVSPost2010PropOp39
 70
     1
102
RTVSPost2010Prop40
 90
        0
102
RTVSPost2010PropOp40
 70
     1
102
RTVSPost2010Prop41ColorIndex
 90
       18
102
RTVSPost2010Prop41ColorRGB
 90
        0
102
RTVSPost2010PropOp41
 70
     1
102
RTVSPost2010Prop42
 90
       50
102
RTVSPost2010PropOp42
 70
     1
102
RTVSPost2010Prop43
 90
        3
102
RTVSPost2010PropOp43
 70
     1
102
RTVSPost2010Prop44ColorIndex
 90
        5
102
RTVSPost2010Prop44ColorRGB
 90
      255
102
RTVSPost2010PropOp44
 70
     1
102
RTVSPost2010Prop45
280
     0
102
RTVSPost2010PropOp45
 70
     1
102
RTVSPost2010Prop46
 90
       50
102
RTVSPost2010PropOp46
 70
     1
102
RTVSPost2010Prop47
 90
       50
102
RTVSPost2010PropOp47
 70
     1
102
RTVSPost2010Prop48
 90
       50
102
RTVSPost2010PropOp48
 70
     1
102
RTVSPost2010Prop49
280
     0
102
RTVSPost2010PropOp49
 70
     1
102
RTVSPost2010Prop50
 90
       50
102
RTVSPost2010PropOp50
 70
     1
102
RTVSPost2010Prop51ColorIndex
 90
      256
102
RTVSPost2010Prop51ColorRGB
 90
-16777216
102
RTVSPost2010PropOp51
 70
     0
102
RTVSPost2010Prop52
140
1.0
102
RTVSPost2010PropOp52
 70
     0
102
RTVSPost2010Prop53
 90
        2
102
RTVSPost2010PropOp53
 70
     1
102
RTVSPost2010Prop54
  1
strokes_ogs.tif
102
RTVSPost2010PropOp54
 70
     1
102
RTVSPost2010Prop55
280
     0
102
RTVSPost2010PropOp55
 70
     1
102
RTVSPost2010Prop56
140
1.0
102
RTVSPost2010PropOp56
 70
     1
102
RTVSPost2010Prop57
140
1.0
102
RTVSPost2010PropOp57
 70
     1
  0
XRECORD
  5
11B
102
{ACAD_REACTORS
330
11A
102
}
330
11A
100
AcDbXrecord
280
     1
102
RTVSPost2010Prop28
280
     0
102
RTVSPost2010PropOp28
 70
     1
102
RTVSPost2010Prop29
280
     1
102
RTVSPost2010PropOp29
 70
     1
102
RTVSPost2010Prop30
280
     1
102
RTVSPost2010PropOp30
 70
     1
102
RTVSPost2010Prop31
280
     0
102
RTVSPost2010PropOp31
 70
     1
102
RTVSPost2010Prop32
280
     0
102
RTVSPost2010PropOp32
 70
     1
102
RTVSPost2010Prop33
280
     0
102
RTVSPost2010PropOp33
 70
     1
102
RTVSPost2010Prop34
280
     0
102
RTVSPost2010PropOp34
 70
     1
102
RTVSPost2010Prop35
280
     0
102
RTVSPost2010PropOp35
 70
     1
102
RTVSPost2010Prop36
280
     0
102
RTVSPost2010PropOp36
 70
     1
102
RTVSPost2010Prop37
 90
       50
102
RTVSPost2010PropOp37
 70
     1
102
RTVSPost2010Prop38
140
0.0
102
RTVSPost2010PropOp38
 70
     1
102
RTVSPost2010Prop39
140
1.0
102
RTVSPost2010PropOp39
 70
     1
102
RTVSPost2010Prop40
 90
        0
102
RTVSPost2010PropOp40
 70
     1
102
RTVSPost2010Prop41ColorIndex
 90
       18
102
RTVSPost2010Prop41ColorRGB
 90
        0
102
RTVSPost2010PropOp41
 70
     1
102
RTVSPost2010Prop42
 90
       50
102
RTVSPost2010PropOp42
 70
     1
102
RTVSPost2010Prop43
 90
        3
102
RTVSPost2010PropOp43
 70
     1
102
RTVSPost2010Prop44ColorIndex
 90
        5
102
RTVSPost2010Prop44ColorRGB
 90
      255
102
RTVSPost2010PropOp44
 70
     1
102
RTVSPost2010Prop45
280
     0
102
RTVSPost2010PropOp45
 70
     1
102
RTVSPost2010Prop46
 90
       50
102
RTVSPost2010PropOp46
 70
     1
102
RTVSPost2010Prop47
 90
       50
102
RTVSPost2010PropOp47
 70
     1
102
RTVSPost2010Prop48
 90
       50
102
RTVSPost2010PropOp48
 70
     1
102
RTVSPost2010Prop49
280
     0
102
RTVSPost2010PropOp49
 70
     1
102
RTVSPost2010Prop50
 90
       50
102
RTVSPost2010PropOp50
 70
     1
102
RTVSPost2010Prop51ColorIndex
 90
      256
102
RTVSPost2010Prop51ColorRGB
 90
-16777216
102
RTVSPost2010PropOp51
 70
     0
102
RTVSPost2010Prop52
140
1.0
102
RTVSPost2010PropOp52
 70
     0
102
RTVSPost2010Prop53
 90
        2
102
RTVSPost2010PropOp53
 70
     1
102
RTVSPost2010Prop54
  1
strokes_ogs.tif
102
RTVSPost2010PropOp54
 70
     1
102
RTVSPost2010Prop55
280
     0
102
RTVSPost2010PropOp55
 70
     1
102
RTVSPost2010Prop56
140
1.0
102
RTVSPost2010PropOp56
 70
     1
102
RTVSPost2010Prop57
140
1.0
102
RTVSPost2010PropOp57
 70
     1
  0
XRECORD
  5
11F
102
{ACAD_REACTORS
330
11E
102
}
330
11E
100
AcDbXrecord
280
     1
102
RTVSPost2010Prop28
280
     0
102
RTVSPost2010PropOp28
 70
     1
102
RTVSPost2010Prop29
280
     1
102
RTVSPost2010PropOp29
 70
     1
102
RTVSPost2010Prop30
280
     1
102
RTVSPost2010PropOp30
 70
     1
102
RTVSPost2010Prop31
280
     0
102
RTVSPost2010PropOp31
 70
     1
102
RTVSPost2010Prop32
280
     0
102
RTVSPost2010PropOp32
 70
     1
102
RTVSPost2010Prop33
280
     0
102
RTVSPost2010PropOp33
 70
     1
102
RTVSPost2010Prop34
280
     0
102
RTVSPost2010PropOp34
 70
     1
102
RTVSPost2010Prop35
280
     0
102
RTVSPost2010PropOp35
 70
     1
102
RTVSPost2010Prop36
280
     0
102
RTVSPost2010PropOp36
 70
     1
102
RTVSPost2010Prop37
 90
       50
102
RTVSPost2010PropOp37
 70
     1
102
RTVSPost2010Prop38
140
0.0
102
RTVSPost2010PropOp38
 70
     1
102
RTVSPost2010Prop39
140
1.0
102
RTVSPost2010PropOp39
 70
     1
102
RTVSPost2010Prop40
 90
        0
102
RTVSPost2010PropOp40
 70
     1
102
RTVSPost2010Prop41ColorIndex
 90
       18
102
RTVSPost2010Prop41ColorRGB
 90
        0
102
RTVSPost2010PropOp41
 70
     1
102
RTVSPost2010Prop42
 90
       50
102
RTVSPost2010PropOp42
 70
     1
102
RTVSPost2010Prop43
 90
        3
102
RTVSPost2010PropOp43
 70
     1
102
RTVSPost2010Prop44ColorIndex
 90
        5
102
RTVSPost2010Prop44ColorRGB
 90
      255
102
RTVSPost2010PropOp44
 70
     1
102
RTVSPost2010Prop45
280
     0
102
RTVSPost2010PropOp45
 70
     1
102
RTVSPost2010Prop46
 90
       50
102
RTVSPost2010PropOp46
 70
     1
102
RTVSPost2010Prop47
 90
       50
102
RTVSPost2010PropOp47
 70
     1
102
RTVSPost2010Prop48
 90
       50
102
RTVSPost2010PropOp48
 70
     1
102
RTVSPost2010Prop49
280
     0
102
RTVSPost2010PropOp49
 70
     1
102
RTVSPost2010Prop50
 90
       50
102
RTVSPost2010PropOp50
 70
     1
102
RTVSPost2010Prop51ColorIndex
 90
      256
102
RTVSPost2010Prop51ColorRGB
 90
-16777216
102
RTVSPost2010PropOp51
 70
     0
102
RTVSPost2010Prop52
140
1.0
102
RTVSPost2010PropOp52
 70
     0
102
RTVSPost2010Prop53
 90
        2
102
RTVSPost2010PropOp53
 70
     1
102
RTVSPost2010Prop54
  1
strokes_ogs.tif
102
RTVSPost2010PropOp54
 70
     1
102
RTVSPost2010Prop55
280
     0
102
RTVSPost2010PropOp55
 70
     1
102
RTVSPost2010Prop56
140
1.0
102
RTVSPost2010PropOp56
 70
     1
102
RTVSPost2010Prop57
140
1.0
102
RTVSPost2010PropOp57
 70
     1
  0
XRECORD
  5
139
102
{ACAD_REACTORS
330
138
102
}
330
138
100
AcDbXrecord
280
     1
102
RTVSPost2010Prop28
280
     0
102
RTVSPost2010PropOp28
 70
     0
102
RTVSPost2010Prop29
280
     1
102
RTVSPost2010PropOp29
 70
     0
102
RTVSPost2010Prop30
280
     1
102
RTVSPost2010PropOp30
 70
     0
102
RTVSPost2010Prop31
280
     0
102
RTVSPost2010PropOp31
 70
     0
102
RTVSPost2010Prop32
280
     0
102
RTVSPost2010PropOp32
 70
     0
102
RTVSPost2010Prop33
280
     0
102
RTVSPost2010PropOp33
 70
     0
102
RTVSPost2010Prop34
280
     0
102
RTVSPost2010PropOp34
 70
     0
102
RTVSPost2010Prop35
280
     0
102
RTVSPost2010PropOp35
 70
     0
102
RTVSPost2010Prop36
280
     0
102
RTVSPost2010PropOp36
 70
     0
102
RTVSPost2010Prop37
 90
       50
102
RTVSPost2010PropOp37
 70
     0
102
RTVSPost2010Prop38
140
0.0
102
RTVSPost2010PropOp38
 70
     0
102
RTVSPost2010Prop39
140
1.0
102
RTVSPost2010PropOp39
 70
     0
102
RTVSPost2010Prop40
 90
        0
102
RTVSPost2010PropOp40
 70
     0
102
RTVSPost2010Prop41ColorIndex
 90
       18
102
RTVSPost2010Prop41ColorRGB
 90
        0
102
RTVSPost2010PropOp41
 70
     0
102
RTVSPost2010Prop42
 90
       50
102
RTVSPost2010PropOp42
 70
     0
102
RTVSPost2010Prop43
 90
        3
102
RTVSPost2010PropOp43
 70
     0
102
RTVSPost2010Prop44ColorIndex
 90
        5
102
RTVSPost2010Prop44ColorRGB
 90
      255
102
RTVSPost2010PropOp44
 70
     0
102
RTVSPost2010Prop45
280
     0
102
RTVSPost2010PropOp45
 70
     0
102
RTVSPost2010Prop46
 90
       50
102
RTVSPost2010PropOp46
 70
     0
102
RTVSPost2010Prop47
 90
       50
102
RTVSPost2010PropOp47
 70
     0
102
RTVSPost2010Prop48
 90
       50
102
RTVSPost2010PropOp48
 70
     0
102
RTVSPost2010Prop49
280
     0
102
RTVSPost2010PropOp49
 70
     0
102
RTVSPost2010Prop50
 90
       50
102
RTVSPost2010PropOp50
 70
     0
102
RTVSPost2010Prop51ColorIndex
 90
      256
102
RTVSPost2010Prop51ColorRGB
 90
-16777216
102
RTVSPost2010PropOp51
 70
     0
102
RTVSPost2010Prop52
140
1.0
102
RTVSPost2010PropOp52
 70
     0
102
RTVSPost2010Prop53
 90
        2
102
RTVSPost2010PropOp53
 70
     0
102
RTVSPost2010Prop54
  1
strokes_ogs.tif
102
RTVSPost2010PropOp54
 70
     0
102
RTVSPost2010Prop55
280
     0
102
RTVSPost2010PropOp55
 70
     0
102
RTVSPost2010Prop56
140
1.0
102
RTVSPost2010PropOp56
 70
     0
102
RTVSPost2010Prop57
140
1.0
102
RTVSPost2010PropOp57
 70
     0
  0
XRECORD
  5
127
102
{ACAD_REACTORS
330
126
102
}
330
126
100
AcDbXrecord
280
     1
102
RTVSPost2010Prop28
280
     0
102
RTVSPost2010PropOp28
 70
     1
102
RTVSPost2010Prop29
280
     1
102
RTVSPost2010PropOp29
 70
     1
102
RTVSPost2010Prop30
280
     1
102
RTVSPost2010PropOp30
 70
     1
102
RTVSPost2010Prop31
280
     0
102
RTVSPost2010PropOp31
 70
     1
102
RTVSPost2010Prop32
280
     0
102
RTVSPost2010PropOp32
 70
     1
102
RTVSPost2010Prop33
280
     0
102
RTVSPost2010PropOp33
 70
     1
102
RTVSPost2010Prop34
280
     0
102
RTVSPost2010PropOp34
 70
     1
102
RTVSPost2010Prop35
280
     0
102
RTVSPost2010PropOp35
 70
     1
102
RTVSPost2010Prop36
280
     0
102
RTVSPost2010PropOp36
 70
     1
102
RTVSPost2010Prop37
 90
       50
102
RTVSPost2010PropOp37
 70
     1
102
RTVSPost2010Prop38
140
0.0
102
RTVSPost2010PropOp38
 70
     1
102
RTVSPost2010Prop39
140
1.0
102
RTVSPost2010PropOp39
 70
     1
102
RTVSPost2010Prop40
 90
        0
102
RTVSPost2010PropOp40
 70
     1
102
RTVSPost2010Prop41ColorIndex
 90
       18
102
RTVSPost2010Prop41ColorRGB
 90
        0
102
RTVSPost2010PropOp41
 70
     1
102
RTVSPost2010Prop42
 90
       50
102
RTVSPost2010PropOp42
 70
     1
102
RTVSPost2010Prop43
 90
        3
102
RTVSPost2010PropOp43
 70
     1
102
RTVSPost2010Prop44ColorIndex
 90
        5
102
RTVSPost2010Prop44ColorRGB
 90
      255
102
RTVSPost2010PropOp44
 70
     1
102
RTVSPost2010Prop45
280
     0
102
RTVSPost2010PropOp45
 70
     1
102
RTVSPost2010Prop46
 90
       50
102
RTVSPost2010PropOp46
 70
     1
102
RTVSPost2010Prop47
 90
       50
102
RTVSPost2010PropOp47
 70
     1
102
RTVSPost2010Prop48
 90
       50
102
RTVSPost2010PropOp48
 70
     1
102
RTVSPost2010Prop49
280
     0
102
RTVSPost2010PropOp49
 70
     1
102
RTVSPost2010Prop50
 90
       50
102
RTVSPost2010PropOp50
 70
     1
102
RTVSPost2010Prop51ColorIndex
 90
      256
102
RTVSPost2010Prop51ColorRGB
 90
-16777216
102
RTVSPost2010PropOp51
 70
     0
102
RTVSPost2010Prop52
140
1.0
102
RTVSPost2010PropOp52
 70
     0
102
RTVSPost2010Prop53
 90
        2
102
RTVSPost2010PropOp53
 70
     1
102
RTVSPost2010Prop54
  1
strokes_ogs.tif
102
RTVSPost2010PropOp54
 70
     1
102
RTVSPost2010Prop55
280
     0
102
RTVSPost2010PropOp55
 70
     1
102
RTVSPost2010Prop56
140
1.0
102
RTVSPost2010PropOp56
 70
     1
102
RTVSPost2010Prop57
140
1.0
102
RTVSPost2010PropOp57
 70
     1
  0
XRECORD
  5
10B
102
{ACAD_REACTORS
330
10A
102
}
330
10A
100
AcDbXrecord
280
     1
102
RTVSPost2010Prop28
280
     0
102
RTVSPost2010PropOp28
 70
     1
102
RTVSPost2010Prop29
280
     1
102
RTVSPost2010PropOp29
 70
     1
102
RTVSPost2010Prop30
280
     1
102
RTVSPost2010PropOp30
 70
     1
102
RTVSPost2010Prop31
280
     0
102
RTVSPost2010PropOp31
 70
     1
102
RTVSPost2010Prop32
280
     0
102
RTVSPost2010PropOp32
 70
     1
102
RTVSPost2010Prop33
280
     0
102
RTVSPost2010PropOp33
 70
     1
102
RTVSPost2010Prop34
280
     0
102
RTVSPost2010PropOp34
 70
     1
102
RTVSPost2010Prop35
280
     0
102
RTVSPost2010PropOp35
 70
     1
102
RTVSPost2010Prop36
280
     0
102
RTVSPost2010PropOp36
 70
     1
102
RTVSPost2010Prop37
 90
       50
102
RTVSPost2010PropOp37
 70
     1
102
RTVSPost2010Prop38
140
0.0
102
RTVSPost2010PropOp38
 70
     1
102
RTVSPost2010Prop39
140
1.0
102
RTVSPost2010PropOp39
 70
     1
102
RTVSPost2010Prop40
 90
        0
102
RTVSPost2010PropOp40
 70
     1
102
RTVSPost2010Prop41ColorIndex
 90
       18
102
RTVSPost2010Prop41ColorRGB
 90
        0
102
RTVSPost2010PropOp41
 70
     1
102
RTVSPost2010Prop42
 90
       50
102
RTVSPost2010PropOp42
 70
     1
102
RTVSPost2010Prop43
 90
        3
102
RTVSPost2010PropOp43
 70
     1
102
RTVSPost2010Prop44ColorIndex
 90
        5
102
RTVSPost2010Prop44ColorRGB
 90
      255
102
RTVSPost2010PropOp44
 70
     1
102
RTVSPost2010Prop45
280
     0
102
RTVSPost2010PropOp45
 70
     1
102
RTVSPost2010Prop46
 90
       50
102
RTVSPost2010PropOp46
 70
     1
102
RTVSPost2010Prop47
 90
       50
102
RTVSPost2010PropOp47
 70
     1
102
RTVSPost2010Prop48
 90
       50
102
RTVSPost2010PropOp48
 70
     1
102
RTVSPost2010Prop49
280
     0
102
RTVSPost2010PropOp49
 70
     1
102
RTVSPost2010Prop50
 90
       50
102
RTVSPost2010PropOp50
 70
     1
102
RTVSPost2010Prop51ColorIndex
 90
      256
102
RTVSPost2010Prop51ColorRGB
 90
-16777216
102
RTVSPost2010PropOp51
 70
     0
102
RTVSPost2010Prop52
140
1.0
102
RTVSPost2010PropOp52
 70
     0
102
RTVSPost2010Prop53
 90
        2
102
RTVSPost2010PropOp53
 70
     1
102
RTVSPost2010Prop54
  1
strokes_ogs.tif
102
RTVSPost2010PropOp54
 70
     1
102
RTVSPost2010Prop55
280
     0
102
RTVSPost2010PropOp55
 70
     1
102
RTVSPost2010Prop56
140
1.0
102
RTVSPost2010PropOp56
 70
     1
102
RTVSPost2010Prop57
140
1.0
102
RTVSPost2010PropOp57
 70
     1
  0
XRECORD
  5
10D
102
{ACAD_REACTORS
330
10C
102
}
330
10C
100
AcDbXrecord
280
     1
102
RTVSPost2010Prop28
280
     0
102
RTVSPost2010PropOp28
 70
     1
102
RTVSPost2010Prop29
280
     1
102
RTVSPost2010PropOp29
 70
     1
102
RTVSPost2010Prop30
280
     1
102
RTVSPost2010PropOp30
 70
     1
102
RTVSPost2010Prop31
280
     0
102
RTVSPost2010PropOp31
 70
     1
102
RTVSPost2010Prop32
280
     0
102
RTVSPost2010PropOp32
 70
     1
102
RTVSPost2010Prop33
280
     0
102
RTVSPost2010PropOp33
 70
     1
102
RTVSPost2010Prop34
280
     0
102
RTVSPost2010PropOp34
 70
     1
102
RTVSPost2010Prop35
280
     0
102
RTVSPost2010PropOp35
 70
     1
102
RTVSPost2010Prop36
280
     0
102
RTVSPost2010PropOp36
 70
     1
102
RTVSPost2010Prop37
 90
       50
102
RTVSPost2010PropOp37
 70
     1
102
RTVSPost2010Prop38
140
0.0
102
RTVSPost2010PropOp38
 70
     1
102
RTVSPost2010Prop39
140
1.0
102
RTVSPost2010PropOp39
 70
     1
102
RTVSPost2010Prop40
 90
        0
102
RTVSPost2010PropOp40
 70
     1
102
RTVSPost2010Prop41ColorIndex
 90
       18
102
RTVSPost2010Prop41ColorRGB
 90
        0
102
RTVSPost2010PropOp41
 70
     1
102
RTVSPost2010Prop42
 90
       50
102
RTVSPost2010PropOp42
 70
     1
102
RTVSPost2010Prop43
 90
        3
102
RTVSPost2010PropOp43
 70
     1
102
RTVSPost2010Prop44ColorIndex
 90
        5
102
RTVSPost2010Prop44ColorRGB
 90
      255
102
RTVSPost2010PropOp44
 70
     1
102
RTVSPost2010Prop45
280
     0
102
RTVSPost2010PropOp45
 70
     1
102
RTVSPost2010Prop46
 90
       50
102
RTVSPost2010PropOp46
 70
     1
102
RTVSPost2010Prop47
 90
       50
102
RTVSPost2010PropOp47
 70
     1
102
RTVSPost2010Prop48
 90
       50
102
RTVSPost2010PropOp48
 70
     1
102
RTVSPost2010Prop49
280
     0
102
RTVSPost2010PropOp49
 70
     1
102
RTVSPost2010Prop50
 90
       50
102
RTVSPost2010PropOp50
 70
     1
102
RTVSPost2010Prop51ColorIndex
 90
      256
102
RTVSPost2010Prop51ColorRGB
 90
-16777216
102
RTVSPost2010PropOp51
 70
     0
102
RTVSPost2010Prop52
140
1.0
102
RTVSPost2010PropOp52
 70
     0
102
RTVSPost2010Prop53
 90
        2
102
RTVSPost2010PropOp53
 70
     1
102
RTVSPost2010Prop54
  1
strokes_ogs.tif
102
RTVSPost2010PropOp54
 70
     1
102
RTVSPost2010Prop55
280
     0
102
RTVSPost2010PropOp55
 70
     1
102
RTVSPost2010Prop56
140
1.0
102
RTVSPost2010PropOp56
 70
     1
102
RTVSPost2010Prop57
140
1.0
102
RTVSPost2010PropOp57
 70
     1
  0
XRECORD
  5
10F
102
{ACAD_REACTORS
330
10E
102
}
330
10E
100
AcDbXrecord
280
     1
102
RTVSPost2010Prop28
280
     0
102
RTVSPost2010PropOp28
 70
     1
102
RTVSPost2010Prop29
280
     1
102
RTVSPost2010PropOp29
 70
     1
102
RTVSPost2010Prop30
280
     1
102
RTVSPost2010PropOp30
 70
     1
102
RTVSPost2010Prop31
280
     0
102
RTVSPost2010PropOp31
 70
     1
102
RTVSPost2010Prop32
280
     0
102
RTVSPost2010PropOp32
 70
     1
102
RTVSPost2010Prop33
280
     0
102
RTVSPost2010PropOp33
 70
     1
102
RTVSPost2010Prop34
280
     0
102
RTVSPost2010PropOp34
 70
     1
102
RTVSPost2010Prop35
280
     0
102
RTVSPost2010PropOp35
 70
     1
102
RTVSPost2010Prop36
280
     0
102
RTVSPost2010PropOp36
 70
     1
102
RTVSPost2010Prop37
 90
       50
102
RTVSPost2010PropOp37
 70
     1
102
RTVSPost2010Prop38
140
0.0
102
RTVSPost2010PropOp38
 70
     1
102
RTVSPost2010Prop39
140
1.0
102
RTVSPost2010PropOp39
 70
     1
102
RTVSPost2010Prop40
 90
        0
102
RTVSPost2010PropOp40
 70
     1
102
RTVSPost2010Prop41ColorIndex
 90
       18
102
RTVSPost2010Prop41ColorRGB
 90
        0
102
RTVSPost2010PropOp41
 70
     1
102
RTVSPost2010Prop42
 90
       50
102
RTVSPost2010PropOp42
 70
     1
102
RTVSPost2010Prop43
 90
        3
102
RTVSPost2010PropOp43
 70
     1
102
RTVSPost2010Prop44ColorIndex
 90
        5
102
RTVSPost2010Prop44ColorRGB
 90
      255
102
RTVSPost2010PropOp44
 70
     1
102
RTVSPost2010Prop45
280
     0
102
RTVSPost2010PropOp45
 70
     1
102
RTVSPost2010Prop46
 90
       50
102
RTVSPost2010PropOp46
 70
     1
102
RTVSPost2010Prop47
 90
       50
102
RTVSPost2010PropOp47
 70
     1
102
RTVSPost2010Prop48
 90
       50
102
RTVSPost2010PropOp48
 70
     1
102
RTVSPost2010Prop49
280
     0
102
RTVSPost2010PropOp49
 70
     1
102
RTVSPost2010Prop50
 90
       50
102
RTVSPost2010PropOp50
 70
     1
102
RTVSPost2010Prop51ColorIndex
 90
      256
102
RTVSPost2010Prop51ColorRGB
 90
-16777216
102
RTVSPost2010PropOp51
 70
     0
102
RTVSPost2010Prop52
140
1.0
102
RTVSPost2010PropOp52
 70
     0
102
RTVSPost2010Prop53
 90
        2
102
RTVSPost2010PropOp53
 70
     1
102
RTVSPost2010Prop54
  1
strokes_ogs.tif
102
RTVSPost2010PropOp54
 70
     1
102
RTVSPost2010Prop55
280
     0
102
RTVSPost2010PropOp55
 70
     1
102
RTVSPost2010Prop56
140
1.0
102
RTVSPost2010PropOp56
 70
     1
102
RTVSPost2010Prop57
140
1.0
102
RTVSPost2010PropOp57
 70
     1
  0
XRECORD
  5
111
102
{ACAD_REACTORS
330
110
102
}
330
110
100
AcDbXrecord
280
     1
102
RTVSPost2010Prop28
280
     0
102
RTVSPost2010PropOp28
 70
     1
102
RTVSPost2010Prop29
280
     1
102
RTVSPost2010PropOp29
 70
     1
102
RTVSPost2010Prop30
280
     1
102
RTVSPost2010PropOp30
 70
     1
102
RTVSPost2010Prop31
280
     0
102
RTVSPost2010PropOp31
 70
     1
102
RTVSPost2010Prop32
280
     0
102
RTVSPost2010PropOp32
 70
     1
102
RTVSPost2010Prop33
280
     0
102
RTVSPost2010PropOp33
 70
     1
102
RTVSPost2010Prop34
280
     0
102
RTVSPost2010PropOp34
 70
     1
102
RTVSPost2010Prop35
280
     0
102
RTVSPost2010PropOp35
 70
     1
102
RTVSPost2010Prop36
280
     0
102
RTVSPost2010PropOp36
 70
     1
102
RTVSPost2010Prop37
 90
       50
102
RTVSPost2010PropOp37
 70
     1
102
RTVSPost2010Prop38
140
0.0
102
RTVSPost2010PropOp38
 70
     1
102
RTVSPost2010Prop39
140
1.0
102
RTVSPost2010PropOp39
 70
     1
102
RTVSPost2010Prop40
 90
        0
102
RTVSPost2010PropOp40
 70
     1
102
RTVSPost2010Prop41ColorIndex
 90
       18
102
RTVSPost2010Prop41ColorRGB
 90
        0
102
RTVSPost2010PropOp41
 70
     1
102
RTVSPost2010Prop42
 90
       50
102
RTVSPost2010PropOp42
 70
     1
102
RTVSPost2010Prop43
 90
        3
102
RTVSPost2010PropOp43
 70
     1
102
RTVSPost2010Prop44ColorIndex
 90
        5
102
RTVSPost2010Prop44ColorRGB
 90
      255
102
RTVSPost2010PropOp44
 70
     1
102
RTVSPost2010Prop45
280
     0
102
RTVSPost2010PropOp45
 70
     1
102
RTVSPost2010Prop46
 90
       50
102
RTVSPost2010PropOp46
 70
     1
102
RTVSPost2010Prop47
 90
       50
102
RTVSPost2010PropOp47
 70
     1
102
RTVSPost2010Prop48
 90
       50
102
RTVSPost2010PropOp48
 70
     1
102
RTVSPost2010Prop49
280
     0
102
RTVSPost2010PropOp49
 70
     1
102
RTVSPost2010Prop50
 90
       50
102
RTVSPost2010PropOp50
 70
     1
102
RTVSPost2010Prop51ColorIndex
 90
      256
102
RTVSPost2010Prop51ColorRGB
 90
-16777216
102
RTVSPost2010PropOp51
 70
     0
102
RTVSPost2010Prop52
140
1.0
102
RTVSPost2010PropOp52
 70
     0
102
RTVSPost2010Prop53
 90
        2
102
RTVSPost2010PropOp53
 70
     1
102
RTVSPost2010Prop54
  1
strokes_ogs.tif
102
RTVSPost2010PropOp54
 70
     1
102
RTVSPost2010Prop55
280
     0
102
RTVSPost2010PropOp55
 70
     1
102
RTVSPost2010Prop56
140
1.0
102
RTVSPost2010PropOp56
 70
     1
102
RTVSPost2010Prop57
140
1.0
102
RTVSPost2010PropOp57
 70
     1
  0
XRECORD
  5
119
102
{ACAD_REACTORS
330
118
102
}
330
118
100
AcDbXrecord
280
     1
102
RTVSPost2010Prop28
280
     0
102
RTVSPost2010PropOp28
 70
     1
102
RTVSPost2010Prop29
280
     1
102
RTVSPost2010PropOp29
 70
     1
102
RTVSPost2010Prop30
280
     1
102
RTVSPost2010PropOp30
 70
     1
102
RTVSPost2010Prop31
280
     0
102
RTVSPost2010PropOp31
 70
     1
102
RTVSPost2010Prop32
280
     0
102
RTVSPost2010PropOp32
 70
     1
102
RTVSPost2010Prop33
280
     0
102
RTVSPost2010PropOp33
 70
     1
102
RTVSPost2010Prop34
280
     0
102
RTVSPost2010PropOp34
 70
     1
102
RTVSPost2010Prop35
280
     0
102
RTVSPost2010PropOp35
 70
     1
102
RTVSPost2010Prop36
280
     0
102
RTVSPost2010PropOp36
 70
     1
102
RTVSPost2010Prop37
 90
       50
102
RTVSPost2010PropOp37
 70
     1
102
RTVSPost2010Prop38
140
0.0
102
RTVSPost2010PropOp38
 70
     1
102
RTVSPost2010Prop39
140
1.0
102
RTVSPost2010PropOp39
 70
     1
102
RTVSPost2010Prop40
 90
        0
102
RTVSPost2010PropOp40
 70
     1
102
RTVSPost2010Prop41ColorIndex
 90
       18
102
RTVSPost2010Prop41ColorRGB
 90
        0
102
RTVSPost2010PropOp41
 70
     1
102
RTVSPost2010Prop42
 90
       50
102
RTVSPost2010PropOp42
 70
     1
102
RTVSPost2010Prop43
 90
        3
102
RTVSPost2010PropOp43
 70
     1
102
RTVSPost2010Prop44ColorIndex
 90
        5
102
RTVSPost2010Prop44ColorRGB
 90
      255
102
RTVSPost2010PropOp44
 70
     1
102
RTVSPost2010Prop45
280
     0
102
RTVSPost2010PropOp45
 70
     1
102
RTVSPost2010Prop46
 90
       50
102
RTVSPost2010PropOp46
 70
     1
102
RTVSPost2010Prop47
 90
       50
102
RTVSPost2010PropOp47
 70
     1
102
RTVSPost2010Prop48
 90
       50
102
RTVSPost2010PropOp48
 70
     1
102
RTVSPost2010Prop49
280
     0
102
RTVSPost2010PropOp49
 70
     1
102
RTVSPost2010Prop50
 90
       50
102
RTVSPost2010PropOp50
 70
     1
102
RTVSPost2010Prop51ColorIndex
 90
      256
102
RTVSPost2010Prop51ColorRGB
 90
-16777216
102
RTVSPost2010PropOp51
 70
     0
102
RTVSPost2010Prop52
140
1.0
102
RTVSPost2010PropOp52
 70
     0
102
RTVSPost2010Prop53
 90
        2
102
RTVSPost2010PropOp53
 70
     1
102
RTVSPost2010Prop54
  1
strokes_ogs.tif
102
RTVSPost2010PropOp54
 70
     1
102
RTVSPost2010Prop55
280
     0
102
RTVSPost2010PropOp55
 70
     1
102
RTVSPost2010Prop56
140
1.0
102
RTVSPost2010PropOp56
 70
     1
102
RTVSPost2010Prop57
140
1.0
102
RTVSPost2010PropOp57
 70
     1
  0
XRECORD
  5
135
102
{ACAD_REACTORS
330
134
102
}
330
134
100
AcDbXrecord
280
     1
102
RTVSPost2010Prop28
280
     0
102
RTVSPost2010PropOp28
 70
     0
102
RTVSPost2010Prop29
280
     1
102
RTVSPost2010PropOp29
 70
     0
102
RTVSPost2010Prop30
280
     1
102
RTVSPost2010PropOp30
 70
     0
102
RTVSPost2010Prop31
280
     0
102
RTVSPost2010PropOp31
 70
     0
102
RTVSPost2010Prop32
280
     0
102
RTVSPost2010PropOp32
 70
     0
102
RTVSPost2010Prop33
280
     0
102
RTVSPost2010PropOp33
 70
     0
102
RTVSPost2010Prop34
280
     0
102
RTVSPost2010PropOp34
 70
     0
102
RTVSPost2010Prop35
280
     0
102
RTVSPost2010PropOp35
 70
     0
102
RTVSPost2010Prop36
280
     0
102
RTVSPost2010PropOp36
 70
     0
102
RTVSPost2010Prop37
 90
       50
102
RTVSPost2010PropOp37
 70
     0
102
RTVSPost2010Prop38
140
0.0
102
RTVSPost2010PropOp38
 70
     0
102
RTVSPost2010Prop39
140
1.0
102
RTVSPost2010PropOp39
 70
     0
102
RTVSPost2010Prop40
 90
        0
102
RTVSPost2010PropOp40
 70
     0
102
RTVSPost2010Prop41ColorIndex
 90
       18
102
RTVSPost2010Prop41ColorRGB
 90
        0
102
RTVSPost2010PropOp41
 70
     0
102
RTVSPost2010Prop42
 90
       50
102
RTVSPost2010PropOp42
 70
     0
102
RTVSPost2010Prop43
 90
        3
102
RTVSPost2010PropOp43
 70
     0
102
RTVSPost2010Prop44ColorIndex
 90
        5
102
RTVSPost2010Prop44ColorRGB
 90
      255
102
RTVSPost2010PropOp44
 70
     0
102
RTVSPost2010Prop45
280
     0
102
RTVSPost2010PropOp45
 70
     0
102
RTVSPost2010Prop46
 90
       50
102
RTVSPost2010PropOp46
 70
     0
102
RTVSPost2010Prop47
 90
       50
102
RTVSPost2010PropOp47
 70
     0
102
RTVSPost2010Prop48
 90
       50
102
RTVSPost2010PropOp48
 70
     0
102
RTVSPost2010Prop49
280
     0
102
RTVSPost2010PropOp49
 70
     0
102
RTVSPost2010Prop50
 90
       50
102
RTVSPost2010PropOp50
 70
     0
102
RTVSPost2010Prop51ColorIndex
 90
      256
102
RTVSPost2010Prop51ColorRGB
 90
-16777216
102
RTVSPost2010PropOp51
 70
     0
102
RTVSPost2010Prop52
140
1.0
102
RTVSPost2010PropOp52
 70
     0
102
RTVSPost2010Prop53
 90
        2
102
RTVSPost2010PropOp53
 70
     0
102
RTVSPost2010Prop54
  1
strokes_ogs.tif
102
RTVSPost2010PropOp54
 70
     0
102
RTVSPost2010Prop55
280
     0
102
RTVSPost2010PropOp55
 70
     0
102
RTVSPost2010Prop56
140
1.0
102
RTVSPost2010PropOp56
 70
     0
102
RTVSPost2010Prop57
140
1.0
102
RTVSPost2010PropOp57
 70
     0
  0
XRECORD
  5
125
102
{ACAD_REACTORS
330
124
102
}
330
124
100
AcDbXrecord
280
     1
102
RTVSPost2010Prop28
280
     0
102
RTVSPost2010PropOp28
 70
     1
102
RTVSPost2010Prop29
280
     1
102
RTVSPost2010PropOp29
 70
     1
102
RTVSPost2010Prop30
280
     1
102
RTVSPost2010PropOp30
 70
     1
102
RTVSPost2010Prop31
280
     0
102
RTVSPost2010PropOp31
 70
     1
102
RTVSPost2010Prop32
280
     0
102
RTVSPost2010PropOp32
 70
     1
102
RTVSPost2010Prop33
280
     0
102
RTVSPost2010PropOp33
 70
     1
102
RTVSPost2010Prop34
280
     0
102
RTVSPost2010PropOp34
 70
     1
102
RTVSPost2010Prop35
280
     0
102
RTVSPost2010PropOp35
 70
     1
102
RTVSPost2010Prop36
280
     0
102
RTVSPost2010PropOp36
 70
     1
102
RTVSPost2010Prop37
 90
       50
102
RTVSPost2010PropOp37
 70
     1
102
RTVSPost2010Prop38
140
0.0
102
RTVSPost2010PropOp38
 70
     1
102
RTVSPost2010Prop39
140
1.0
102
RTVSPost2010PropOp39
 70
     1
102
RTVSPost2010Prop40
 90
        0
102
RTVSPost2010PropOp40
 70
     1
102
RTVSPost2010Prop41ColorIndex
 90
       18
102
RTVSPost2010Prop41ColorRGB
 90
        0
102
RTVSPost2010PropOp41
 70
     1
102
RTVSPost2010Prop42
 90
       50
102
RTVSPost2010PropOp42
 70
     1
102
RTVSPost2010Prop43
 90
        3
102
RTVSPost2010PropOp43
 70
     1
102
RTVSPost2010Prop44ColorIndex
 90
        5
102
RTVSPost2010Prop44ColorRGB
 90
      255
102
RTVSPost2010PropOp44
 70
     1
102
RTVSPost2010Prop45
280
     0
102
RTVSPost2010PropOp45
 70
     1
102
RTVSPost2010Prop46
 90
       50
102
RTVSPost2010PropOp46
 70
     1
102
RTVSPost2010Prop47
 90
       50
102
RTVSPost2010PropOp47
 70
     1
102
RTVSPost2010Prop48
 90
       50
102
RTVSPost2010PropOp48
 70
     1
102
RTVSPost2010Prop49
280
     0
102
RTVSPost2010PropOp49
 70
     1
102
RTVSPost2010Prop50
 90
       50
102
RTVSPost2010PropOp50
 70
     1
102
RTVSPost2010Prop51ColorIndex
 90
      256
102
RTVSPost2010Prop51ColorRGB
 90
-16777216
102
RTVSPost2010PropOp51
 70
     0
102
RTVSPost2010Prop52
140
1.0
102
RTVSPost2010PropOp52
 70
     0
102
RTVSPost2010Prop53
 90
        2
102
RTVSPost2010PropOp53
 70
     1
102
RTVSPost2010Prop54
  1
strokes_ogs.tif
102
RTVSPost2010PropOp54
 70
     1
102
RTVSPost2010Prop55
280
     0
102
RTVSPost2010PropOp55
 70
     1
102
RTVSPost2010Prop56
140
1.0
102
RTVSPost2010PropOp56
 70
     1
102
RTVSPost2010Prop57
140
1.0
102
RTVSPost2010PropOp57
 70
     1
  0
XRECORD
  5
137
102
{ACAD_REACTORS
330
136
102
}
330
136
100
AcDbXrecord
280
     1
102
RTVSPost2010Prop28
280
     0
102
RTVSPost2010PropOp28
 70
     0
102
RTVSPost2010Prop29
280
     1
102
RTVSPost2010PropOp29
 70
     0
102
RTVSPost2010Prop30
280
     1
102
RTVSPost2010PropOp30
 70
     0
102
RTVSPost2010Prop31
280
     0
102
RTVSPost2010PropOp31
 70
     0
102
RTVSPost2010Prop32
280
     0
102
RTVSPost2010PropOp32
 70
     0
102
RTVSPost2010Prop33
280
     0
102
RTVSPost2010PropOp33
 70
     0
102
RTVSPost2010Prop34
280
     0
102
RTVSPost2010PropOp34
 70
     0
102
RTVSPost2010Prop35
280
     0
102
RTVSPost2010PropOp35
 70
     0
102
RTVSPost2010Prop36
280
     0
102
RTVSPost2010PropOp36
 70
     0
102
RTVSPost2010Prop37
 90
       50
102
RTVSPost2010PropOp37
 70
     0
102
RTVSPost2010Prop38
140
0.0
102
RTVSPost2010PropOp38
 70
     0
102
RTVSPost2010Prop39
140
1.0
102
RTVSPost2010PropOp39
 70
     0
102
RTVSPost2010Prop40
 90
        0
102
RTVSPost2010PropOp40
 70
     0
102
RTVSPost2010Prop41ColorIndex
 90
       18
102
RTVSPost2010Prop41ColorRGB
 90
        0
102
RTVSPost2010PropOp41
 70
     0
102
RTVSPost2010Prop42
 90
       50
102
RTVSPost2010PropOp42
 70
     0
102
RTVSPost2010Prop43
 90
        3
102
RTVSPost2010PropOp43
 70
     0
102
RTVSPost2010Prop44ColorIndex
 90
        5
102
RTVSPost2010Prop44ColorRGB
 90
      255
102
RTVSPost2010PropOp44
 70
     0
102
RTVSPost2010Prop45
280
     0
102
RTVSPost2010PropOp45
 70
     0
102
RTVSPost2010Prop46
 90
       50
102
RTVSPost2010PropOp46
 70
     0
102
RTVSPost2010Prop47
 90
       50
102
RTVSPost2010PropOp47
 70
     0
102
RTVSPost2010Prop48
 90
       50
102
RTVSPost2010PropOp48
 70
     0
102
RTVSPost2010Prop49
280
     0
102
RTVSPost2010PropOp49
 70
     0
102
RTVSPost2010Prop50
 90
       50
102
RTVSPost2010PropOp50
 70
     0
102
RTVSPost2010Prop51ColorIndex
 90
      256
102
RTVSPost2010Prop51ColorRGB
 90
-16777216
102
RTVSPost2010PropOp51
 70
     0
102
RTVSPost2010Prop52
140
1.0
102
RTVSPost2010PropOp52
 70
     0
102
RTVSPost2010Prop53
 90
        2
102
RTVSPost2010PropOp53
 70
     0
102
RTVSPost2010Prop54
  1
strokes_ogs.tif
102
RTVSPost2010PropOp54
 70
     0
102
RTVSPost2010Prop55
280
     0
102
RTVSPost2010PropOp55
 70
     0
102
RTVSPost2010Prop56
140
1.0
102
RTVSPost2010PropOp56
 70
     0
102
RTVSPost2010Prop57
140
1.0
102
RTVSPost2010PropOp57
 70
     0
  0
XRECORD
  5
11D
102
{ACAD_REACTORS
330
11C
102
}
330
11C
100
AcDbXrecord
280
     1
102
RTVSPost2010Prop28
280
     0
102
RTVSPost2010PropOp28
 70
     1
102
RTVSPost2010Prop29
280
     1
102
RTVSPost2010PropOp29
 70
     1
102
RTVSPost2010Prop30
280
     1
102
RTVSPost2010PropOp30
 70
     1
102
RTVSPost2010Prop31
280
     0
102
RTVSPost2010PropOp31
 70
     1
102
RTVSPost2010Prop32
280
     0
102
RTVSPost2010PropOp32
 70
     1
102
RTVSPost2010Prop33
280
     0
102
RTVSPost2010PropOp33
 70
     1
102
RTVSPost2010Prop34
280
     0
102
RTVSPost2010PropOp34
 70
     1
102
RTVSPost2010Prop35
280
     0
102
RTVSPost2010PropOp35
 70
     1
102
RTVSPost2010Prop36
280
     0
102
RTVSPost2010PropOp36
 70
     1
102
RTVSPost2010Prop37
 90
       50
102
RTVSPost2010PropOp37
 70
     1
102
RTVSPost2010Prop38
140
0.0
102
RTVSPost2010PropOp38
 70
     1
102
RTVSPost2010Prop39
140
1.0
102
RTVSPost2010PropOp39
 70
     1
102
RTVSPost2010Prop40
 90
        0
102
RTVSPost2010PropOp40
 70
     1
102
RTVSPost2010Prop41ColorIndex
 90
       18
102
RTVSPost2010Prop41ColorRGB
 90
        0
102
RTVSPost2010PropOp41
 70
     1
102
RTVSPost2010Prop42
 90
       50
102
RTVSPost2010PropOp42
 70
     1
102
RTVSPost2010Prop43
 90
        3
102
RTVSPost2010PropOp43
 70
     1
102
RTVSPost2010Prop44ColorIndex
 90
        5
102
RTVSPost2010Prop44ColorRGB
 90
      255
102
RTVSPost2010PropOp44
 70
     1
102
RTVSPost2010Prop45
280
     0
102
RTVSPost2010PropOp45
 70
     1
102
RTVSPost2010Prop46
 90
       50
102
RTVSPost2010PropOp46
 70
     1
102
RTVSPost2010Prop47
 90
       50
102
RTVSPost2010PropOp47
 70
     1
102
RTVSPost2010Prop48
 90
       50
102
RTVSPost2010PropOp48
 70
     1
102
RTVSPost2010Prop49
280
     0
102
RTVSPost2010PropOp49
 70
     1
102
RTVSPost2010Prop50
 90
       50
102
RTVSPost2010PropOp50
 70
     1
102
RTVSPost2010Prop51ColorIndex
 90
      256
102
RTVSPost2010Prop51ColorRGB
 90
-16777216
102
RTVSPost2010PropOp51
 70
     0
102
RTVSPost2010Prop52
140
1.0
102
RTVSPost2010PropOp52
 70
     0
102
RTVSPost2010Prop53
 90
        2
102
RTVSPost2010PropOp53
 70
     1
102
RTVSPost2010Prop54
  1
strokes_ogs.tif
102
RTVSPost2010PropOp54
 70
     1
102
RTVSPost2010Prop55
280
     0
102
RTVSPost2010PropOp55
 70
     1
102
RTVSPost2010Prop56
140
1.0
102
RTVSPost2010PropOp56
 70
     1
102
RTVSPost2010Prop57
140
1.0
102
RTVSPost2010PropOp57
 70
     1
  0
XRECORD
  5
133
102
{ACAD_REACTORS
330
132
102
}
330
132
100
AcDbXrecord
280
     1
102
RTVSPost2010Prop28
280
     0
102
RTVSPost2010PropOp28
 70
     1
102
RTVSPost2010Prop29
280
     1
102
RTVSPost2010PropOp29
 70
     1
102
RTVSPost2010Prop30
280
     1
102
RTVSPost2010PropOp30
 70
     1
102
RTVSPost2010Prop31
280
     0
102
RTVSPost2010PropOp31
 70
     1
102
RTVSPost2010Prop32
280
     0
102
RTVSPost2010PropOp32
 70
     1
102
RTVSPost2010Prop33
280
     0
102
RTVSPost2010PropOp33
 70
     1
102
RTVSPost2010Prop34
280
     0
102
RTVSPost2010PropOp34
 70
     1
102
RTVSPost2010Prop35
280
     0
102
RTVSPost2010PropOp35
 70
     1
102
RTVSPost2010Prop36
280
     0
102
RTVSPost2010PropOp36
 70
     1
102
RTVSPost2010Prop37
 90
       50
102
RTVSPost2010PropOp37
 70
     1
102
RTVSPost2010Prop38
140
0.0
102
RTVSPost2010PropOp38
 70
     1
102
RTVSPost2010Prop39
140
1.0
102
RTVSPost2010PropOp39
 70
     1
102
RTVSPost2010Prop40
 90
        0
102
RTVSPost2010PropOp40
 70
     1
102
RTVSPost2010Prop41ColorIndex
 90
       18
102
RTVSPost2010Prop41ColorRGB
 90
        0
102
RTVSPost2010PropOp41
 70
     1
102
RTVSPost2010Prop42
 90
       50
102
RTVSPost2010PropOp42
 70
     1
102
RTVSPost2010Prop43
 90
        3
102
RTVSPost2010PropOp43
 70
     1
102
RTVSPost2010Prop44ColorIndex
 90
        5
102
RTVSPost2010Prop44ColorRGB
 90
      255
102
RTVSPost2010PropOp44
 70
     1
102
RTVSPost2010Prop45
280
     0
102
RTVSPost2010PropOp45
 70
     1
102
RTVSPost2010Prop46
 90
       50
102
RTVSPost2010PropOp46
 70
     1
102
RTVSPost2010Prop47
 90
       50
102
RTVSPost2010PropOp47
 70
     1
102
RTVSPost2010Prop48
 90
       50
102
RTVSPost2010PropOp48
 70
     1
102
RTVSPost2010Prop49
280
     0
102
RTVSPost2010PropOp49
 70
     1
102
RTVSPost2010Prop50
 90
       50
102
RTVSPost2010PropOp50
 70
     1
102
RTVSPost2010Prop51ColorIndex
 90
      256
102
RTVSPost2010Prop51ColorRGB
 90
-16777216
102
RTVSPost2010PropOp51
 70
     0
102
RTVSPost2010Prop52
140
1.0
102
RTVSPost2010PropOp52
 70
     0
102
RTVSPost2010Prop53
 90
        2
102
RTVSPost2010PropOp53
 70
     1
102
RTVSPost2010Prop54
  1
strokes_ogs.tif
102
RTVSPost2010PropOp54
 70
     1
102
RTVSPost2010Prop55
280
     0
102
RTVSPost2010PropOp55
 70
     1
102
RTVSPost2010Prop56
140
1.0
102
RTVSPost2010PropOp56
 70
     1
102
RTVSPost2010Prop57
140
1.0
102
RTVSPost2010PropOp57
 70
     1
  0
XRECORD
  5
131
102
{ACAD_REACTORS
330
130
102
}
330
130
100
AcDbXrecord
280
     1
102
RTVSPost2010Prop28
280
     0
102
RTVSPost2010PropOp28
 70
     1
102
RTVSPost2010Prop29
280
     1
102
RTVSPost2010PropOp29
 70
     1
102
RTVSPost2010Prop30
280
     1
102
RTVSPost2010PropOp30
 70
     1
102
RTVSPost2010Prop31
280
     0
102
RTVSPost2010PropOp31
 70
     1
102
RTVSPost2010Prop32
280
     0
102
RTVSPost2010PropOp32
 70
     1
102
RTVSPost2010Prop33
280
     0
102
RTVSPost2010PropOp33
 70
     1
102
RTVSPost2010Prop34
280
     0
102
RTVSPost2010PropOp34
 70
     1
102
RTVSPost2010Prop35
280
     0
102
RTVSPost2010PropOp35
 70
     1
102
RTVSPost2010Prop36
280
     0
102
RTVSPost2010PropOp36
 70
     1
102
RTVSPost2010Prop37
 90
       50
102
RTVSPost2010PropOp37
 70
     1
102
RTVSPost2010Prop38
140
0.0
102
RTVSPost2010PropOp38
 70
     1
102
RTVSPost2010Prop39
140
1.0
102
RTVSPost2010PropOp39
 70
     1
102
RTVSPost2010Prop40
 90
        0
102
RTVSPost2010PropOp40
 70
     1
102
RTVSPost2010Prop41ColorIndex
 90
       18
102
RTVSPost2010Prop41ColorRGB
 90
        0
102
RTVSPost2010PropOp41
 70
     1
102
RTVSPost2010Prop42
 90
       50
102
RTVSPost2010PropOp42
 70
     1
102
RTVSPost2010Prop43
 90
        3
102
RTVSPost2010PropOp43
 70
     1
102
RTVSPost2010Prop44ColorIndex
 90
        5
102
RTVSPost2010Prop44ColorRGB
 90
      255
102
RTVSPost2010PropOp44
 70
     1
102
RTVSPost2010Prop45
280
     0
102
RTVSPost2010PropOp45
 70
     1
102
RTVSPost2010Prop46
 90
       50
102
RTVSPost2010PropOp46
 70
     1
102
RTVSPost2010Prop47
 90
       50
102
RTVSPost2010PropOp47
 70
     1
102
RTVSPost2010Prop48
 90
       50
102
RTVSPost2010PropOp48
 70
     1
102
RTVSPost2010Prop49
280
     0
102
RTVSPost2010PropOp49
 70
     1
102
RTVSPost2010Prop50
 90
       50
102
RTVSPost2010PropOp50
 70
     1
102
RTVSPost2010Prop51ColorIndex
 90
      256
102
RTVSPost2010Prop51ColorRGB
 90
-16777216
102
RTVSPost2010PropOp51
 70
     0
102
RTVSPost2010Prop52
140
1.0
102
RTVSPost2010PropOp52
 70
     0
102
RTVSPost2010Prop53
 90
        2
102
RTVSPost2010PropOp53
 70
     1
102
RTVSPost2010Prop54
  1
strokes_ogs.tif
102
RTVSPost2010PropOp54
 70
     1
102
RTVSPost2010Prop55
280
     0
102
RTVSPost2010PropOp55
 70
     1
102
RTVSPost2010Prop56
140
1.0
102
RTVSPost2010PropOp56
 70
     1
102
RTVSPost2010Prop57
140
1.0
102
RTVSPost2010PropOp57
 70
     1
  0
XRECORD
  5
12B
102
{ACAD_REACTORS
330
12A
102
}
330
12A
100
AcDbXrecord
280
     1
102
RTVSPost2010Prop28
280
     0
102
RTVSPost2010PropOp28
 70
     1
102
RTVSPost2010Prop29
280
     1
102
RTVSPost2010PropOp29
 70
     1
102
RTVSPost2010Prop30
280
     1
102
RTVSPost2010PropOp30
 70
     1
102
RTVSPost2010Prop31
280
     0
102
RTVSPost2010PropOp31
 70
     1
102
RTVSPost2010Prop32
280
     0
102
RTVSPost2010PropOp32
 70
     1
102
RTVSPost2010Prop33
280
     0
102
RTVSPost2010PropOp33
 70
     1
102
RTVSPost2010Prop34
280
     0
102
RTVSPost2010PropOp34
 70
     1
102
RTVSPost2010Prop35
280
     0
102
RTVSPost2010PropOp35
 70
     1
102
RTVSPost2010Prop36
280
     0
102
RTVSPost2010PropOp36
 70
     1
102
RTVSPost2010Prop37
 90
       50
102
RTVSPost2010PropOp37
 70
     1
102
RTVSPost2010Prop38
140
0.0
102
RTVSPost2010PropOp38
 70
     1
102
RTVSPost2010Prop39
140
1.0
102
RTVSPost2010PropOp39
 70
     1
102
RTVSPost2010Prop40
 90
        0
102
RTVSPost2010PropOp40
 70
     1
102
RTVSPost2010Prop41ColorIndex
 90
       18
102
RTVSPost2010Prop41ColorRGB
 90
        0
102
RTVSPost2010PropOp41
 70
     1
102
RTVSPost2010Prop42
 90
       50
102
RTVSPost2010PropOp42
 70
     1
102
RTVSPost2010Prop43
 90
        3
102
RTVSPost2010PropOp43
 70
     1
102
RTVSPost2010Prop44ColorIndex
 90
        5
102
RTVSPost2010Prop44ColorRGB
 90
      255
102
RTVSPost2010PropOp44
 70
     1
102
RTVSPost2010Prop45
280
     0
102
RTVSPost2010PropOp45
 70
     1
102
RTVSPost2010Prop46
 90
       50
102
RTVSPost2010PropOp46
 70
     1
102
RTVSPost2010Prop47
 90
       50
102
RTVSPost2010PropOp47
 70
     1
102
RTVSPost2010Prop48
 90
       50
102
RTVSPost2010PropOp48
 70
     1
102
RTVSPost2010Prop49
280
     0
102
RTVSPost2010PropOp49
 70
     1
102
RTVSPost2010Prop50
 90
       50
102
RTVSPost2010PropOp50
 70
     1
102
RTVSPost2010Prop51ColorIndex
 90
      256
102
RTVSPost2010Prop51ColorRGB
 90
-16777216
102
RTVSPost2010PropOp51
 70
     0
102
RTVSPost2010Prop52
140
1.0
102
RTVSPost2010PropOp52
 70
     0
102
RTVSPost2010Prop53
 90
        2
102
RTVSPost2010PropOp53
 70
     1
102
RTVSPost2010Prop54
  1
strokes_ogs.tif
102
RTVSPost2010PropOp54
 70
     1
102
RTVSPost2010Prop55
280
     0
102
RTVSPost2010PropOp55
 70
     1
102
RTVSPost2010Prop56
140
1.0
102
RTVSPost2010PropOp56
 70
     1
102
RTVSPost2010Prop57
140
1.0
102
RTVSPost2010PropOp57
 70
     1
  0
XRECORD
  5
12D
102
{ACAD_REACTORS
330
12C
102
}
330
12C
100
AcDbXrecord
280
     1
102
RTVSPost2010Prop28
280
     0
102
RTVSPost2010PropOp28
 70
     1
102
RTVSPost2010Prop29
280
     1
102
RTVSPost2010PropOp29
 70
     1
102
RTVSPost2010Prop30
280
     1
102
RTVSPost2010PropOp30
 70
     1
102
RTVSPost2010Prop31
280
     0
102
RTVSPost2010PropOp31
 70
     1
102
RTVSPost2010Prop32
280
     0
102
RTVSPost2010PropOp32
 70
     1
102
RTVSPost2010Prop33
280
     0
102
RTVSPost2010PropOp33
 70
     1
102
RTVSPost2010Prop34
280
     0
102
RTVSPost2010PropOp34
 70
     1
102
RTVSPost2010Prop35
280
     0
102
RTVSPost2010PropOp35
 70
     1
102
RTVSPost2010Prop36
280
     0
102
RTVSPost2010PropOp36
 70
     1
102
RTVSPost2010Prop37
 90
       50
102
RTVSPost2010PropOp37
 70
     1
102
RTVSPost2010Prop38
140
0.0
102
RTVSPost2010PropOp38
 70
     1
102
RTVSPost2010Prop39
140
1.0
102
RTVSPost2010PropOp39
 70
     1
102
RTVSPost2010Prop40
 90
        0
102
RTVSPost2010PropOp40
 70
     1
102
RTVSPost2010Prop41ColorIndex
 90
       18
102
RTVSPost2010Prop41ColorRGB
 90
        0
102
RTVSPost2010PropOp41
 70
     1
102
RTVSPost2010Prop42
 90
       50
102
RTVSPost2010PropOp42
 70
     1
102
RTVSPost2010Prop43
 90
        3
102
RTVSPost2010PropOp43
 70
     1
102
RTVSPost2010Prop44ColorIndex
 90
        5
102
RTVSPost2010Prop44ColorRGB
 90
      255
102
RTVSPost2010PropOp44
 70
     1
102
RTVSPost2010Prop45
280
     0
102
RTVSPost2010PropOp45
 70
     1
102
RTVSPost2010Prop46
 90
       50
102
RTVSPost2010PropOp46
 70
     1
102
RTVSPost2010Prop47
 90
       50
102
RTVSPost2010PropOp47
 70
     1
102
RTVSPost2010Prop48
 90
       50
102
RTVSPost2010PropOp48
 70
     1
102
RTVSPost2010Prop49
280
     0
102
RTVSPost2010PropOp49
 70
     1
102
RTVSPost2010Prop50
 90
       50
102
RTVSPost2010PropOp50
 70
     1
102
RTVSPost2010Prop51ColorIndex
 90
      256
102
RTVSPost2010Prop51ColorRGB
 90
-16777216
102
RTVSPost2010PropOp51
 70
     0
102
RTVSPost2010Prop52
140
1.0
102
RTVSPost2010PropOp52
 70
     0
102
RTVSPost2010Prop53
 90
        2
102
RTVSPost2010PropOp53
 70
     1
102
RTVSPost2010Prop54
  1
strokes_ogs.tif
102
RTVSPost2010PropOp54
 70
     1
102
RTVSPost2010Prop55
280
     0
102
RTVSPost2010PropOp55
 70
     1
102
RTVSPost2010Prop56
140
1.0
102
RTVSPost2010PropOp56
 70
     1
102
RTVSPost2010Prop57
140
1.0
102
RTVSPost2010PropOp57
 70
     1
  0
XRECORD
  5
123
102
{ACAD_REACTORS
330
122
102
}
330
122
100
AcDbXrecord
280
     1
102
RTVSPost2010Prop28
280
     0
102
RTVSPost2010PropOp28
 70
     1
102
RTVSPost2010Prop29
280
     1
102
RTVSPost2010PropOp29
 70
     1
102
RTVSPost2010Prop30
280
     1
102
RTVSPost2010PropOp30
 70
     1
102
RTVSPost2010Prop31
280
     0
102
RTVSPost2010PropOp31
 70
     1
102
RTVSPost2010Prop32
280
     0
102
RTVSPost2010PropOp32
 70
     1
102
RTVSPost2010Prop33
280
     0
102
RTVSPost2010PropOp33
 70
     1
102
RTVSPost2010Prop34
280
     0
102
RTVSPost2010PropOp34
 70
     1
102
RTVSPost2010Prop35
280
     0
102
RTVSPost2010PropOp35
 70
     1
102
RTVSPost2010Prop36
280
     0
102
RTVSPost2010PropOp36
 70
     1
102
RTVSPost2010Prop37
 90
       50
102
RTVSPost2010PropOp37
 70
     1
102
RTVSPost2010Prop38
140
0.0
102
RTVSPost2010PropOp38
 70
     1
102
RTVSPost2010Prop39
140
1.0
102
RTVSPost2010PropOp39
 70
     1
102
RTVSPost2010Prop40
 90
        0
102
RTVSPost2010PropOp40
 70
     1
102
RTVSPost2010Prop41ColorIndex
 90
       18
102
RTVSPost2010Prop41ColorRGB
 90
        0
102
RTVSPost2010PropOp41
 70
     1
102
RTVSPost2010Prop42
 90
       50
102
RTVSPost2010PropOp42
 70
     1
102
RTVSPost2010Prop43
 90
        3
102
RTVSPost2010PropOp43
 70
     1
102
RTVSPost2010Prop44ColorIndex
 90
        5
102
RTVSPost2010Prop44ColorRGB
 90
      255
102
RTVSPost2010PropOp44
 70
     1
102
RTVSPost2010Prop45
280
     0
102
RTVSPost2010PropOp45
 70
     1
102
RTVSPost2010Prop46
 90
       50
102
RTVSPost2010PropOp46
 70
     1
102
RTVSPost2010Prop47
 90
       50
102
RTVSPost2010PropOp47
 70
     1
102
RTVSPost2010Prop48
 90
       50
102
RTVSPost2010PropOp48
 70
     1
102
RTVSPost2010Prop49
280
     0
102
RTVSPost2010PropOp49
 70
     1
102
RTVSPost2010Prop50
 90
       50
102
RTVSPost2010PropOp50
 70
     1
102
RTVSPost2010Prop51ColorIndex
 90
      256
102
RTVSPost2010Prop51ColorRGB
 90
-16777216
102
RTVSPost2010PropOp51
 70
     0
102
RTVSPost2010Prop52
140
1.0
102
RTVSPost2010PropOp52
 70
     0
102
RTVSPost2010Prop53
 90
        2
102
RTVSPost2010PropOp53
 70
     1
102
RTVSPost2010Prop54
  1
strokes_ogs.tif
102
RTVSPost2010PropOp54
 70
     1
102
RTVSPost2010Prop55
280
     0
102
RTVSPost2010PropOp55
 70
     1
102
RTVSPost2010Prop56
140
1.0
102
RTVSPost2010PropOp56
 70
     1
102
RTVSPost2010Prop57
140
1.0
102
RTVSPost2010PropOp57
 70
     1
  0
XRECORD
  5
117
102
{ACAD_REACTORS
330
116
102
}
330
116
100
AcDbXrecord
280
     1
102
RTVSPost2010Prop28
280
     0
102
RTVSPost2010PropOp28
 70
     1
102
RTVSPost2010Prop29
280
     1
102
RTVSPost2010PropOp29
 70
     1
102
RTVSPost2010Prop30
280
     1
102
RTVSPost2010PropOp30
 70
     1
102
RTVSPost2010Prop31
280
     0
102
RTVSPost2010PropOp31
 70
     1
102
RTVSPost2010Prop32
280
     0
102
RTVSPost2010PropOp32
 70
     1
102
RTVSPost2010Prop33
280
     0
102
RTVSPost2010PropOp33
 70
     1
102
RTVSPost2010Prop34
280
     0
102
RTVSPost2010PropOp34
 70
     1
102
RTVSPost2010Prop35
280
     0
102
RTVSPost2010PropOp35
 70
     1
102
RTVSPost2010Prop36
280
     0
102
RTVSPost2010PropOp36
 70
     1
102
RTVSPost2010Prop37
 90
       50
102
RTVSPost2010PropOp37
 70
     1
102
RTVSPost2010Prop38
140
0.0
102
RTVSPost2010PropOp38
 70
     1
102
RTVSPost2010Prop39
140
1.0
102
RTVSPost2010PropOp39
 70
     1
102
RTVSPost2010Prop40
 90
        0
102
RTVSPost2010PropOp40
 70
     1
102
RTVSPost2010Prop41ColorIndex
 90
       18
102
RTVSPost2010Prop41ColorRGB
 90
        0
102
RTVSPost2010PropOp41
 70
     1
102
RTVSPost2010Prop42
 90
       50
102
RTVSPost2010PropOp42
 70
     1
102
RTVSPost2010Prop43
 90
        3
102
RTVSPost2010PropOp43
 70
     1
102
RTVSPost2010Prop44ColorIndex
 90
        5
102
RTVSPost2010Prop44ColorRGB
 90
      255
102
RTVSPost2010PropOp44
 70
     1
102
RTVSPost2010Prop45
280
     0
102
RTVSPost2010PropOp45
 70
     1
102
RTVSPost2010Prop46
 90
       50
102
RTVSPost2010PropOp46
 70
     1
102
RTVSPost2010Prop47
 90
       50
102
RTVSPost2010PropOp47
 70
     1
102
RTVSPost2010Prop48
 90
       50
102
RTVSPost2010PropOp48
 70
     1
102
RTVSPost2010Prop49
280
     0
102
RTVSPost2010PropOp49
 70
     1
102
RTVSPost2010Prop50
 90
       50
102
RTVSPost2010PropOp50
 70
     1
102
RTVSPost2010Prop51ColorIndex
 90
      256
102
RTVSPost2010Prop51ColorRGB
 90
-16777216
102
RTVSPost2010PropOp51
 70
     0
102
RTVSPost2010Prop52
140
1.0
102
RTVSPost2010PropOp52
 70
     0
102
RTVSPost2010Prop53
 90
        2
102
RTVSPost2010PropOp53
 70
     1
102
RTVSPost2010Prop54
  1
strokes_ogs.tif
102
RTVSPost2010PropOp54
 70
     1
102
RTVSPost2010Prop55
280
     0
102
RTVSPost2010PropOp55
 70
     1
102
RTVSPost2010Prop56
140
1.0
102
RTVSPost2010PropOp56
 70
     1
102
RTVSPost2010Prop57
140
1.0
102
RTVSPost2010PropOp57
 70
     1
  0
XRECORD
  5
12F
102
{ACAD_REACTORS
330
12E
102
}
330
12E
100
AcDbXrecord
280
     1
102
RTVSPost2010Prop28
280
     0
102
RTVSPost2010PropOp28
 70
     1
102
RTVSPost2010Prop29
280
     1
102
RTVSPost2010PropOp29
 70
     1
102
RTVSPost2010Prop30
280
     1
102
RTVSPost2010PropOp30
 70
     1
102
RTVSPost2010Prop31
280
     0
102
RTVSPost2010PropOp31
 70
     1
102
RTVSPost2010Prop32
280
     0
102
RTVSPost2010PropOp32
 70
     1
102
RTVSPost2010Prop33
280
     0
102
RTVSPost2010PropOp33
 70
     1
102
RTVSPost2010Prop34
280
     0
102
RTVSPost2010PropOp34
 70
     1
102
RTVSPost2010Prop35
280
     0
102
RTVSPost2010PropOp35
 70
     1
102
RTVSPost2010Prop36
280
     0
102
RTVSPost2010PropOp36
 70
     1
102
RTVSPost2010Prop37
 90
       50
102
RTVSPost2010PropOp37
 70
     1
102
RTVSPost2010Prop38
140
0.0
102
RTVSPost2010PropOp38
 70
     1
102
RTVSPost2010Prop39
140
1.0
102
RTVSPost2010PropOp39
 70
     1
102
RTVSPost2010Prop40
 90
        0
102
RTVSPost2010PropOp40
 70
     1
102
RTVSPost2010Prop41ColorIndex
 90
       18
102
RTVSPost2010Prop41ColorRGB
 90
        0
102
RTVSPost2010PropOp41
 70
     1
102
RTVSPost2010Prop42
 90
       50
102
RTVSPost2010PropOp42
 70
     1
102
RTVSPost2010Prop43
 90
        3
102
RTVSPost2010PropOp43
 70
     1
102
RTVSPost2010Prop44ColorIndex
 90
        5
102
RTVSPost2010Prop44ColorRGB
 90
      255
102
RTVSPost2010PropOp44
 70
     1
102
RTVSPost2010Prop45
280
     0
102
RTVSPost2010PropOp45
 70
     1
102
RTVSPost2010Prop46
 90
       50
102
RTVSPost2010PropOp46
 70
     1
102
RTVSPost2010Prop47
 90
       50
102
RTVSPost2010PropOp47
 70
     1
102
RTVSPost2010Prop48
 90
       50
102
RTVSPost2010PropOp48
 70
     1
102
RTVSPost2010Prop49
280
     0
102
RTVSPost2010PropOp49
 70
     1
102
RTVSPost2010Prop50
 90
       50
102
RTVSPost2010PropOp50
 70
     1
102
RTVSPost2010Prop51ColorIndex
 90
      256
102
RTVSPost2010Prop51ColorRGB
 90
-16777216
102
RTVSPost2010PropOp51
 70
     0
102
RTVSPost2010Prop52
140
1.0
102
RTVSPost2010PropOp52
 70
     0
102
RTVSPost2010Prop53
 90
        2
102
RTVSPost2010PropOp53
 70
     1
102
RTVSPost2010Prop54
  1
strokes_ogs.tif
102
RTVSPost2010PropOp54
 70
     1
102
RTVSPost2010Prop55
280
     0
102
RTVSPost2010PropOp55
 70
     1
102
RTVSPost2010Prop56
140
1.0
102
RTVSPost2010PropOp56
 70
     1
102
RTVSPost2010Prop57
140
1.0
102
RTVSPost2010PropOp57
 70
     1
  0
ENDSEC
  0
EOF
