  0
SECTION
  2
HEADER
  9
$ACADVER
  1
AC1024
  9
$ACADMAINTVER
 70
   226
  9
$DWGCODEPAGE
  3
ANSI_1252
  9
$INSBASE
 10
0.0
 20
0.0
 30
0.0
  9
$EXTMIN
 10
1.000000000000000E+20
 20
1.000000000000000E+20
 30
1.000000000000000E+20
  9
$EXTMAX
 10
-1.000000000000000E+20
 20
-1.000000000000000E+20
 30
-1.000000000000000E+20
  9
$LIMMIN
 10
0.0
 20
0.0
  9
$LIMMAX
 10
12.0
 20
9.0
  9
$ORTHOMODE
 70
     0
  9
$REGENMODE
 70
     1
  9
$FILLMODE
 70
     1
  9
$QTEXTMODE
 70
     0
  9
$MIRRTEXT
 70
     1
  9
$LTSCALE
 40
1.0
  9
$ATTMODE
 70
     1
  9
$TEXTSIZE
 40
0.2
  9
$TRACEWID
 40
0.05
  9
$TEXTSTYLE
  7
Standard
  9
$CLAYER
  8
Material Color - 37
  9
$CELTYPE
  6
ByLayer
  9
$CECOLOR
 62
   256
  9
$CELTSCALE
 40
1.0
  9
$DISPSILH
 70
     0
  9
$DIMSCALE
 40
1.0
  9
$DIMASZ
 40
0.18
  9
$DIMEXO
 40
0.0625
  9
$DIMDLI
 40
0.38
  9
$DIMRND
 40
0.0
  9
$DIMDLE
 40
0.0
  9
$DIMEXE
 40
0.18
  9
$DIMTP
 40
0.0
  9
$DIMTM
 40
0.0
  9
$DIMTXT
 40
0.18
  9
$DIMCEN
 40
0.09
  9
$DIMTSZ
 40
0.0
  9
$DIMTOL
 70
     0
  9
$DIMLIM
 70
     0
  9
$DIMTIH
 70
     1
  9
$DIMTOH
 70
     1
  9
$DIMSE1
 70
     0
  9
$DIMSE2
 70
     0
  9
$DIMTAD
 70
     0
  9
$DIMZIN
 70
     0
  9
$DIMBLK
  1

  9
$DIMASO
 70
     1
  9
$DIMSHO
 70
     1
  9
$DIMPOST
  1

  9
$DIMAPOST
  1

  9
$DIMALT
 70
     0
  9
$DIMALTD
 70
     2
  9
$DIMALTF
 40
25.4
  9
$DIMLFAC
 40
1.0
  9
$DIMTOFL
 70
     0
  9
$DIMTVP
 40
0.0
  9
$DIMTIX
 70
     0
  9
$DIMSOXD
 70
     0
  9
$DIMSAH
 70
     0
  9
$DIMBLK1
  1

  9
$DIMBLK2
  1

  9
$DIMSTYLE
  2
Standard
  9
$DIMCLRD
 70
     0
  9
$DIMCLRE
 70
     0
  9
$DIMCLRT
 70
     0
  9
$DIMTFAC
 40
1.0
  9
$DIMGAP
 40
0.09
  9
$DIMJUST
 70
     0
  9
$DIMSD1
 70
     0
  9
$DIMSD2
 70
     0
  9
$DIMTOLJ
 70
     1
  9
$DIMTZIN
 70
     0
  9
$DIMALTZ
 70
     0
  9
$DIMALTTZ
 70
     0
  9
$DIMUPT
 70
     0
  9
$DIMDEC
 70
     4
  9
$DIMTDEC
 70
     4
  9
$DIMALTU
 70
     2
  9
$DIMALTTD
 70
     2
  9
$DIMTXSTY
  7
Standard
  9
$DIMAUNIT
 70
     0
  9
$DIMADEC
 70
     0
  9
$DIMALTRND
 40
0.0
  9
$DIMAZIN
 70
     0
  9
$DIMDSEP
 70
    46
  9
$DIMATFIT
 70
     3
  9
$DIMFRAC
 70
     0
  9
$DIMLDRBLK
  1

  9
$DIMLUNIT
 70
     2
  9
$DIMLWD
 70
    -2
  9
$DIMLWE
 70
    -2
  9
$DIMTMOVE
 70
     0
  9
$DIMFXL
 40
1.0
  9
$DIMFXLON
 70
     0
  9
$DIMJOGANG
 40
0.7853981633974483
  9
$DIMTFILL
 70
     0
  9
$DIMTFILLCLR
 70
     0
  9
$DIMARCSYM
 70
     0
  9
$DIMLTYPE
  6

  9
$DIMLTEX1
  6

  9
$DIMLTEX2
  6

  9
$DIMTXTDIRECTION
 70
     0
  9
$LUNITS
 70
     2
  9
$LUPREC
 70
     4
  9
$SKETCHINC
 40
0.1
  9
$FILLETRAD
 40
0.5
  9
$AUNITS
 70
     0
  9
$AUPREC
 70
     0
  9
$MENU
  1
.
  9
$ELEVATION
 40
0.0
  9
$PELEVATION
 40
0.0
  9
$THICKNESS
 40
0.0
  9
$LIMCHECK
 70
     0
  9
$CHAMFERA
 40
0.5
  9
$CHAMFERB
 40
0.5
  9
$CHAMFERC
 40
1.0
  9
$CHAMFERD
 40
0.0
  9
$SKPOLY
 70
     0
  9
$TDCREATE
 40
2451380.888761574
  9
$TDUCREATE
 40
2451380.805432396
  9
$TDUPDATE
 40
2451380.924513889
  9
$TDUUPDATE
 40
2451380.841180556
  9
$TDINDWG
 40
0.0075602199
  9
$TDUSRTIMER
 40
0.0075511806
  9
$USRTIMER
 70
     1
  9
$ANGBASE
 50
0.0
  9
$ANGDIR
 70
     0
  9
$PDMODE
 70
     0
  9
$PDSIZE
 40
0.0
  9
$PLINEWID
 40
0.0
  9
$SPLFRAME
 70
     0
  9
$SPLINETYPE
 70
     6
  9
$SPLINESEGS
 70
     8
  9
$HANDSEED
  5
140
  9
$SURFTAB1
 70
     6
  9
$SURFTAB2
 70
     6
  9
$SURFTYPE
 70
     6
  9
$SURFU
 70
     6
  9
$SURFV
 70
     6
  9
$UCSBASE
  2

  9
$UCSNAME
  2

  9
$UCSORG
 10
0.0
 20
0.0
 30
0.0
  9
$UCSXDIR
 10
1.0
 20
0.0
 30
0.0
  9
$UCSYDIR
 10
0.0
 20
1.0
 30
0.0
  9
$UCSORTHOREF
  2

  9
$UCSORTHOVIEW
 70
     0
  9
$UCSORGTOP
 10
0.0
 20
0.0
 30
0.0
  9
$UCSORGBOTTOM
 10
0.0
 20
0.0
 30
0.0
  9
$UCSORGLEFT
 10
0.0
 20
0.0
 30
0.0
  9
$UCSORGRIGHT
 10
0.0
 20
0.0
 30
0.0
  9
$UCSORGFRONT
 10
0.0
 20
0.0
 30
0.0
  9
$UCSORGBACK
 10
0.0
 20
0.0
 30
0.0
  9
$PUCSBASE
  2

  9
$PUCSNAME
  2

  9
$PUCSORG
 10
0.0
 20
0.0
 30
0.0
  9
$PUCSXDIR
 10
1.0
 20
0.0
 30
0.0
  9
$PUCSYDIR
 10
0.0
 20
1.0
 30
0.0
  9
$PUCSORTHOREF
  2

  9
$PUCSORTHOVIEW
 70
     0
  9
$PUCSORGTOP
 10
0.0
 20
0.0
 30
0.0
  9
$PUCSORGBOTTOM
 10
0.0
 20
0.0
 30
0.0
  9
$PUCSORGLEFT
 10
0.0
 20
0.0
 30
0.0
  9
$PUCSORGRIGHT
 10
0.0
 20
0.0
 30
0.0
  9
$PUCSORGFRONT
 10
0.0
 20
0.0
 30
0.0
  9
$PUCSORGBACK
 10
0.0
 20
0.0
 30
0.0
  9
$USERI1
 70
     0
  9
$USERI2
 70
     0
  9
$USERI3
 70
     0
  9
$USERI4
 70
     0
  9
$USERI5
 70
     0
  9
$USERR1
 40
0.0
  9
$USERR2
 40
0.0
  9
$USERR3
 40
0.0
  9
$USERR4
 40
0.0
  9
$USERR5
 40
0.0
  9
$WORLDVIEW
 70
     1
  9
$SHADEDGE
 70
     3
  9
$SHADEDIF
 70
    70
  9
$TILEMODE
 70
     1
  9
$MAXACTVP
 70
    64
  9
$PINSBASE
 10
0.0
 20
0.0
 30
0.0
  9
$PLIMCHECK
 70
     0
  9
$PEXTMIN
 10
1.000000000000000E+20
 20
1.000000000000000E+20
 30
1.000000000000000E+20
  9
$PEXTMAX
 10
-1.000000000000000E+20
 20
-1.000000000000000E+20
 30
-1.000000000000000E+20
  9
$PLIMMIN
 10
0.0
 20
0.0
  9
$PLIMMAX
 10
12.0
 20
9.0
  9
$UNITMODE
 70
     0
  9
$VISRETAIN
 70
     1
  9
$PLINEGEN
 70
     0
  9
$PSLTSCALE
 70
     1
  9
$TREEDEPTH
 70
  3020
  9
$CMLSTYLE
  2
Standard
  9
$CMLJUST
 70
     0
  9
$CMLSCALE
 40
1.0
  9
$PROXYGRAPHICS
 70
     1
  9
$MEASUREMENT
 70
     0
  9
$CELWEIGHT
370
    -1
  9
$ENDCAPS
280
     0
  9
$JOINSTYLE
280
     0
  9
$LWDISPLAY
290
     0
  9
$INSUNITS
 70
     1
  9
$HYPERLINKBASE
  1

  9
$STYLESHEET
  1

  9
$XEDIT
290
     1
  9
$CEPSNTYPE
380
     0
  9
$PSTYLEMODE
290
     1
  9
$FINGERPRINTGUID
  2
{12F50282-3ED8-11D3-A8B7-0060B0F84BC6}
  9
$VERSIONGUID
  2
{12F50293-3ED8-11D3-A8B7-0060B0F84BC6}
  9
$EXTNAMES
290
     1
  9
$PSVPSCALE
 40
0.0
  9
$OLESTARTUP
290
     0
  9
$SORTENTS
280
   127
  9
$INDEXCTL
280
     0
  9
$HIDETEXT
280
     0
  9
$XCLIPFRAME
280
     2
  9
$HALOGAP
280
     0
  9
$OBSCOLOR
 70
   257
  9
$OBSLTYPE
280
     0
  9
$INTERSECTIONDISPLAY
280
     0
  9
$INTERSECTIONCOLOR
 70
   257
  9
$DIMASSOC
280
     1
  9
$PROJECTNAME
  1

  9
$CAMERADISPLAY
290
     0
  9
$LENSLENGTH
 40
50.0
  9
$CAMERAHEIGHT
 40
0.0
  9
$STEPSPERSEC
 40
2.0
  9
$STEPSIZE
 40
6.0
  9
$3DDWFPREC
 40
2.0
  9
$PSOLWIDTH
 40
0.25
  9
$PSOLHEIGHT
 40
4.0
  9
$LOFTANG1
 40
1.570796326794896
  9
$LOFTANG2
 40
1.570796326794896
  9
$LOFTMAG1
 40
0.0
  9
$LOFTMAG2
 40
0.0
  9
$LOFTPARAM
 70
     7
  9
$LOFTNORMALS
280
     1
  9
$LATITUDE
 40
37.795
  9
$LONGITUDE
 40
-122.394
  9
$NORTHDIRECTION
 40
0.0
  9
$TIMEZONE
 70
 -8000
  9
$LIGHTGLYPHDISPLAY
280
     1
  9
$TILEMODELIGHTSYNCH
280
     1
  9
$CMATERIAL
347
AB
  9
$SOLIDHIST
280
     0
  9
$SHOWHIST
280
     1
  9
$DWFFRAME
280
     2
  9
$DGNFRAME
280
     0
  9
$REALWORLDSCALE
290
     1
  9
$INTERFERECOLOR
 62
     1
  9
$INTERFEREOBJVS
345
CD
  9
$INTERFEREVPVS
346
CA
  9
$CSHADOW
280
     0
  9
$SHADOWPLANELOCATION
 40
0.0
  0
ENDSEC
  0
SECTION
  2
CLASSES
  0
CLASS
  1
ACDBDICTIONARYWDFLT
  2
AcDbDictionaryWithDefault
  3
ObjectDBX Classes
 90
        0
 91
        1
280
     0
281
     0
  0
CLASS
  1
ACDBPLACEHOLDER
  2
AcDbPlaceHolder
  3
ObjectDBX Classes
 90
        0
 91
        2
280
     0
281
     0
  0
CLASS
  1
LAYOUT
  2
AcDbLayout
  3
ObjectDBX Classes
 90
        0
 91
        3
280
     0
281
     0
  0
CLASS
  1
MATERIAL
  2
AcDbMaterial
  3
ObjectDBX Classes
 90
     1153
 91
        3
280
     0
281
     0
  0
CLASS
  1
VISUALSTYLE
  2
AcDbVisualStyle
  3
ObjectDBX Classes
 90
     4095
 91
       24
280
     0
281
     0
  0
CLASS
  1
TABLESTYLE
  2
AcDbTableStyle
  3
ObjectDBX Classes
 90
     4095
 91
        1
280
     0
281
     0
  0
CLASS
  1
SCALE
  2
AcDbScale
  3
ObjectDBX Classes
 90
     1153
 91
       17
280
     0
281
     0
  0
CLASS
  1
MLEADERSTYLE
  2
AcDbMLeaderStyle
  3
ACDB_MLEADERSTYLE_CLASS
 90
     4095
 91
        1
280
     0
281
     0
  0
CLASS
  1
ACDBSECTIONVIEWSTYLE
  2
AcDbSectionViewStyle
  3
ObjectDBX Classes
 90
     1025
 91
        1
280
     0
281
     0
  0
CLASS
  1
ACDBDETAILVIEWSTYLE
  2
AcDbDetailViewStyle
  3
ObjectDBX Classes
 90
     1025
 91
        1
280
     0
281
     0
  0
CLASS
  1
MESH
  2
AcDbSubDMesh
  3
ObjectDBX Classes
 90
        0
 91
        2
280
     0
281
     1
  0
CLASS
  1
DICTIONARYVAR
  2
AcDbDictionaryVar
  3
ObjectDBX Classes
 90
        0
 91
        9
280
     0
281
     0
  0
CLASS
  1
CELLSTYLEMAP
  2
AcDbCellStyleMap
  3
ObjectDBX Classes
 90
     1152
 91
        1
280
     0
281
     0
  0
ENDSEC
  0
SECTION
  2
TABLES
  0
TABLE
  2
VPORT
  5
8
330
0
100
AcDbSymbolTable
 70
     1
  0
VPORT
  5
A8
330
8
100
AcDbSymbolTableRecord
100
AcDbViewportTableRecord
  2
*Active
 70
     0
 10
0.0
 20
0.0
 11
1.0
 21
1.0
 12
0.0
 22
123.42724609375
 13
0.0
 23
0.0
 14
0.5
 24
0.5
 15
0.5
 25
0.5
 16
-1.0
 26
-1.0
 36
1.0
 17
0.0
 27
0.0
 37
0.0
 40
382.333770189939
 41
0.3624164950460751
 42
50.0
 43
0.0
 44
0.0
 50
0.0
 51
0.0
 71
     0
 72
   100
 73
     1
 74
     3
 75
     0
 76
     0
 77
     0
 78
     0
281
     0
 65
     1
110
0.0
120
0.0
130
0.0
111
1.0
121
0.0
131
0.0
112
0.0
122
1.0
132
0.0
 79
     0
146
0.0
348
C9
 60
     3
 61
     5
292
     1
282
     1
141
0.0
142
0.0
 63
   250
421
  3355443
  0
ENDTAB
  0
TABLE
  2
LTYPE
  5
5
330
0
100
AcDbSymbolTable
 70
     1
  0
LTYPE
  5
14
330
5
100
AcDbSymbolTableRecord
100
AcDbLinetypeTableRecord
  2
ByBlock
 70
     0
  3

 72
    65
 73
     0
 40
0.0
  0
LTYPE
  5
15
330
5
100
AcDbSymbolTableRecord
100
AcDbLinetypeTableRecord
  2
ByLayer
 70
     0
  3

 72
    65
 73
     0
 40
0.0
  0
LTYPE
  5
16
330
5
100
AcDbSymbolTableRecord
100
AcDbLinetypeTableRecord
  2
Continuous
 70
     0
  3
Solid line
 72
    65
 73
     0
 40
0.0
  0
ENDTAB
  0
TABLE
  2
LAYER
  5
2
330
0
100
AcDbSymbolTable
 70
     4
  0
LAYER
  5
10
330
2
100
AcDbSymbolTableRecord
100
AcDbLayerTableRecord
  2
0
 70
     0
 62
     7
  6
Continuous
370
    -3
390
F
347
BB
  0
LAYER
  5
2B
330
2
100
AcDbSymbolTableRecord
100
AcDbLayerTableRecord
  2
ASHADE
 70
     4
 62
     7
  6
Continuous
370
    -3
390
2D
347
BB
  0
LAYER
  5
F9
330
2
100
AcDbSymbolTableRecord
100
AcDbLayerTableRecord
  2
Material Color - 01
 70
     0
 62
     7
420
 16777215
  6
Continuous
370
    -3
390
F
347
BB
  0
LAYER
  5
FA
330
2
100
AcDbSymbolTableRecord
100
AcDbLayerTableRecord
  2
Material Color - 37
 70
     0
 62
     7
420
 16777215
  6
Continuous
370
    -3
390
F
347
BB
  0
ENDTAB
  0
TABLE
  2
STYLE
  5
3
330
0
100
AcDbSymbolTable
 70
     2
  0
STYLE
  5
11
330
3
100
AcDbSymbolTableRecord
100
AcDbTextStyleTableRecord
  2
Standard
 70
     0
 40
0.0
 41
1.0
 50
0.0
 71
     0
 42
0.2
  3
txt
  4

  0
STYLE
  5
2C
330
3
100
AcDbSymbolTableRecord
100
AcDbTextStyleTableRecord
  2
ASHADE
 70
     0
 40
0.2
 41
1.0
 50
0.0
 71
     0
 42
0.2
  3
simplex
  4

  0
ENDTAB
  0
TABLE
  2
VIEW
  5
6
330
0
100
AcDbSymbolTable
 70
     0
  0
ENDTAB
  0
TABLE
  2
UCS
  5
7
330
0
100
AcDbSymbolTable
 70
     0
  0
ENDTAB
  0
TABLE
  2
APPID
  5
9
330
0
100
AcDbSymbolTable
 70
     6
  0
APPID
  5
12
330
9
100
AcDbSymbolTableRecord
100
AcDbRegAppTableRecord
  2
ACAD
 70
     0
  0
APPID
  5
8F
330
9
100
AcDbSymbolTableRecord
100
AcDbRegAppTableRecord
  2
AVE_RENDER
 70
     0
  0
APPID
  5
90
330
9
100
AcDbSymbolTableRecord
100
AcDbRegAppTableRecord
  2
AVE_ENTITY_MATERIAL
 70
     0
  0
APPID
  5
9C
330
9
100
AcDbSymbolTableRecord
100
AcDbRegAppTableRecord
  2
AVE_FINISH
 70
     0
  0
APPID
  5
9D
330
9
100
AcDbSymbolTableRecord
100
AcDbRegAppTableRecord
  2
AVE_MATERIAL
 70
     0
  0
APPID
  5
9E
330
9
100
AcDbSymbolTableRecord
100
AcDbRegAppTableRecord
  2
AVE_GLOBAL
 70
     0
  0
ENDTAB
  0
TABLE
  2
DIMSTYLE
  5
A
330
0
100
AcDbSymbolTable
 70
     1
100
AcDbDimStyleTable
 71
     0
  0
DIMSTYLE
105
27
330
A
100
AcDbSymbolTableRecord
100
AcDbDimStyleTableRecord
  2
Standard
 70
     0
340
11
  0
ENDTAB
  0
TABLE
  2
BLOCK_RECORD
  5
1
330
0
100
AcDbSymbolTable
 70
     6
  0
BLOCK_RECORD
  5
1F
330
1
100
AcDbSymbolTableRecord
100
AcDbBlockTableRecord
  2
*Model_Space
340
22
 70
     0
280
     1
281
     0
  0
BLOCK_RECORD
  5
1B
330
1
100
AcDbSymbolTableRecord
100
AcDbBlockTableRecord
  2
*Paper_Space
340
1E
 70
     0
280
     1
281
     0
  0
BLOCK_RECORD
  5
23
330
1
100
AcDbSymbolTableRecord
100
AcDbBlockTableRecord
  2
*Paper_Space0
340
26
 70
     0
280
     1
281
     0
  0
BLOCK_RECORD
  5
2E
330
1
100
AcDbSymbolTableRecord
100
AcDbBlockTableRecord
  2
direct
340
0
 70
     0
280
     1
281
     0
  0
BLOCK_RECORD
  5
42
330
1
100
AcDbSymbolTableRecord
100
AcDbBlockTableRecord
  2
overhead
340
0
 70
     0
280
     1
281
     0
  0
BLOCK_RECORD
  5
5F
330
1
100
AcDbSymbolTableRecord
100
AcDbBlockTableRecord
  2
sh_spot
340
0
 70
     0
280
     1
281
     0
  0
BLOCK_RECORD
  5
91
330
1
100
AcDbSymbolTableRecord
100
AcDbBlockTableRecord
  2
AVE_RENDER
340
0
102
{BLKREFS
331
94
331
95
331
96
331
97
331
98
331
99
331
9A
331
9B
102
}
 70
     0
280
     1
281
     0
  0
BLOCK_RECORD
  5
9F
330
1
100
AcDbSymbolTableRecord
100
AcDbBlockTableRecord
  2
AVE_GLOBAL
340
0
102
{BLKREFS
331
A2
102
}
 70
     0
280
     1
281
     0
  0
ENDTAB
  0
ENDSEC
  0
SECTION
  2
BLOCKS
  0
BLOCK
  5
20
330
1F
100
AcDbEntity
  8
0
100
AcDbBlockBegin
  2
*Model_Space
 70
     0
 10
0.0
 20
0.0
 30
0.0
  3
*Model_Space
  1

  0
ENDBLK
  5
21
330
1F
100
AcDbEntity
  8
0
100
AcDbBlockEnd
  0
BLOCK
  5
1C
330
1B
100
AcDbEntity
 67
     1
  8
0
100
AcDbBlockBegin
  2
*Paper_Space
 70
     0
 10
0.0
 20
0.0
 30
0.0
  3
*Paper_Space
  1

  0
ENDBLK
  5
1D
330
1B
100
AcDbEntity
 67
     1
  8
0
100
AcDbBlockEnd
  0
BLOCK
  5
24
330
23
100
AcDbEntity
 67
     1
  8
0
100
AcDbBlockBegin
  2
*Paper_Space0
 70
     0
 10
0.0
 20
0.0
 30
0.0
  3
*Paper_Space0
  1

  0
ENDBLK
  5
25
330
23
100
AcDbEntity
 67
     1
  8
0
100
AcDbBlockEnd
  0
BLOCK
  5
40
330
2E
100
AcDbEntity
  8
0
100
AcDbBlockBegin
  2
direct
 70
     2
 10
0.0
 20
0.0
 30
0.0
  3
direct
  1

  0
ATTDEF
  5
2F
330
2E
100
AcDbEntity
  8
ASHADE
  6
Continuous
 62
     1
100
AcDbText
 10
0.0
 20
-0.1
 30
0.0
 40
0.2
  1

  7
ASHADE
 72
     1
 11
0.0
 21
-0.1
 31
0.0
100
AcDbAttributeDefinition
280
     0
  3
Light Name
  2
SNAME
 70
     0
280
     0
  0
ARC
  5
30
330
2E
100
AcDbEntity
  8
ASHADE
  6
Continuous
 62
     7
100
AcDbCircle
 10
0.0
 20
0.0
 30
0.0
 40
0.3
100
AcDbArc
 50
205.6792886194569
 51
334.3207113805431
  0
ARC
  5
31
330
2E
100
AcDbEntity
  8
ASHADE
  6
Continuous
 62
     7
100
AcDbCircle
 10
0.0
 20
0.0
 30
0.0
 40
0.3
100
AcDbArc
 50
25.67928861945685
 51
154.3207113805431
  0
LINE
  5
32
330
2E
100
AcDbEntity
  8
ASHADE
  6
Continuous
 62
     7
100
AcDbLine
 10
-0.21
 20
0.2142428528562855
 30
0.0
 11
-0.21
 21
0.5
 31
0.0
  0
LINE
  5
33
330
2E
100
AcDbEntity
  8
ASHADE
  6
Continuous
 62
     7
100
AcDbLine
 10
-0.11
 20
0.2791057147390572
 30
0.0
 11
-0.11
 21
0.5
 31
0.0
  0
LINE
  5
34
330
2E
100
AcDbEntity
  8
ASHADE
  6
Continuous
 62
     7
100
AcDbLine
 10
0.21
 20
0.2142428528562855
 30
0.0
 11
0.21
 21
0.5
 31
0.0
  0
ATTDEF
  5
35
330
2E
100
AcDbEntity
  8
ASHADE
  6
Continuous
 62
     7
100
AcDbText
 10
0.0
 20
0.25
 30
0.0
 40
0.01
  1

100
AcDbAttributeDefinition
280
     0
  3
Look-at Y
  2
LAY
 70
     1
280
     0
  0
ATTDEF
  5
36
330
2E
100
AcDbEntity
  8
ASHADE
  6
Continuous
 62
     7
100
AcDbText
 10
0.0
 20
0.22
 30
0.0
 40
0.01
  1
1
100
AcDbAttributeDefinition
280
     0
  3
Light Intensity
  2
INTENSITY
 70
     1
280
     0
  0
ATTDEF
  5
37
330
2E
100
AcDbEntity
  8
ASHADE
  6
Continuous
 62
     7
100
AcDbText
 10
0.0
 20
0.16
 30
0.0
 40
0.01
  1
-1
100
AcDbAttributeDefinition
280
     0
  3
*not used*
  2
BEAMD
 70
     1
280
     0
  0
ATTDEF
  5
38
330
2E
100
AcDbEntity
  8
ASHADE
  6
Continuous
 62
     7
100
AcDbText
 10
0.0
 20
0.175
 30
0.0
 40
0.01
  1
-1
100
AcDbAttributeDefinition
280
     0
  3
*not used*
  2
CONED
 70
     1
280
     0
  0
ATTDEF
  5
39
330
2E
100
AcDbEntity
  8
ASHADE
  6
Continuous
 62
     7
100
AcDbText
 10
0.0
 20
0.19
 30
0.0
 40
0.01
  1
0
100
AcDbAttributeDefinition
280
     0
  3
Depth Map Size
  2
CONEA
 70
     1
280
     0
  0
ATTDEF
  5
3A
330
2E
100
AcDbEntity
  8
ASHADE
  6
Continuous
 62
     7
100
AcDbText
 10
0.0
 20
0.2050000000000001
 30
0.0
 40
0.01
  1
1,1,1
100
AcDbAttributeDefinition
280
     0
  3
Light Color (RGB)
  2
COLOR
 70
     1
280
     0
  0
ATTDEF
  5
3B
330
2E
100
AcDbEntity
  8
ASHADE
  6
Continuous
 62
     7
100
AcDbText
 10
0.0
 20
0.235
 30
0.0
 40
0.01
  1

100
AcDbAttributeDefinition
280
     0
  3
Look-at Z
  2
LAZ
 70
     1
280
     0
  0
LINE
  5
3C
330
2E
100
AcDbEntity
  8
ASHADE
  6
Continuous
 62
     7
100
AcDbLine
 10
0.0
 20
0.3
 30
0.0
 11
0.0
 21
0.5
 31
0.0
  0
LINE
  5
3D
330
2E
100
AcDbEntity
  8
ASHADE
  6
Continuous
 62
     7
100
AcDbLine
 10
0.11
 20
0.2791057147390572
 30
0.0
 11
0.11
 21
0.5
 31
0.0
  0
ATTDEF
  5
3E
330
2E
100
AcDbEntity
  8
ASHADE
  6
Continuous
 62
     7
100
AcDbText
 10
0.0
 20
0.265
 30
0.0
 40
0.01
  1

100
AcDbAttributeDefinition
280
     0
  3
Look-at X
  2
LAX
 70
     1
280
     0
  0
ATTDEF
  5
3F
330
2E
100
AcDbEntity
  8
ASHADE
  6
Continuous
 62
     7
100
AcDbText
 10
0.0
 20
0.28
 30
0.0
 40
0.01
  1

100
AcDbAttributeDefinition
280
     0
  3

  2
GNAME
 70
     1
280
     0
  0
ENDBLK
  5
41
330
2E
100
AcDbEntity
  8
0
100
AcDbBlockEnd
  0
BLOCK
  5
5D
330
42
100
AcDbEntity
  8
0
100
AcDbBlockBegin
  2
overhead
 70
     2
 10
0.0
 20
0.0
 30
0.0
  3
overhead
  1

  0
ATTDEF
  5
43
330
42
100
AcDbEntity
  8
ASHADE
  6
Continuous
 62
     1
100
AcDbText
 10
0.0
 20
-0.1
 30
0.0
 40
0.2
  1

  7
ASHADE
 72
     1
 11
0.0
 21
-0.1
 31
0.0
100
AcDbAttributeDefinition
280
     0
  3
Light Name
  2
SNAME
 70
     0
280
     0
  0
ARC
  5
44
330
42
100
AcDbEntity
  8
ASHADE
  6
Continuous
 62
     7
100
AcDbCircle
 10
0.0
 20
0.0
 30
0.0
 40
0.3
100
AcDbArc
 50
205.6792886194569
 51
334.3207113805431
  0
LINE
  5
45
330
42
100
AcDbEntity
  8
ASHADE
  6
Continuous
 62
     7
100
AcDbLine
 10
-0.2041413561583015
 20
-0.2198324514393848
 30
0.0
 11
-0.2721884748777353
 21
-0.2931099352525131
 31
0.0
  0
LINE
  5
46
330
42
100
AcDbEntity
  8
ASHADE
  6
Continuous
 62
     7
100
AcDbLine
 10
-0.1096591641591904
 20
-0.2792398032442862
 30
0.0
 11
-0.1279356915190555
 21
-0.3257797704516673
 31
0.0
  0
LINE
  5
47
330
42
100
AcDbEntity
  8
ASHADE
  6
Continuous
 62
     7
100
AcDbLine
 10
0.0
 20
-0.2999999999999999
 30
0.0
 11
0.0
 21
-0.4
 31
0.0
  0
LINE
  5
48
330
42
100
AcDbEntity
  8
ASHADE
  6
Continuous
 62
     7
100
AcDbLine
 10
0.1096591641591904
 20
-0.2792398032442862
 30
0.0
 11
0.1279356915190555
 21
-0.3257797704516673
 31
0.0
  0
LINE
  5
49
330
42
100
AcDbEntity
  8
ASHADE
  6
Continuous
 62
     7
100
AcDbLine
 10
0.2041413561583015
 20
-0.2198324514393848
 30
0.0
 11
0.2721884748777353
 21
-0.2931099352525131
 31
0.0
  0
ARC
  5
4A
330
42
100
AcDbEntity
  8
ASHADE
  6
Continuous
 62
     7
100
AcDbCircle
 10
0.0
 20
0.0
 30
0.0
 40
0.3
100
AcDbArc
 50
25.67928861945685
 51
154.3207113805431
  0
LINE
  5
4B
330
42
100
AcDbEntity
  8
ASHADE
  6
Continuous
 62
     7
100
AcDbLine
 10
-0.2703701166919155
 20
0.13
 30
0.0
 11
-0.3154318028072347
 21
0.1516666666666666
 31
0.0
  0
LINE
  5
4C
330
42
100
AcDbEntity
  8
ASHADE
  6
Continuous
 62
     7
100
AcDbLine
 10
-0.2703701166919155
 20
-0.13
 30
0.0
 11
-0.3154318028072347
 21
-0.1516666666666666
 31
0.0
  0
LINE
  5
4D
330
42
100
AcDbEntity
  8
ASHADE
  6
Continuous
 62
     7
100
AcDbLine
 10
-0.2041413561583015
 20
0.2198324514393849
 30
0.0
 11
-0.2721884748777353
 21
0.2931099352525131
 31
0.0
  0
LINE
  5
4E
330
42
100
AcDbEntity
  8
ASHADE
  6
Continuous
 62
     7
100
AcDbLine
 10
-0.1096591641591904
 20
0.2792398032442862
 30
0.0
 11
-0.1279356915190555
 21
0.3257797704516674
 31
0.0
  0
LINE
  5
4F
330
42
100
AcDbEntity
  8
ASHADE
  6
Continuous
 62
     7
100
AcDbLine
 10
0.2703701166919155
 20
-0.13
 30
0.0
 11
0.3154318028072347
 21
-0.1516666666666666
 31
0.0
  0
LINE
  5
50
330
42
100
AcDbEntity
  8
ASHADE
  6
Continuous
 62
     7
100
AcDbLine
 10
0.2703701166919155
 20
0.13
 30
0.0
 11
0.3154318028072347
 21
0.1516666666666666
 31
0.0
  0
LINE
  5
51
330
42
100
AcDbEntity
  8
ASHADE
  6
Continuous
 62
     7
100
AcDbLine
 10
0.0
 20
0.3
 30
0.0
 11
0.0
 21
0.4
 31
0.0
  0
ATTDEF
  5
52
330
42
100
AcDbEntity
  8
ASHADE
  6
Continuous
 62
     7
100
AcDbText
 10
0.0
 20
0.22
 30
0.0
 40
0.01
  1
1
100
AcDbAttributeDefinition
280
     0
  3
Light Intensity
  2
INTENSITY
 70
     1
280
     0
  0
ATTDEF
  5
53
330
42
100
AcDbEntity
  8
ASHADE
  6
Continuous
 62
     7
100
AcDbText
 10
0.0
 20
0.16
 30
0.0
 40
0.01
  1
-1
100
AcDbAttributeDefinition
280
     0
  3
*not used*
  2
BEAMD
 70
     1
280
     0
  0
ATTDEF
  5
54
330
42
100
AcDbEntity
  8
ASHADE
  6
Continuous
 62
     7
100
AcDbText
 10
0.0
 20
0.175
 30
0.0
 40
0.01
  1
-1
100
AcDbAttributeDefinition
280
     0
  3
*not used*
  2
CONED
 70
     1
280
     0
  0
ATTDEF
  5
55
330
42
100
AcDbEntity
  8
ASHADE
  6
Continuous
 62
     7
100
AcDbText
 10
0.0
 20
0.19
 30
0.0
 40
0.01
  1
0
100
AcDbAttributeDefinition
280
     0
  3
Depth Map Size
  2
CONEA
 70
     1
280
     0
  0
ATTDEF
  5
56
330
42
100
AcDbEntity
  8
ASHADE
  6
Continuous
 62
     7
100
AcDbText
 10
0.0
 20
0.2050000000000001
 30
0.0
 40
0.01
  1
1,1,1
100
AcDbAttributeDefinition
280
     0
  3
Light Color (RGB)
  2
COLOR
 70
     1
280
     0
  0
ATTDEF
  5
57
330
42
100
AcDbEntity
  8
ASHADE
  6
Continuous
 62
     7
100
AcDbText
 10
0.0
 20
0.235
 30
0.0
 40
0.01
  1

100
AcDbAttributeDefinition
280
     0
  3
Look-at Z
  2
LAZ
 70
     1
280
     0
  0
ATTDEF
  5
58
330
42
100
AcDbEntity
  8
ASHADE
  6
Continuous
 62
     7
100
AcDbText
 10
0.0
 20
0.25
 30
0.0
 40
0.01
  1

100
AcDbAttributeDefinition
280
     0
  3
Look-at Y
  2
LAY
 70
     1
280
     0
  0
ATTDEF
  5
59
330
42
100
AcDbEntity
  8
ASHADE
  6
Continuous
 62
     7
100
AcDbText
 10
0.0
 20
0.265
 30
0.0
 40
0.01
  1

100
AcDbAttributeDefinition
280
     0
  3
Look-at X
  2
LAX
 70
     1
280
     0
  0
ATTDEF
  5
5A
330
42
100
AcDbEntity
  8
ASHADE
  6
Continuous
 62
     7
100
AcDbText
 10
0.0
 20
0.28
 30
0.0
 40
0.01
  1

100
AcDbAttributeDefinition
280
     0
  3

  2
GNAME
 70
     1
280
     0
  0
LINE
  5
5B
330
42
100
AcDbEntity
  8
ASHADE
  6
Continuous
 62
     7
100
AcDbLine
 10
0.1096591641591904
 20
0.2792398032442862
 30
0.0
 11
0.1279356915190555
 21
0.3257797704516674
 31
0.0
  0
LINE
  5
5C
330
42
100
AcDbEntity
  8
ASHADE
  6
Continuous
 62
     7
100
AcDbLine
 10
0.2041413561583015
 20
0.2198324514393849
 30
0.0
 11
0.2721884748777353
 21
0.2931099352525131
 31
0.0
  0
ENDBLK
  5
5E
330
42
100
AcDbEntity
  8
0
100
AcDbBlockEnd
  0
BLOCK
  5
85
330
5F
100
AcDbEntity
  8
0
100
AcDbBlockBegin
  2
sh_spot
 70
     2
 10
0.0
 20
0.0
 30
0.0
  3
sh_spot
  1

  0
LINE
  5
60
330
5F
100
AcDbEntity
  8
ASHADE
  6
Continuous
 62
     7
100
AcDbLine
 10
0.25
 20
0.26
 30
0.0
 11
-0.25
 21
0.26
 31
0.0
  0
LINE
  5
61
330
5F
100
AcDbEntity
  8
ASHADE
  6
Continuous
 62
     7
100
AcDbLine
 10
-0.25
 20
-0.3399999999999999
 30
0.0
 11
0.25
 21
-0.3399999999999999
 31
0.0
  0
ATTDEF
  5
62
330
5F
100
AcDbEntity
  8
ASHADE
  6
Continuous
 62
     1
100
AcDbText
 10
0.0
 20
-0.1
 30
0.0
 40
0.2
  1

  7
ASHADE
 72
     1
 11
0.0
 21
-0.1
 31
0.0
100
AcDbAttributeDefinition
280
     0
  3
Light Name
  2
SNAME
 70
     0
280
     0
  0
LINE
  5
63
330
5F
100
AcDbEntity
  8
ASHADE
  6
Continuous
 62
     7
100
AcDbLine
 10
-0.25
 20
-0.13
 30
0.0
 11
-0.25
 21
-0.3399999999999999
 31
0.0
  0
LINE
  5
64
330
5F
100
AcDbEntity
  8
ASHADE
  6
Continuous
 62
     7
100
AcDbLine
 10
-0.25
 20
-0.18
 30
0.0
 11
-0.29
 21
-0.18
 31
0.0
  0
LINE
  5
65
330
5F
100
AcDbEntity
  8
ASHADE
  6
Continuous
 62
     7
100
AcDbLine
 10
-0.29
 20
-0.22
 30
0.0
 11
-0.25
 21
-0.22
 31
0.0
  0
LINE
  5
66
330
5F
100
AcDbEntity
  8
ASHADE
  6
Continuous
 62
     7
100
AcDbLine
 10
-0.29
 20
-0.18
 30
0.0
 11
-0.29
 21
-0.22
 31
0.0
  0
LINE
  5
67
330
5F
100
AcDbEntity
  8
ASHADE
  6
Continuous
 62
     7
100
AcDbLine
 10
-0.1045454545454545
 20
0.26
 30
0.0
 11
-0.15
 21
0.46
 31
0.0
  0
LINE
  5
68
330
5F
100
AcDbEntity
  8
ASHADE
  6
Continuous
 62
     7
100
AcDbLine
 10
-0.21
 20
0.26
 30
0.0
 11
-0.301304347826087
 21
0.46
 31
0.0
  0
LINE
  5
69
330
5F
100
AcDbEntity
  8
ASHADE
  6
Continuous
 62
     7
100
AcDbLine
 10
-0.25
 20
0.26
 30
0.0
 11
-0.25
 21
0.13
 31
0.0
  0
LINE
  5
6A
330
5F
100
AcDbEntity
  8
ASHADE
  6
Continuous
 62
     7
100
AcDbLine
 10
-0.25
 20
0.22
 30
0.0
 11
-0.29
 21
0.22
 31
0.0
  0
LINE
  5
6B
330
5F
100
AcDbEntity
  8
ASHADE
  6
Continuous
 62
     7
100
AcDbLine
 10
-0.29
 20
0.1799999999999999
 30
0.0
 11
-0.25
 21
0.1799999999999999
 31
0.0
  0
LINE
  5
6C
330
5F
100
AcDbEntity
  8
ASHADE
  6
Continuous
 62
     7
100
AcDbLine
 10
-0.29
 20
0.22
 30
0.0
 11
-0.29
 21
0.1799999999999999
 31
0.0
  0
ATTDEF
  5
6D
330
5F
100
AcDbEntity
  8
ASHADE
  6
Continuous
 62
     7
100
AcDbText
 10
0.0
 20
-0.24
 30
0.0
 40
0.01
  1
0
100
AcDbAttributeDefinition
280
     0
  3
Depth Map Size
  2
ZSIZE
 70
     1
280
     0
  0
ATTDEF
  5
6E
330
5F
100
AcDbEntity
  8
ASHADE
  6
Continuous
 62
     7
100
AcDbText
 10
0.0
 20
-0.3300000000000001
 30
0.0
 40
0.01
  1
0,0,0
100
AcDbAttributeDefinition
280
     0
  3
Look-from XYZ
  2
LFXYZ
 70
     1
280
     0
  0
ATTDEF
  5
6F
330
5F
100
AcDbEntity
  8
ASHADE
  6
Continuous
 62
     7
100
AcDbText
 10
0.0
 20
-0.315
 30
0.0
 40
0.01
  1
0.0
100
AcDbAttributeDefinition
280
     0
  3
Beam Distribution
  2
BEAMDI
 70
     1
280
     0
  0
ATTDEF
  5
70
330
5F
100
AcDbEntity
  8
ASHADE
  6
Continuous
 62
     7
100
AcDbText
 10
0.0
 20
-0.3
 30
0.0
 40
0.01
  1
0.0
100
AcDbAttributeDefinition
280
     0
  3
Cone Delta
  2
CONEDE
 70
     1
280
     0
  0
ATTDEF
  5
71
330
5F
100
AcDbEntity
  8
ASHADE
  6
Continuous
 62
     7
100
AcDbText
 10
0.0
 20
-0.2850000000000001
 30
0.0
 40
0.01
  1
10.0
100
AcDbAttributeDefinition
280
     0
  3
Cone Angle
  2
CONEAN
 70
     1
280
     0
  0
ATTDEF
  5
72
330
5F
100
AcDbEntity
  8
ASHADE
  6
Continuous
 62
     7
100
AcDbText
 10
0.0
 20
-0.27
 30
0.0
 40
0.01
  1
-1
100
AcDbAttributeDefinition
280
     0
  3
*not used*
  2
BIASMAX
 70
     1
280
     0
  0
ATTDEF
  5
73
330
5F
100
AcDbEntity
  8
ASHADE
  6
Continuous
 62
     7
100
AcDbText
 10
0.0
 20
-0.255
 30
0.0
 40
0.01
  1
-1
100
AcDbAttributeDefinition
280
     0
  3
*not used*
  2
BIASMIN
 70
     1
280
     0
  0
ATTDEF
  5
74
330
5F
100
AcDbEntity
  8
ASHADE
  6
Continuous
 62
     7
100
AcDbText
 10
0.0
 20
-0.225
 30
0.0
 40
0.01
  1
1,1,1
100
AcDbAttributeDefinition
280
     0
  3
Light Color (RGB)
  2
COLOR
 70
     1
280
     0
  0
ATTDEF
  5
75
330
5F
100
AcDbEntity
  8
ASHADE
  6
Continuous
 62
     7
100
AcDbText
 10
0.0
 20
-0.21
 30
0.0
 40
0.01
  1
1
100
AcDbAttributeDefinition
280
     0
  3
Light Intensity
  2
INTENSITY
 70
     1
280
     0
  0
ATTDEF
  5
76
330
5F
100
AcDbEntity
  8
ASHADE
  6
Continuous
 62
     7
100
AcDbText
 10
0.0
 20
-0.15
 30
0.0
 40
0.01
  1

100
AcDbAttributeDefinition
280
     0
  3

  2
GNAME
 70
     1
280
     0
  0
ATTDEF
  5
77
330
5F
100
AcDbEntity
  8
ASHADE
  6
Continuous
 62
     7
100
AcDbText
 10
0.0
 20
-0.195
 30
0.0
 40
0.01
  1

100
AcDbAttributeDefinition
280
     0
  3
Look-at Z
  2
LAZ
 70
     1
280
     0
  0
ATTDEF
  5
78
330
5F
100
AcDbEntity
  8
ASHADE
  6
Continuous
 62
     7
100
AcDbText
 10
0.0
 20
-0.18
 30
0.0
 40
0.01
  1

100
AcDbAttributeDefinition
280
     0
  3
Look-at Y
  2
LAY
 70
     1
280
     0
  0
ATTDEF
  5
79
330
5F
100
AcDbEntity
  8
ASHADE
  6
Continuous
 62
     7
100
AcDbText
 10
0.0
 20
-0.165
 30
0.0
 40
0.01
  1

100
AcDbAttributeDefinition
280
     0
  3
Look-at X
  2
LAX
 70
     1
280
     0
  0
LINE
  5
7A
330
5F
100
AcDbEntity
  8
ASHADE
  6
Continuous
 62
     7
100
AcDbLine
 10
0.25
 20
-0.3399999999999999
 30
0.0
 11
0.25
 21
-0.13
 31
0.0
  0
LINE
  5
7B
330
5F
100
AcDbEntity
  8
ASHADE
  6
Continuous
 62
     7
100
AcDbLine
 10
0.25
 20
-0.18
 30
0.0
 11
0.29
 21
-0.18
 31
0.0
  0
LINE
  5
7C
330
5F
100
AcDbEntity
  8
ASHADE
  6
Continuous
 62
     7
100
AcDbLine
 10
0.29
 20
-0.22
 30
0.0
 11
0.25
 21
-0.22
 31
0.0
  0
LINE
  5
7D
330
5F
100
AcDbEntity
  8
ASHADE
  6
Continuous
 62
     7
100
AcDbLine
 10
0.29
 20
-0.18
 30
0.0
 11
0.29
 21
-0.22
 31
0.0
  0
LINE
  5
7E
330
5F
100
AcDbEntity
  8
ASHADE
  6
Continuous
 62
     7
100
AcDbLine
 10
0.21
 20
0.26
 30
0.0
 11
0.301304347826087
 21
0.46
 31
0.0
  0
LINE
  5
7F
330
5F
100
AcDbEntity
  8
ASHADE
  6
Continuous
 62
     7
100
AcDbLine
 10
0.1045454545454545
 20
0.26
 30
0.0
 11
0.15
 21
0.46
 31
0.0
  0
LINE
  5
80
330
5F
100
AcDbEntity
  8
ASHADE
  6
Continuous
 62
     7
100
AcDbLine
 10
0.0
 20
0.26
 30
0.0
 11
0.0
 21
0.46
 31
0.0
  0
LINE
  5
81
330
5F
100
AcDbEntity
  8
ASHADE
  6
Continuous
 62
     7
100
AcDbLine
 10
0.25
 20
0.13
 30
0.0
 11
0.25
 21
0.26
 31
0.0
  0
LINE
  5
82
330
5F
100
AcDbEntity
  8
ASHADE
  6
Continuous
 62
     7
100
AcDbLine
 10
0.25
 20
0.22
 30
0.0
 11
0.29
 21
0.22
 31
0.0
  0
LINE
  5
83
330
5F
100
AcDbEntity
  8
ASHADE
  6
Continuous
 62
     7
100
AcDbLine
 10
0.29
 20
0.1799999999999999
 30
0.0
 11
0.25
 21
0.1799999999999999
 31
0.0
  0
LINE
  5
84
330
5F
100
AcDbEntity
  8
ASHADE
  6
Continuous
 62
     7
100
AcDbLine
 10
0.29
 20
0.22
 30
0.0
 11
0.29
 21
0.1799999999999999
 31
0.0
  0
ENDBLK
  5
86
330
5F
100
AcDbEntity
  8
0
100
AcDbBlockEnd
  0
BLOCK
  5
92
330
91
100
AcDbEntity
  8
ASHADE
100
AcDbBlockBegin
  2
AVE_RENDER
 70
     0
 10
0.0
 20
0.0
 30
0.0
  3
AVE_RENDER
  1
AVE_RENDER
  0
ENDBLK
  5
93
330
91
100
AcDbEntity
  8
0
100
AcDbBlockEnd
  0
BLOCK
  5
A0
330
9F
100
AcDbEntity
  8
ASHADE
100
AcDbBlockBegin
  2
AVE_GLOBAL
 70
     0
 10
0.0
 20
0.0
 30
0.0
  3
AVE_GLOBAL
  1
AVE_GLOBAL
  0
ENDBLK
  5
A1
330
9F
100
AcDbEntity
  8
0
100
AcDbBlockEnd
  0
ENDSEC
  0
SECTION
  2
ENTITIES
  0
INSERT
  5
94
330
1F
100
AcDbEntity
  8
ASHADE
 62
     1
100
AcDbBlockReference
  2
AVE_RENDER
 10
0.0
 20
0.0
 30
0.0
1001
AVE_RENDER
1002
{
1070
     7
1000
Pref
1070
    30
1070
    20
1070
     1
1070
     0
1000

1070
    10
1070
     1
1070
    10
1040
1.0
1070
     1
1040
0.3
1040
0.7
1040
0.0
1040
10.0
1010
-1.0
1020
-1.0
1030
-1.0
1040
0.3
1070
    49
1070
     0
1070
     0
1010
1.0
1020
1.0
1030
1.0
1040
45.0
1070
     1
1070
     0
1000
WCS
1040
0.0
1070
     0
1040
10.0
1002
}
  0
INSERT
  5
95
330
1F
100
AcDbEntity
  8
ASHADE
 62
     3
100
AcDbBlockReference
  2
AVE_RENDER
 10
0.0
 20
0.0
 30
0.0
1001
AVE_RENDER
1002
{
1070
     0
1000
Full Opt
1070
     0
1070
     1
1070
     1
1070
     1
1070
     0
1070
     0
1070
     0
1070
     1
1070
     1
1040
0.0001
1040
0.0001
1002
}
  0
INSERT
  5
96
330
1F
100
AcDbEntity
  8
ASHADE
 62
     4
100
AcDbBlockReference
  2
AVE_RENDER
 10
0.0
 20
0.0
 30
0.0
1001
AVE_RENDER
1002
{
1070
     0
1000
Quick Opt
1070
     0
1070
     1
1070
     1
1070
     1
1070
     0
1070
     0
1070
     1
1002
}
  0
INSERT
  5
97
330
1F
100
AcDbEntity
  8
ASHADE
 62
     5
100
AcDbBlockReference
  2
AVE_RENDER
 10
0.0
 20
0.0
 30
0.0
1001
AVE_RENDER
1002
{
1070
     1
1000
Scanl Opt
1070
     2
1070
     0
1070
     2
1040
2.0
1040
4.0
1070
     0
1070
     1
1070
     0
1040
0.03
1002
}
  0
INSERT
  5
98
330
1F
100
AcDbEntity
  8
ASHADE
 62
     6
100
AcDbBlockReference
  2
AVE_RENDER
 10
0.0
 20
0.0
 30
0.0
1001
AVE_RENDER
1002
{
1070
     2
1000
Raytr Opt
1070
     2
1070
     0
1070
     2
1040
2.0
1040
4.0
1070
     0
1070
     1
1070
     1
1040
0.03
1070
     3
1040
0.03
1002
}
  0
INSERT
  5
99
330
1F
100
AcDbEntity
  8
ASHADE
 62
     7
100
AcDbBlockReference
  2
AVE_RENDER
 10
0.0
 20
0.0
 30
0.0
1001
AVE_RENDER
1002
{
1070
     0
1000
RFile Opt
1070
     1
1070
   640
1070
   480
1070
 10000
1070
     1
1070
     8
1070
     8
1070
     0
1070
     0
1070
     0
1070
     0
1070
     0
1070
     0
1070
     0
1002
}
  0
INSERT
  5
9A
330
1F
100
AcDbEntity
  8
ASHADE
 62
     8
100
AcDbBlockReference
  2
AVE_RENDER
 10
0.0
 20
0.0
 30
0.0
1001
AVE_RENDER
1002
{
1070
     0
1000
Fog Opt
1070
     0
1070
     0
1040
0.0
1040
1.0
1040
0.0
1040
1.0
1010
0.5
1020
0.5
1030
0.5
1002
}
  0
INSERT
  5
9B
330
1F
100
AcDbEntity
  8
ASHADE
 62
     9
100
AcDbBlockReference
  2
AVE_RENDER
 10
0.0
 20
0.0
 30
0.0
1001
AVE_RENDER
1002
{
1070
     0
1000
BG Opt
1070
     0
1070
     1
1010
0.0
1020
0.0
1030
0.0
1010
1.0
1020
0.0
1030
0.0
1010
0.0
1020
1.0
1030
0.0
1010
0.0
1020
0.0
1030
1.0
1040
0.5
1040
0.33
1040
0.0
1000

1070
     1
1000

1070
     1
1070
     1
1040
1.0
1040
1.0
1040
0.0
1040
0.0
1070
     0
1002
}
  0
INSERT
  5
A2
330
1F
100
AcDbEntity
  8
ASHADE
 62
     1
100
AcDbBlockReference
  2
AVE_GLOBAL
 10
0.0
 20
0.0
 30
0.0
1001
AVE_MATERIAL
1002
{
1000
*GLOBAL*
1000
2
1000
Global finish.
1002
{
1002
}
1002
{
1070
    63
1002
{
1002
{
1010
-1.0
1020
-1.0
1030
-1.0
1002
}
1040
0.1000000014901161
1000

1040
0.0
1002
{
1002
}
1040
0.0
1002
{
1002
}
1040
0.0
1002
}
1002
{
1002
{
1010
-1.0
1020
-1.0
1030
-1.0
1002
}
1040
0.6999999880790711
1000

1040
0.0
1002
{
1002
}
1040
0.0
1002
{
1002
}
1040
0.0
1002
}
1002
{
1002
{
1010
-1.0
1020
-1.0
1030
-1.0
1002
}
1040
0.2000000029802322
1000

1040
0.0
1002
{
1002
}
1040
0.0
1002
{
1002
}
1040
0.0
1002
}
1002
{
1070
     0
1002
{
1070
     1
1002
{
1040
1.0
1040
1.0
1000

1040
0.0
1002
{
1002
}
1040
0.0
1002
{
1002
}
1040
0.0
1002
}
1002
}
1040
1.0
1040
0.0
1040
0.0
1002
}
1002
{
1040
1.0
1040
1.0
1000

1040
0.0
1002
{
1002
}
1040
0.0
1002
{
1002
}
1040
0.0
1002
}
1002
{
1040
0.5
1040
1.0
1000

1040
0.0
1002
{
1002
}
1040
0.0
1002
{
1002
}
1040
0.0
1002
}
1002
{
1070
     0
1040
0.0
1002
{
1002
}
1040
1.0
1002
{
1002
}
1040
0.0
1002
}
1002
{
1040
0.0
1002
{
1002
{
1010
0.0
1020
0.0
1030
0.0
1002
}
1040
1.0
1000

1040
0.0
1002
{
1002
}
1040
0.0
1002
{
1002
}
1040
0.0
1002
}
1002
}
1002
{
1002
{
1070
     1
1002
{
1040
0.0
1040
1.0
1000

1040
0.0
1002
{
1002
}
1040
0.0
1002
{
1002
}
1040
0.0
1002
}
1002
}
1040
0.0
1002
{
1002
}
1010
1.0
1020
0.0
1030
0.0
1010
0.0
1020
1.0
1030
0.0
1010
0.0
1020
0.0
1030
1.0
1070
     0
1002
}
1002
{
1002
{
1040
1.0
1040
1.0
1002
{
1070
     1
1002
{
1040
1.0
1040
1.0
1000

1040
0.0
1002
{
1002
}
1040
0.0
1002
{
1002
}
1040
0.0
1002
}
1002
}
1002
}
1070
     0
1040
0.0
1002
{
1002
}
1002
}
1002
{
1002
}
1002
}
1002
{
1071
        3
1070
     3
1070
     0
1002
{
1070
     2
1070
     0
1070
     0
1040
0.0
1002
}
1070
     0
1070
     2
1002
{
1002
}
1002
}
1002
{
1040
8030.0
1040
190.3000030517578
1040
0.3050000071525574
1040
228.0
1040
545.0
1040
14.0
1040
17.39999961853027
1040
0.4560000002384186
1002
}
1002
}
  0
MESH
  5
FB
330
1F
100
AcDbEntity
  8
Material Color - 01
160
              1304
310
18050000240000000C00000013000000020000003C0000000600000002000000000000000000444000000000000044400000000000206E4000000000000044C000000000000044400000000000206E400C000000130000000A0000003C0000000600000002000000000000000000444000000000000044C00000000000206E
310
4000000000000044C000000000000044400000000000206E400C00000013000000120000003C0000000600000002000000000000000000444000000000000044C00000000000206E40000000000000444000000000000044400000000000206E400C000000130000001A0000003C0000000600000002000000000000000000
310
44C000000000000044400000000000206E4000000000000044C000000000000044C00000000000206E400C00000013000000220000003C0000000600000002000000000000000000444000000000000044C00000000000206E4000000000000044C000000000000044C00000000000206E400C000000130000002A0000003C
310
0000000600000002000000000000000000444000000000000044C0000000000000000000000000000044C000000000000044C000000000000000000C00000013000000320000003C000000060000000200000000000000000044400000000000004440000000000000000000000000000044C000000000000044C000000000
310
000000000C000000130000003A0000003C0000000600000002000000000000000000444000000000000044400000000000000000000000000000444000000000000044C000000000000000000C00000013000000420000003C000000060000000200000000000000000044C000000000000044C00000000000000000000000
310
00000044C0000000000000444000000000000000000C000000130000004A0000003C000000060000000200000000000000000044400000000000004440000000000000000000000000000044C0000000000000444000000000000000000C00000013000000520000003C000000060000000200000000000000000044C00000
310
0000000044C00000000000206E4000000000000044C000000000000044C000000000000000000C000000130000005A0000003C0000000600000002000000000000000000444000000000000044C00000000000206E4000000000000044C000000000000044C000000000000000000C00000013000000620000003C00000006
310
00000002000000000000000000444000000000000044C00000000000206E40000000000000444000000000000044C000000000000000000C000000130000006A0000003C000000060000000200000000000000000044C000000000000044400000000000206E4000000000000044C000000000000044400000000000000000
310
0C00000013000000720000003C000000060000000200000000000000000044C000000000000044C00000000000206E4000000000000044C0000000000000444000000000000000000C000000130000007A0000003C0000000600000002000000000000000000444000000000000044400000000000206E4000000000000044
310
40000000000000444000000000000000000C00000013000000820000003C000000060000000200000000000000000044C000000000000044400000000000206E400000000000004440000000000000444000000000000000000C000000130000008A0000003C00000006000000020000000000000000004440000000000000
310
44400000000000206E40000000000000444000000000000044C00000000000000000
100
AcDbSubDMesh
 71
     2
 72
     0
 91
        0
 92
        8
 10
40.0
 20
-40.0
 30
241.0
 10
40.0
 20
40.0
 30
241.0
 10
-40.0
 20
40.0
 30
241.0
 10
-40.0
 20
-40.0
 30
241.0
 10
40.0
 20
40.0
 30
0.0
 10
40.0
 20
-40.0
 30
0.0
 10
-40.0
 20
-40.0
 30
0.0
 10
-40.0
 20
40.0
 30
0.0
 93
       48
 90
        3
 90
        1
 90
        2
 90
        0
 90
        3
 90
        0
 90
        2
 90
        3
 90
        3
 90
        5
 90
        6
 90
        4
 90
        3
 90
        4
 90
        6
 90
        7
 90
        3
 90
        3
 90
        6
 90
        0
 90
        3
 90
        0
 90
        6
 90
        5
 90
        3
 90
        2
 90
        7
 90
        3
 90
        3
 90
        3
 90
        7
 90
        6
 90
        3
 90
        1
 90
        4
 90
        2
 90
        3
 90
        2
 90
        4
 90
        7
 90
        3
 90
        0
 90
        5
 90
        1
 90
        3
 90
        1
 90
        5
 90
        4
 94
       18
 90
        1
 90
        2
 90
        0
 90
        2
 90
        0
 90
        1
 90
        2
 90
        3
 90
        0
 90
        3
 90
        5
 90
        6
 90
        4
 90
        6
 90
        4
 90
        5
 90
        6
 90
        7
 90
        4
 90
        7
 90
        3
 90
        6
 90
        0
 90
        6
 90
        0
 90
        5
 90
        2
 90
        7
 90
        3
 90
        7
 90
        1
 90
        4
 90
        2
 90
        4
 90
        1
 90
        5
 95
       18
140
0.0
140
0.0
140
0.0
140
0.0
140
0.0
140
0.0
140
0.0
140
0.0
140
0.0
140
0.0
140
0.0
140
0.0
140
0.0
140
0.0
140
0.0
140
0.0
140
0.0
140
0.0
 90
        0
  0
MESH
  5
FC
330
1F
100
AcDbEntity
  8
Material Color - 37
160
             41912
310
B8A300008C0400000C00000013000000020000003C000000060000000200000000000000008036C0000000000000000000000020629C7040000000403B8137C00000000000000E4000000020629C70400C000000130000000A0000003C0000000600000002000000000000A0944534C00000000000000000000000E0943871
310
40000000403B8137C00000000000000E4000000020629C70400C00000013000000120000003C000000060000000200000000000000008036C0000000000000000000000020629C7040000000A0944534C00000000000000000000000E0943871400C000000130000001A0000003C0000000600000002000000000000403B81
310
37C00000000000000E4000000020629C704000000080562D35C00000000000000E40000000A08E3F71400C00000013000000220000003C0000000600000002000000000000A0944534C00000000000000000000000E09438714000000080562D35C00000000000000E40000000A08E3F71400C000000130000002A0000003C
310
0000000600000002000000000000409A0E2CC00000000000000000000000C0D7B5714000000080562D35C00000000000000E40000000A08E3F71400C00000013000000320000003C0000000600000002000000000000A0944534C00000000000000000000000E094387140000000409A0E2CC00000000000000000000000C0
310
D7B571400C000000130000003A0000003C000000060000000200000000000080562D35C00000000000000E40000000A08E3F7140000000605D4F2DC00000000000000E400000008069C271400C00000013000000420000003C0000000600000002000000000000409A0E2CC00000000000000000000000C0D7B57140000000
310
605D4F2DC00000000000000E400000008069C271400C000000130000004A0000003C000000060000000200000000000000008026C000000000000000000000000027D47140000000605D4F2DC00000000000000E400000008069C271400C00000013000000520000003C000000060000000200000000000000008026C00000
310
0000000000000000000027D47140000000409A0E2CC00000000000000000000000C0D7B571400C000000130000005A0000003C0000000600000002000000000000605D4F2DC00000000000000E400000008069C2714000000000D7EB14C00000000000000E4000000000080B72400C00000013000000620000003C00000006
310
0000000200000000000000008026C000000000000000000000000027D4714000000000D7EB14C00000000000000E4000000000080B72400C000000130000006A0000003C0000000600000002000000000000E0E10614C00000000000000000000000805BFB714000000000D7EB14C00000000000000E4000000000080B7240
310
0C00000013000000720000003C000000060000000200000000000000008026C000000000000000000000000027D47140000000E0E10614C00000000000000000000000805BFB71400C000000130000007A0000003C0000000600000002000000000000E0E10614400000000000000000000000805BFB714000000000D7EB14
310
C00000000000000E4000000000080B72400C00000013000000820000003C0000000600000002000000000000E0E10614C00000000000000000000000805BFB7140000000E0E10614400000000000000000000000805BFB71400C000000130000008A0000003C0000000600000002000000000000E0E1061440000000000000
310
0000000000805BFB714000000000D7EB14400000000000000EC000000000080B72400C00000013000000920000003C0000000600000002000000000000E0E10614C00000000000000000000000805BFB714000000000D7EB14400000000000000EC000000000080B72400C000000130000009A0000003C0000000600000002
310
000000000000000080264000000000000000000000000027D47140000000E0E10614400000000000000000000000805BFB71400C00000013000000A20000003C0000000600000002000000000000000080264000000000000000000000000027D4714000000000D7EB14400000000000000EC000000000080B72400C000000
310
13000000AA0000003C0000000600000002000000000000000080264000000000000000000000000027D47140000000605D4F2D400000000000000EC00000008069C271400C00000013000000B20000003C000000060000000200000000000000D7EB14400000000000000EC000000000080B7240000000605D4F2D40000000
310
0000000EC00000008069C271400C00000013000000BA0000003C0000000600000002000000000000000080264000000000000000000000000027D47140000000409A0E2C400000000000000000000000C0D7B571400C00000013000000C20000003C0000000600000002000000000000409A0E2C4000000000000000000000
310
00C0D7B57140000000605D4F2D400000000000000EC00000008069C271400C00000013000000CA0000003C0000000600000002000000000000409A0E2C400000000000000000000000C0D7B5714000000080562D35400000000000000EC0000000A08E3F71400C00000013000000D20000003C000000060000000200000000
310
000080562D35400000000000000EC0000000A08E3F7140000000605D4F2D400000000000000EC00000008069C271400C00000013000000DA0000003C0000000600000002000000000000409A0E2C400000000000000000000000C0D7B57140000000A0944534400000000000000000000000E0943871400C00000013000000
310
E20000003C0000000600000002000000000000A0944534400000000000000000000000E09438714000000080562D35400000000000000EC0000000A08E3F71400C00000013000000EA0000003C0000000600000002000000000000A0944534400000000000000000000000E094387140000000403B8137400000000000000E
310
C000000020629C70400C00000013000000F20000003C000000060000000200000000000080562D35400000000000000EC0000000A08E3F7140000000403B8137400000000000000EC000000020629C70400C00000013000000FA0000003C00000006000000020000000000000000803640000000000000000000000020629C
310
7040000000A0944534400000000000000000000000E0943871400C00000013000000020100003C00000006000000020000000000000000803640000000000000000000000020629C7040000000403B8137400000000000000EC000000020629C70400C000000130000000A0100003C00000006000000020000000000000000
310
803640000000000000000000000020629C704000000080562D35400000000000000EC0000000606BF26F400C00000013000000120100003C0000000600000002000000000000403B8137400000000000000EC000000020629C704000000080562D35400000000000000EC0000000606BF26F400C000000130000001A010000
310
3C00000006000000020000000000000000803640000000000000000000000020629C7040000000A0944534400000000000000000000000602F0070400C00000013000000220100003C0000000600000002000000000000A0944534400000000000000000000000602F00704000000080562D35400000000000000EC0000000
310
606BF26F400C000000130000002A0100003C0000000600000002000000000000A0944534400000000000000000000000602F007040000000605D4F2D400000000000000EC000000080B5EC6E400C00000013000000320100003C0000000600000002000000000000605D4F2D400000000000000EC000000080B5EC6E400000
310
0080562D35400000000000000EC0000000606BF26F400C000000130000003A0100003C0000000600000002000000000000A0944534400000000000000000000000602F007040000000409A0E2C40000000000000000000000020D9056F400C00000013000000420100003C0000000600000002000000000000409A0E2C4000
310
0000000000000000000020D9056F40000000605D4F2D400000000000000EC000000080B5EC6E400C000000130000004A0100003C000000060000000200000000000000008026400000000000000000000000803AC96E40000000409A0E2C40000000000000000000000020D9056F400C00000013000000520100003C000000
310
060000000200000000000000008026400000000000000000000000803AC96E40000000605D4F2D400000000000000EC000000080B5EC6E400C000000130000005A0100003C0000000600000002000000000000409A0E2C40000000000000000000000020D9056F40000000605D4F2D400000000000000E4000000080B5EC6E
310
400C00000013000000620100003C000000060000000200000000000000008026400000000000000000000000803AC96E40000000605D4F2D400000000000000E4000000080B5EC6E400C000000130000006A0100003C0000000600000002000000000000605D4F2D400000000000000E4000000080B5EC6E4000000000D7EB
310
14400000000000000E4000000080785B6E400C00000013000000720100003C000000060000000200000000000000008026400000000000000000000000803AC96E4000000000D7EB14400000000000000E4000000080785B6E400C000000130000007A0100003C0000000600000002000000000000605D4F2D400000000000
310
000E4000000080B5EC6E4000000000DA5D30400000004013FB19400000004007A86E400C00000013000000820100003C000000060000000200000000000000DA5D30400000004013FB19400000004007A86E4000000000D7EB14400000000000000E4000000080785B6E400C000000130000008A0100003C00000006000000
310
0200000000000000DA5D30400000004013FB19400000004007A86E40000000E05C5D17400000004013FB1940000000C0D3056E400C00000013000000920100003C0000000600000002000000000000E05C5D17400000004013FB1940000000C0D3056E4000000000D7EB14400000000000000E4000000080785B6E400C0000
310
00130000009A0100003C000000060000000200000000000000DA5D30400000004013FB19400000004007A86E40000000E066B432400000000000001E4000000060354A6E400C00000013000000A20100003C0000000600000002000000000000E066B432400000000000001E4000000060354A6E40000000E05C5D17400000
310
004013FB1940000000C0D3056E400C00000013000000AA0100003C0000000600000002000000000000E066B432400000000000001E4000000060354A6E40000000E0D7B31A400000000000001E4000000000D6906D400C00000013000000B20100003C0000000600000002000000000000E0D7B31A400000000000001E4000
310
000000D6906D40000000E05C5D17400000004013FB1940000000C0D3056E400C00000013000000BA0100003C0000000600000002000000000000E066B432400000000000001E4000000060354A6E40000000A0F30A35400000004013FB19400000008063EC6D400C00000013000000C20100003C0000000600000002000000
310
000000A0F30A35400000004013FB19400000008063EC6D40000000E0D7B31A400000000000001E4000000000D6906D400C00000013000000CA0100003C0000000600000002000000000000A0F30A35400000004013FB19400000008063EC6D40000000C0520A1E400000004013FB194000000040D81B6D400C000000130000
310
00D20100003C0000000600000002000000000000C0520A1E400000004013FB194000000040D81B6D40000000E0D7B31A400000000000001E4000000000D6906D400C00000013000000DA0100003C0000000600000002000000000000A0F30A35400000004013FB19400000008063EC6D40000000001FC13640000000000000
310
0E4000000040B5A76D400C00000013000000E20100003C0000000600000002000000000000001FC136400000000000000E4000000040B5A76D40000000C0520A1E400000004013FB194000000040D81B6D400C00000013000000EA0100003C0000000600000002000000000000001FC136400000000000000E4000000040B5
310
A76D4000000060EC3D20400000000000000E400000008033C66C400C00000013000000F20100003C000000060000000200000000000060EC3D20400000000000000E400000008033C66C40000000C0520A1E400000004013FB194000000040D81B6D400C00000013000000FA0100003C000000060000000200000000000000
310
1FC136400000000000000E4000000040B5A76D4000000080806137400000000000000000000000A0918E6D400C00000013000000020200003C000000060000000200000000000080806137400000000000000000000000A0918E6D4000000060EC3D20400000000000000E400000008033C66C400C000000130000000A0200
310
003C000000060000000200000000000080806137400000000000000000000000A0918E6D40000000E066B02040000000000000000000000060DAA66C400C00000013000000120200003C0000000600000002000000000000E066B02040000000000000000000000060DAA66C4000000060EC3D20400000000000000E400000
310
008033C66C400C000000130000001A0200003C000000060000000200000000000080806137400000000000000000000000A0918E6D40000000001FC136400000000000000EC000000040B5A76D400C00000013000000220200003C0000000600000002000000000000001FC136400000000000000EC000000040B5A76D4000
310
0000E066B02040000000000000000000000060DAA66C400C000000130000002A0200003C0000000600000002000000000000001FC136400000000000000EC000000040B5A76D4000000060EC3D20400000000000000EC00000008033C66C400C00000013000000320200003C000000060000000200000000000060EC3D2040
310
0000000000000EC00000008033C66C40000000E066B02040000000000000000000000060DAA66C400C000000130000003A0200003C0000000600000002000000000000001FC136400000000000000EC000000040B5A76D40000000A0F30A35400000004013FB19C00000008063EC6D400C00000013000000420200003C0000
310
000600000002000000000000A0F30A35400000004013FB19C00000008063EC6D4000000060EC3D20400000000000000EC00000008033C66C400C000000130000004A0200003C0000000600000002000000000000A0F30A35400000004013FB19C00000008063EC6D40000000C0520A1E400000004013FB19C000000040D81B
310
6D400C00000013000000520200003C0000000600000002000000000000C0520A1E400000004013FB19C000000040D81B6D4000000060EC3D20400000000000000EC00000008033C66C400C000000130000005A0200003C0000000600000002000000000000A0F30A35400000004013FB19C00000008063EC6D40000000E066
310
B432400000000000001EC000000060354A6E400C00000013000000620200003C0000000600000002000000000000E066B432400000000000001EC000000060354A6E40000000C0520A1E400000004013FB19C000000040D81B6D400C000000130000006A0200003C0000000600000002000000000000E066B4324000000000
310
00001EC000000060354A6E40000000E0D7B31A400000000000001EC000000000D6906D400C00000013000000720200003C0000000600000002000000000000E0D7B31A400000000000001EC000000000D6906D40000000C0520A1E400000004013FB19C000000040D81B6D400C000000130000007A0200003C000000060000
310
0002000000000000E066B432400000000000001EC000000060354A6E4000000000DA5D30400000004013FB19C00000004007A86E400C00000013000000820200003C000000060000000200000000000000DA5D30400000004013FB19C00000004007A86E40000000E0D7B31A400000000000001EC000000000D6906D400C00
310
0000130000008A0200003C000000060000000200000000000000DA5D30400000004013FB19C00000004007A86E40000000E05C5D17400000004013FB19C0000000C0D3056E400C00000013000000920200003C0000000600000002000000000000E05C5D17400000004013FB19C0000000C0D3056E40000000E0D7B31A4000
310
00000000001EC000000000D6906D400C000000130000009A0200003C000000060000000200000000000000DA5D30400000004013FB19C00000004007A86E40000000605D4F2D400000000000000EC000000080B5EC6E400C00000013000000A20200003C0000000600000002000000000000605D4F2D400000000000000EC0
310
00000080B5EC6E40000000E05C5D17400000004013FB19C0000000C0D3056E400C00000013000000AA0200003C0000000600000002000000000000605D4F2D400000000000000EC000000080B5EC6E4000000000D7EB14400000000000000EC000000080785B6E400C00000013000000B20200003C00000006000000020000
310
0000000000D7EB14400000000000000EC000000080785B6E40000000E05C5D17400000004013FB19C0000000C0D3056E400C00000013000000BA0200003C000000060000000200000000000000008026400000000000000000000000803AC96E4000000000D7EB14400000000000000EC000000080785B6E400C0000001300
310
0000C20200003C000000060000000200000000000000008026400000000000000000000000803AC96E40000000E0E10614400000000000000000000000A0D17A6E400C00000013000000CA0200003C0000000600000002000000000000E0E10614400000000000000000000000A0D17A6E4000000000D7EB14400000000000
310
000EC000000080785B6E400C00000013000000D20200003C0000000600000002000000000000E0E10614400000000000000000000000A0D17A6E4000000000D7EB14400000000000000E4000000080785B6E400C00000013000000DA0200003C0000000600000002000000000000E0E10614C00000000000000000000000A0
310
D17A6E4000000000D7EB14400000000000000E4000000080785B6E400C00000013000000E20200003C0000000600000002000000000000E0E10614400000000000000000000000A0D17A6E40000000E0E10614C00000000000000000000000A0D17A6E400C00000013000000EA0200003C0000000600000002000000000000
310
00D7EB14C00000000000000E4000000080785B6E4000000000D7EB14400000000000000E4000000080785B6E400C00000013000000F20200003C0000000600000002000000000000E0E10614C00000000000000000000000A0D17A6E4000000000D7EB14C00000000000000E4000000080785B6E400C00000013000000FA02
310
00003C000000060000000200000000000000008026C00000000000000000000000803AC96E4000000000D7EB14C00000000000000E4000000080785B6E400C00000013000000020300003C000000060000000200000000000000008026C00000000000000000000000803AC96E40000000E0E10614C0000000000000000000
310
0000A0D17A6E400C000000130000000A0300003C000000060000000200000000000000D7EB14C00000000000000E4000000080785B6E40000000605D4F2DC00000000000000E4000000080B5EC6E400C00000013000000120300003C000000060000000200000000000000008026C00000000000000000000000803AC96E40
310
000000605D4F2DC00000000000000E4000000080B5EC6E400C000000130000001A0300003C0000000600000002000000000000409A0E2CC0000000000000000000000020D9056F40000000605D4F2DC00000000000000E4000000080B5EC6E400C00000013000000220300003C000000060000000200000000000000008026
310
C00000000000000000000000803AC96E40000000409A0E2CC0000000000000000000000020D9056F400C000000130000002A0300003C0000000600000002000000000000A0944534C00000000000000000000000602F007040000000605D4F2DC00000000000000E4000000080B5EC6E400C00000013000000320300003C00
310
00000600000002000000000000409A0E2CC0000000000000000000000020D9056F40000000A0944534C00000000000000000000000602F0070400C000000130000003A0300003C0000000600000002000000000000A0944534C00000000000000000000000602F00704000000080562D35C00000000000000EC0000000606B
310
F26F400C00000013000000420300003C0000000600000002000000000000409A0E2CC0000000000000000000000020D9056F4000000080562D35C00000000000000EC0000000606BF26F400C000000130000004A0300003C0000000600000002000000000000A0944534C00000000000000000000000602F00704000000040
310
3B8137C00000000000000EC000000020629C70400C00000013000000520300003C0000000600000002000000000000403B8137C00000000000000EC000000020629C704000000080562D35C00000000000000EC0000000606BF26F400C000000130000005A0300003C00000006000000020000000000000000403AC0000000
310
4013FB19C000000020629C7040000000403B8137C00000000000000EC000000020629C70400C00000013000000620300003C00000006000000020000000000000000403AC00000004013FB19C000000020629C704000000080562D35C00000000000000EC0000000606BF26F400C000000130000006A0300003C0000000600
310
000002000000000000403B8137C00000000000000EC000000020629C7040000000C082A637C00000004013FB19C0000000609D5271400C00000013000000720300003C00000006000000020000000000000000403AC00000004013FB19C000000020629C7040000000C082A637C00000004013FB19C0000000609D5271400C
310
000000130000007A0300003C0000000600000002000000000000C082A637C00000004013FB19C0000000609D527140000000E070073BC00000000000001EC0000000C0A56C71400C00000013000000820300003C00000006000000020000000000000000403AC00000004013FB19C000000020629C7040000000E070073BC0
310
0000000000001EC0000000C0A56C71400C000000130000008A0300003C0000000600000002000000000000C082A637C00000004013FB19C0000000609D527140000000E066B432C00000000000001EC0000000A0A91372400C00000013000000920300003C0000000600000002000000000000E070073BC00000000000001E
310
C0000000C0A56C7140000000E066B432C00000000000001EC0000000A0A91372400C000000130000009A0300003C0000000600000002000000000000A0F30A35C00000004013FB19C00000008092427240000000E066B432C00000000000001EC0000000A0A91372400C00000013000000A20300003C000000060000000200
310
0000000000E070073BC00000000000001EC0000000C0A56C7140000000A0F30A35C00000004013FB19C000000080924272400C00000013000000AA0300003C0000000600000002000000000000E066B432C00000000000001EC0000000A0A9137240000000C0520A1EC00000004013FB19C000000020D8AA72400C00000013
310
000000B20300003C0000000600000002000000000000A0F30A35C00000004013FB19C00000008092427240000000C0520A1EC00000004013FB19C000000020D8AA72400C00000013000000BA0300003C0000000600000002000000000000C0520A1EC00000004013FB19C000000020D8AA724000000060EC3D20C000000000
310
00000EC000000080AAD572400C00000013000000C20300003C0000000600000002000000000000A0F30A35C00000004013FB19C0000000809242724000000060EC3D20C00000000000000EC000000080AAD572400C00000013000000CA0300003C000000060000000200000000000060EC3D20400000000000000EC0000000
310
80AAD57240000000C0520A1EC00000004013FB19C000000020D8AA72400C00000013000000D20300003C000000060000000200000000000060EC3D20400000000000000EC000000080AAD5724000000060EC3D20C00000000000000EC000000080AAD572400C00000013000000DA0300003C00000006000000020000000000
310
00E066B0204000000000000000000000002057E5724000000060EC3D20400000000000000EC000000080AAD572400C00000013000000E20300003C0000000600000002000000000000E066B0204000000000000000000000002057E5724000000060EC3D20C00000000000000EC000000080AAD572400C00000013000000EA
310
0300003C000000060000000200000000000060EC3D20400000000000000EC000000080AAD5724000000080806137400000000000000000000000807B7172400C00000013000000F20300003C0000000600000002000000000000E066B0204000000000000000000000002057E5724000000080806137400000000000000000
310
000000807B7172400C00000013000000FA0300003C000000060000000200000000000080806137400000000000000000000000807B717240000000001FC136400000000000000E40000000A0E96472400C00000013000000020400003C0000000600000002000000000000E066B0204000000000000000000000002057E572
310
40000000001FC136400000000000000E40000000A0E96472400C000000130000000A0400003C0000000600000002000000000000A0C57040400000000000000E4000000000BD99714000000080806137400000000000000000000000807B7172400C00000013000000120400003C0000000600000002000000000000A0C570
310
40400000000000000E4000000000BD997140000000001FC136400000000000000E40000000A0E96472400C000000130000001A0400003C0000000600000002000000000000005F683E400000004013FB194000000040AE867140000000A0C57040400000000000000E4000000000BD9971400C00000013000000220400003C
310
0000000600000002000000000000005F683E400000004013FB194000000040AE867140000000001FC136400000000000000E40000000A0E96472400C000000130000002A0400003C0000000600000002000000000000A0C57040400000000000000E4000000000BD9971400000000000E040400000004013FB194000000020
310
629C70400C00000013000000320400003C0000000600000002000000000000005F683E400000004013FB194000000040AE8671400000000000E040400000004013FB194000000020629C70400C000000130000003A0400003C00000006000000020000000000000000E040400000004013FB194000000020629C7040000000
310
0000003E400000000000001E4000000020629C70400C00000013000000420400003C0000000600000002000000000000005F683E400000004013FB194000000040AE8671400000000000003E400000000000001E4000000020629C70400C000000130000004A0400003C00000006000000020000000000000000E040400000
310
004013FB194000000020629C7040000000E070073B400000000000001E40000000003D986F400C00000013000000520400003C00000006000000020000000000000000003E400000000000001E4000000020629C7040000000E070073B400000000000001E40000000003D986F400C000000130000005A0400003C00000006
310
00000002000000000000E070073B400000000000001E40000000003D986F40000000C082A637400000004013FB1940000000E04DCC6F400C00000013000000620400003C00000006000000020000000000000000003E400000000000001E4000000020629C7040000000C082A637400000004013FB1940000000E04DCC6F40
310
0C000000130000006A0400003C000000060000000200000000000000DA5D30400000004013FB19400000004007A86E40000000E070073B400000000000001E40000000003D986F400C00000013000000720400003C000000060000000200000000000000DA5D30400000004013FB19400000004007A86E40000000C082A637
310
400000004013FB1940000000E04DCC6F400C000000130000007A0400003C0000000600000002000000000000605D4F2D400000000000000E4000000080B5EC6E40000000C082A637400000004013FB1940000000E04DCC6F400C00000013000000820400003C000000060000000200000000000000008036C0000000000000
310
000000000020629C7040000000A0944534C00000000000000000000000602F0070400C000000130000008A0400003C000000060000000200000000000000008036C0000000000000000000000020629C7040000000403B8137C00000000000000EC000000020629C70400C00000013000000920400003C0000000600000002
310
000000000000A0944534C00000000000000000000000602F00704000000080562D35C00000000000000E40000000606BF26F400C000000130000009A0400003C000000060000000200000000000000008036C0000000000000000000000020629C704000000080562D35C00000000000000E40000000606BF26F400C000000
310
13000000A20400003C0000000600000002000000000000403B8137C00000000000000E4000000020629C704000000080562D35C00000000000000E40000000606BF26F400C00000013000000AA0400003C000000060000000200000000000080562D35C00000000000000E40000000606BF26F40000000C082A637C0000000
310
4013FB1940000000E04DCC6F400C00000013000000B20400003C0000000600000002000000000000403B8137C00000000000000E4000000020629C7040000000C082A637C00000004013FB1940000000E04DCC6F400C00000013000000BA0400003C00000006000000020000000000000000403AC00000004013FB19400000
310
0020629C7040000000C082A637C00000004013FB1940000000E04DCC6F400C00000013000000C20400003C00000006000000020000000000000000403AC00000004013FB194000000020629C7040000000403B8137C00000000000000E4000000020629C70400C00000013000000CA0400003C000000060000000200000000
310
0000C082A637C00000004013FB1940000000E04DCC6F40000000E070073BC00000000000001E40000000003D986F400C00000013000000D20400003C00000006000000020000000000000000403AC00000004013FB194000000020629C7040000000E070073BC00000000000001E40000000003D986F400C00000013000000
310
DA0400003C00000006000000020000000000000000003EC00000000000001E4000000020629C7040000000E070073BC00000000000001E40000000003D986F400C00000013000000E20400003C00000006000000020000000000000000403AC00000004013FB194000000020629C70400000000000003EC00000000000001E
310
4000000020629C70400C00000013000000EA0400003C0000000600000002000000000000E070073BC00000000000001E40000000003D986F40000000005F683EC00000004013FB1940000000202C646F400C00000013000000F20400003C00000006000000020000000000000000003EC00000000000001E4000000020629C
310
7040000000005F683EC00000004013FB1940000000202C646F400C00000013000000FA0400003C00000006000000020000000000000000E040C00000004013FB194000000020629C7040000000005F683EC00000004013FB1940000000202C646F400C00000013000000020500003C00000006000000020000000000000000
310
E040C00000004013FB194000000020629C70400000000000003EC00000000000001E4000000020629C70400C000000130000000A0500003C0000000600000002000000000000005F683EC00000004013FB1940000000202C646F40000000A0C57040C00000000000000E40000000A00E3E6F400C0000001300000012050000
310
3C00000006000000020000000000000000E040C00000004013FB194000000020629C7040000000A0C57040C00000000000000E40000000A00E3E6F400C000000130000001A0500003C000000060000000200000000000060623F42C00000000000000E4000000020629C7040000000A0C57040C00000000000000E40000000
310
A00E3E6F400C00000013000000220500003C00000006000000020000000000000000E040C00000004013FB194000000020629C704000000060623F42C00000000000000E4000000020629C70400C000000130000002A0500003C0000000600000002000000000000A0C57040C00000000000000E40000000A00E3E6F400000
310
0080A6E440C00000000000000000000000401B306F400C00000013000000320500003C000000060000000200000000000060623F42C00000000000000E4000000020629C704000000080A6E440C00000000000000000000000401B306F400C000000130000003A0500003C00000006000000020000000000000000C042C000
310
0000000000000000000020629C704000000080A6E440C00000000000000000000000401B306F400C00000013000000420500003C00000006000000020000000000000000C042C0000000000000000000000020629C704000000060623F42C00000000000000E4000000020629C70400C000000130000004A0500003C000000
310
060000000200000000000080A6E440C00000000000000000000000401B306F40000000A0C57040C00000000000000EC0000000A00E3E6F400C00000013000000520500003C00000006000000020000000000000000C042C0000000000000000000000020629C7040000000A0C57040C00000000000000EC0000000A00E3E6F
310
400C000000130000005A0500003C000000060000000200000000000060623F42C00000000000000EC000000020629C7040000000A0C57040C00000000000000EC0000000A00E3E6F400C00000013000000620500003C00000006000000020000000000000000C042C0000000000000000000000020629C704000000060623F
310
42C00000000000000EC000000020629C70400C000000130000006A0500003C0000000600000002000000000000A0C57040C00000000000000EC0000000A00E3E6F40000000005F683EC00000004013FB19C0000000202C646F400C00000013000000720500003C000000060000000200000000000060623F42C00000000000
310
000EC000000020629C7040000000005F683EC00000004013FB19C0000000202C646F400C000000130000007A0500003C00000006000000020000000000000000E040C00000004013FB19C000000020629C7040000000005F683EC00000004013FB19C0000000202C646F400C00000013000000820500003C00000006000000
310
020000000000000000E040C00000004013FB19C000000020629C704000000060623F42C00000000000000EC000000020629C70400C000000130000008A0500003C0000000600000002000000000000005F683EC00000004013FB19C0000000202C646F40000000E070073BC00000000000001EC0000000003D986F400C0000
310
0013000000920500003C00000006000000020000000000000000E040C00000004013FB19C000000020629C7040000000E070073BC00000000000001EC0000000003D986F400C000000130000009A0500003C00000006000000020000000000000000003EC00000000000001EC000000020629C7040000000E070073BC00000
310
000000001EC0000000003D986F400C00000013000000A20500003C00000006000000020000000000000000E040C00000004013FB19C000000020629C70400000000000003EC00000000000001EC000000020629C70400C00000013000000AA0500003C0000000600000002000000000000E070073BC00000000000001EC000
310
0000003D986F40000000C082A637C00000004013FB19C0000000E04DCC6F400C00000013000000B20500003C00000006000000020000000000000000003EC00000000000001EC000000020629C7040000000C082A637C00000004013FB19C0000000E04DCC6F400C00000013000000BA0500003C0000000600000002000000
310
0000000000403AC00000004013FB19C000000020629C7040000000C082A637C00000004013FB19C0000000E04DCC6F400C00000013000000C20500003C00000006000000020000000000000000403AC00000004013FB19C000000020629C70400000000000003EC00000000000001EC000000020629C70400C000000130000
310
00CA0500003C0000000600000002000000000000C082A637C00000004013FB19C0000000E04DCC6F4000000080562D35C00000000000000EC0000000606BF26F400C00000013000000D20500003C0000000600000002000000000000A0944534C00000000000000000000000E09438714000000080562D35C0000000000000
310
0EC0000000A08E3F71400C00000013000000DA0500003C000000060000000200000000000000008036C0000000000000000000000020629C704000000080562D35C00000000000000EC0000000A08E3F71400C00000013000000E20500003C0000000600000002000000000000A0944534C00000000000000000000000E094
310
387140000000605D4F2DC00000000000000EC00000008069C271400C00000013000000EA0500003C000000060000000200000000000080562D35C00000000000000EC0000000A08E3F7140000000605D4F2DC00000000000000EC00000008069C271400C00000013000000F20500003C000000060000000200000000000000
310
DA5D30C00000004013FB19C0000000A0C0E47140000000605D4F2DC00000000000000EC00000008069C271400C00000013000000FA0500003C000000060000000200000000000080562D35C00000000000000EC0000000A08E3F714000000000DA5D30C00000004013FB19C0000000A0C0E471400C00000013000000020600
310
003C0000000600000002000000000000605D4F2DC00000000000000EC00000008069C27140000000E05C5D17C00000004013FB19C000000060DA3572400C000000130000000A0600003C000000060000000200000000000000DA5D30C00000004013FB19C0000000A0C0E47140000000E05C5D17C00000004013FB19C00000
310
0060DA3572400C00000013000000120600003C0000000600000002000000000000E05C5D17C00000004013FB19C000000060DA357240000000E0D7B31AC00000000000001EC000000040597072400C000000130000001A0600003C000000060000000200000000000000DA5D30C00000004013FB19C0000000A0C0E4714000
310
0000E0D7B31AC00000000000001EC000000040597072400C00000013000000220600003C0000000600000002000000000000E0D7B31A400000000000001EC00000004059707240000000E05C5D17C00000004013FB19C000000060DA3572400C000000130000002A0600003C0000000600000002000000000000E0D7B31A40
310
0000000000001EC00000004059707240000000E0D7B31AC00000000000001EC000000040597072400C00000013000000320600003C0000000600000002000000000000C0520A1E400000004013FB19C000000020D8AA7240000000E0D7B31A400000000000001EC000000040597072400C000000130000003A0600003C0000
310
000600000002000000000000C0520A1E400000004013FB19C000000020D8AA7240000000E0D7B31AC00000000000001EC000000040597072400C00000013000000420600003C0000000600000002000000000000E0D7B31A400000000000001EC00000004059707240000000A0F30A35400000004013FB19C0000000809242
310
72400C000000130000004A0600003C0000000600000002000000000000C0520A1E400000004013FB19C000000020D8AA7240000000A0F30A35400000004013FB19C000000080924272400C00000013000000520600003C0000000600000002000000000000A0F30A35400000004013FB19C00000008092427240000000001F
310
C136400000000000000EC0000000A0E96472400C000000130000005A0600003C0000000600000002000000000000C0520A1E400000004013FB19C000000020D8AA7240000000001FC136400000000000000EC0000000A0E96472400C00000013000000620600003C0000000600000002000000000000A0C570404000000000
310
00000EC000000000BD997140000000A0F30A35400000004013FB19C000000080924272400C000000130000006A0600003C0000000600000002000000000000A0C57040400000000000000EC000000000BD997140000000001FC136400000000000000EC0000000A0E96472400C00000013000000720600003C000000060000
310
000200000000000080A6E440400000000000000000000000A0B6A07140000000A0C57040400000000000000EC000000000BD9971400C000000130000007A0600003C000000060000000200000000000080A6E440400000000000000000000000A0B6A07140000000001FC136400000000000000EC0000000A0E96472400C00
310
000013000000820600003C0000000600000002000000000000A0C57040400000000000000EC000000000BD9971400000000000C04240000000000000000000000020629C70400C000000130000008A0600003C000000060000000200000000000080A6E440400000000000000000000000A0B6A071400000000000C0424000
310
0000000000000000000020629C70400C00000013000000920600003C00000006000000020000000000000000C04240000000000000000000000020629C704000000060623F42400000000000000E4000000020629C70400C000000130000009A0600003C000000060000000200000000000080A6E440400000000000000000
310
000000A0B6A0714000000060623F42400000000000000E4000000020629C70400C00000013000000A20600003C00000006000000020000000000000000C04240000000000000000000000020629C7040000000A0C57040400000000000000E40000000A00E3E6F400C00000013000000AA0600003C00000006000000020000
310
0000000060623F42400000000000000E4000000020629C7040000000A0C57040400000000000000E40000000A00E3E6F400C00000013000000B20600003C0000000600000002000000000000A0C57040400000000000000E40000000A00E3E6F40000000005F683E400000004013FB1940000000202C646F400C0000001300
310
0000BA0600003C000000060000000200000000000060623F42400000000000000E4000000020629C7040000000005F683E400000004013FB1940000000202C646F400C00000013000000C20600003C0000000600000002000000000000A0F30A35400000004013FB19400000008063EC6D40000000A0C57040400000000000
310
000E40000000A00E3E6F400C00000013000000CA0600003C0000000600000002000000000000A0F30A35400000004013FB19400000008063EC6D40000000005F683E400000004013FB1940000000202C646F400C00000013000000D20600003C0000000600000002000000000000E066B432400000000000001E4000000060
310
354A6E40000000005F683E400000004013FB1940000000202C646F400C00000013000000DA0600003C00000006000000020000000000000000003EC00000000000001E4000000020629C7040000000C082A637C00000004013FB1940000000609D5271400C00000013000000E20600003C0000000600000002000000000000
310
0000403AC00000004013FB194000000020629C7040000000C082A637C00000004013FB1940000000609D5271400C00000013000000EA0600003C00000006000000020000000000000000003EC00000000000001E4000000020629C7040000000E070073BC00000000000001E40000000C0A56C71400C00000013000000F206
310
00003C0000000600000002000000000000E070073BC00000000000001E40000000C0A56C7140000000C082A637C00000004013FB1940000000609D5271400C00000013000000FA0600003C0000000600000002000000000000E070073BC00000000000001E40000000C0A56C714000000000DA5D30C00000004013FB194000
310
0000A0C0E471400C00000013000000020700003C0000000600000002000000000000C082A637C00000004013FB1940000000609D52714000000000DA5D30C00000004013FB1940000000A0C0E471400C000000130000000A0700003C0000000600000002000000000000E070073BC00000000000001E40000000C0A56C7140
310
000000E066B432C00000000000001E40000000A0A91372400C00000013000000120700003C000000060000000200000000000000DA5D30C00000004013FB1940000000A0C0E47140000000E066B432C00000000000001E40000000A0A91372400C000000130000001A0700003C0000000600000002000000000000E066B432
310
C00000000000001E40000000A0A9137240000000E05C5D17C00000004013FB194000000060DA3572400C00000013000000220700003C000000060000000200000000000000DA5D30C00000004013FB1940000000A0C0E47140000000E05C5D17C00000004013FB194000000060DA3572400C000000130000002A0700003C00
310
00000600000002000000000000E066B432C00000000000001E40000000A0A9137240000000E0D7B31AC00000000000001E4000000040597072400C00000013000000320700003C0000000600000002000000000000E0D7B31AC00000000000001E400000004059707240000000E05C5D17C00000004013FB194000000060DA
310
3572400C000000130000003A0700003C0000000600000002000000000000E05C5D17400000004013FB194000000060DA357240000000E0D7B31AC00000000000001E4000000040597072400C00000013000000420700003C0000000600000002000000000000E05C5D17400000004013FB194000000060DA357240000000E0
310
5C5D17C00000004013FB194000000060DA3572400C000000130000004A0700003C0000000600000002000000000000E0D7B31A400000000000001E400000004059707240000000E0D7B31AC00000000000001E4000000040597072400C00000013000000520700003C0000000600000002000000000000E05C5D1740000000
310
4013FB194000000060DA357240000000E0D7B31A400000000000001E4000000040597072400C000000130000005A0700003C0000000600000002000000000000E0D7B31A400000000000001E40000000405970724000000000DA5D30400000004013FB1940000000A0C0E471400C00000013000000620700003C0000000600
310
000002000000000000E05C5D17400000004013FB194000000060DA35724000000000DA5D30400000004013FB1940000000A0C0E471400C000000130000006A0700003C0000000600000002000000000000E0D7B31A400000000000001E400000004059707240000000E066B432400000000000001E40000000A0A91372400C
310
00000013000000720700003C0000000600000002000000000000E066B432400000000000001E40000000A0A913724000000000DA5D30400000004013FB1940000000A0C0E471400C000000130000007A0700003C0000000600000002000000000000C082A637400000004013FB1940000000609D527140000000E066B43240
310
0000000000001E40000000A0A91372400C00000013000000820700003C0000000600000002000000000000C082A637400000004013FB1940000000609D52714000000000DA5D30400000004013FB1940000000A0C0E471400C000000130000008A0700003C0000000600000002000000000000E070073B400000000000001E
310
40000000C0A56C7140000000E066B432400000000000001E40000000A0A91372400C00000013000000920700003C0000000600000002000000000000C082A637400000004013FB1940000000609D527140000000E070073B400000000000001E40000000C0A56C71400C000000130000009A0700003C000000060000000200
310
0000000000E070073B400000000000001E40000000C0A56C71400000000000403A400000004013FB194000000020629C70400C00000013000000A20700003C0000000600000002000000000000C082A637400000004013FB1940000000609D5271400000000000403A400000004013FB194000000020629C70400C00000013
310
000000AA0700003C0000000600000002000000000000E070073B400000000000001E40000000C0A56C71400000000000003E400000000000001E4000000020629C70400C00000013000000B20700003C00000006000000020000000000000000003E400000000000001E4000000020629C70400000000000403A4000000040
310
13FB194000000020629C70400C00000013000000BA0700003C00000006000000020000000000000000403A400000004013FB194000000020629C7040000000C082A637400000004013FB1940000000E04DCC6F400C00000013000000C20700003C00000006000000020000000000000000403AC00000004013FB1940000000
310
20629C704000000080562D35C00000000000000E40000000A08E3F71400C00000013000000CA0700003C000000060000000200000000000060623F42C00000000000000E4000000020629C7040000000005F683EC00000004013FB194000000040AE8671400C00000013000000D20700003C00000006000000020000000000
310
000000E040C00000004013FB194000000020629C7040000000005F683EC00000004013FB194000000040AE8671400C00000013000000DA0700003C000000060000000200000000000060623F42C00000000000000E4000000020629C7040000000A0C57040C00000000000000E4000000000BD9971400C00000013000000E2
310
0700003C0000000600000002000000000000A0C57040C00000000000000E4000000000BD997140000000005F683EC00000004013FB194000000040AE8671400C00000013000000EA0700003C0000000600000002000000000000A0C57040C00000000000000E4000000000BD997140000000A0F30A35C00000004013FB1940
310
00000080924272400C00000013000000F20700003C0000000600000002000000000000005F683EC00000004013FB194000000040AE867140000000A0F30A35C00000004013FB194000000080924272400C00000013000000FA0700003C0000000600000002000000000000A0C57040C00000000000000E4000000000BD9971
310
40000000001FC136C00000000000000E40000000A0E96472400C00000013000000020800003C0000000600000002000000000000A0F30A35C00000004013FB19400000008092427240000000001FC136C00000000000000E40000000A0E96472400C000000130000000A0800003C0000000600000002000000000000001FC1
310
36C00000000000000E40000000A0E9647240000000C0520A1EC00000004013FB194000000020D8AA72400C00000013000000120800003C0000000600000002000000000000A0F30A35C00000004013FB19400000008092427240000000C0520A1EC00000004013FB194000000020D8AA72400C000000130000001A0800003C
310
0000000600000002000000000000001FC136C00000000000000E40000000A0E964724000000060EC3D20C00000000000000E4000000080AAD572400C00000013000000220800003C000000060000000200000000000060EC3D20C00000000000000E4000000080AAD57240000000C0520A1EC00000004013FB194000000020
310
D8AA72400C000000130000002A0800003C0000000600000002000000000000C0520A1E400000004013FB194000000020D8AA724000000060EC3D20C00000000000000E4000000080AAD572400C00000013000000320800003C0000000600000002000000000000C0520A1E400000004013FB194000000020D8AA7240000000
310
C0520A1EC00000004013FB194000000020D8AA72400C000000130000003A0800003C000000060000000200000000000060EC3D20400000000000000E4000000080AAD5724000000060EC3D20C00000000000000E4000000080AAD572400C00000013000000420800003C0000000600000002000000000000C0520A1E400000
310
004013FB194000000020D8AA724000000060EC3D20400000000000000E4000000080AAD572400C000000130000004A0800003C000000060000000200000000000060EC3D20400000000000000E4000000080AAD57240000000A0F30A35400000004013FB194000000080924272400C00000013000000520800003C00000006
310
00000002000000000000C0520A1E400000004013FB194000000020D8AA7240000000A0F30A35400000004013FB194000000080924272400C000000130000005A0800003C000000060000000200000000000060EC3D20400000000000000E4000000080AAD57240000000001FC136400000000000000E40000000A0E9647240
310
0C00000013000000620800003C0000000600000002000000000000001FC136400000000000000E40000000A0E9647240000000A0F30A35400000004013FB194000000080924272400C000000130000006A0800003C0000000600000002000000000000005F683E400000004013FB194000000040AE867140000000A0F30A35
310
400000004013FB194000000080924272400C00000013000000720800003C00000006000000020000000000000000E040C00000004013FB194000000020629C7040000000E070073BC00000000000001E40000000C0A56C71400C000000130000007A0800003C000000060000000200000000000060623F42C0000000000000
310
0EC000000020629C704000000080A6E440C00000000000000000000000A0B6A071400C00000013000000820800003C00000006000000020000000000000000C042C0000000000000000000000020629C704000000080A6E440C00000000000000000000000A0B6A071400C000000130000008A0800003C0000000600000002
310
00000000000060623F42C00000000000000EC000000020629C7040000000A0C57040C00000000000000EC000000000BD9971400C00000013000000920800003C0000000600000002000000000000A0C57040C00000000000000EC000000000BD99714000000080A6E440C00000000000000000000000A0B6A071400C000000
310
130000009A0800003C0000000600000002000000000000A0C57040C00000000000000EC000000000BD99714000000080806137C00000000000000000000000807B7172400C00000013000000A20800003C000000060000000200000000000080A6E440C00000000000000000000000A0B6A0714000000080806137C0000000
310
0000000000000000807B7172400C00000013000000AA0800003C0000000600000002000000000000A0C57040C00000000000000EC000000000BD997140000000001FC136C00000000000000EC0000000A0E96472400C00000013000000B20800003C000000060000000200000000000080806137C000000000000000000000
310
00807B717240000000001FC136C00000000000000EC0000000A0E96472400C00000013000000BA0800003C0000000600000002000000000000001FC136C00000000000000EC0000000A0E9647240000000E066B020C000000000000000000000002057E572400C00000013000000C20800003C000000060000000200000000
310
000080806137C00000000000000000000000807B717240000000E066B020C000000000000000000000002057E572400C00000013000000CA0800003C0000000600000002000000000000001FC136C00000000000000EC0000000A0E964724000000060EC3D20C00000000000000EC000000080AAD572400C00000013000000
310
D20800003C000000060000000200000000000060EC3D20C00000000000000EC000000080AAD57240000000E066B020C000000000000000000000002057E572400C00000013000000DA0800003C0000000600000002000000000000E066B0204000000000000000000000002057E57240000000E066B020C000000000000000
310
000000002057E572400C00000013000000E20800003C00000006000000020000000000000000C042C0000000000000000000000020629C7040000000A0C57040C00000000000000E4000000000BD9971400C00000013000000EA0800003C00000006000000020000000000000000003EC00000000000001EC000000020629C
310
7040000000005F683EC00000004013FB19C000000040AE8671400C00000013000000F20800003C00000006000000020000000000000000E040C00000004013FB19C000000020629C7040000000005F683EC00000004013FB19C000000040AE8671400C00000013000000FA0800003C00000006000000020000000000000000
310
003EC00000000000001EC000000020629C7040000000E070073BC00000000000001EC0000000C0A56C71400C00000013000000020900003C0000000600000002000000000000E070073BC00000000000001EC0000000C0A56C7140000000005F683EC00000004013FB19C000000040AE8671400C000000130000000A090000
310
3C0000000600000002000000000000005F683EC00000004013FB19C000000040AE867140000000A0F30A35C00000004013FB19C000000080924272400C00000013000000120900003C00000006000000020000000000000000E040C00000004013FB19C000000020629C7040000000A0C57040C00000000000000EC0000000
310
00BD9971400C000000130000001A0900003C0000000600000002000000000000409A0E2CC0000000000000000000000020D9056F40000000605D4F2DC00000000000000EC000000080B5EC6E400C00000013000000220900003C000000060000000200000000000000008026C00000000000000000000000803AC96E400000
310
00605D4F2DC00000000000000EC000000080B5EC6E400C000000130000002A0900003C000000060000000200000000000080562D35C00000000000000EC0000000606BF26F40000000605D4F2DC00000000000000EC000000080B5EC6E400C00000013000000320900003C0000000600000002000000000000C082A637C000
310
00004013FB19C0000000E04DCC6F40000000605D4F2DC00000000000000EC000000080B5EC6E400C000000130000003A0900003C0000000600000002000000000000A0944534400000000000000000000000E09438714000000080562D35400000000000000E40000000A08E3F71400C00000013000000420900003C000000
310
06000000020000000000000000803640000000000000000000000020629C704000000080562D35400000000000000E40000000A08E3F71400C000000130000004A0900003C0000000600000002000000000000A0944534400000000000000000000000E094387140000000605D4F2D400000000000000E400000008069C271
310
400C00000013000000520900003C000000060000000200000000000080562D35400000000000000E40000000A08E3F7140000000605D4F2D400000000000000E400000008069C271400C000000130000005A0900003C000000060000000200000000000000DA5D30400000004013FB1940000000A0C0E47140000000605D4F
310
2D400000000000000E400000008069C271400C00000013000000620900003C000000060000000200000000000080562D35400000000000000E40000000A08E3F714000000000DA5D30400000004013FB1940000000A0C0E471400C000000130000006A0900003C0000000600000002000000000000E05C5D17400000004013
310
FB194000000060DA357240000000605D4F2D400000000000000E400000008069C271400C00000013000000720900003C0000000600000002000000000000E0E10614400000000000000000000000805BFB714000000000D7EB14400000000000000E4000000000080B72400C000000130000007A0900003C00000006000000
310
02000000000000000080264000000000000000000000000027D4714000000000D7EB14400000000000000E4000000000080B72400C00000013000000820900003C000000060000000200000000000000D7EB14400000000000000E4000000000080B724000000000D7EB14C00000000000000E4000000000080B72400C0000
310
00130000008A0900003C0000000600000002000000000000E05C5D17C00000004013FB194000000060DA35724000000000D7EB14C00000000000000E4000000000080B72400C00000013000000920900003C000000060000000200000000000000D7EB14400000000000000E4000000000080B7240000000E05C5D17C00000
310
004013FB194000000060DA3572400C000000130000009A0900003C000000060000000200000000000000DA5D30C00000004013FB1940000000A0C0E4714000000000D7EB14C00000000000000E4000000000080B72400C00000013000000A20900003C0000000600000002000000000000E0E10614C0000000000000000000
310
0000805BFB714000000000D7EB14C00000000000000EC000000000080B72400C00000013000000AA0900003C000000060000000200000000000000008026C000000000000000000000000027D4714000000000D7EB14C00000000000000EC000000000080B72400C00000013000000B20900003C0000000600000002000000
310
00000000D7EB14400000000000000EC000000000080B724000000000D7EB14C00000000000000EC000000000080B72400C00000013000000BA0900003C0000000600000002000000000000E05C5D17400000004013FB19C000000060DA35724000000000D7EB14400000000000000EC000000000080B72400C000000130000
310
00C20900003C0000000600000002000000000000E05C5D17400000004013FB19C000000060DA35724000000000D7EB14C00000000000000EC000000000080B72400C00000013000000CA0900003C000000060000000200000000000000D7EB14400000000000000EC000000000080B724000000000DA5D30400000004013FB
310
19C0000000A0C0E471400C00000013000000D20900003C0000000600000002000000000000E05C5D17400000004013FB19C000000060DA35724000000000DA5D30400000004013FB19C0000000A0C0E471400C00000013000000DA0900003C000000060000000200000000000000DA5D30400000004013FB19C0000000A0C0
310
E47140000000E066B432400000000000001EC0000000A0A91372400C00000013000000E20900003C0000000600000002000000000000E05C5D17400000004013FB19C000000060DA357240000000E066B432400000000000001EC0000000A0A91372400C00000013000000EA0900003C0000000600000002000000000000E0
310
70073B400000000000001EC0000000C0A56C714000000000DA5D30400000004013FB19C0000000A0C0E471400C00000013000000F20900003C0000000600000002000000000000E070073B400000000000001EC0000000C0A56C7140000000E066B432400000000000001EC0000000A0A91372400C00000013000000FA0900
310
003C0000000600000002000000000000005F683E400000004013FB19C000000040AE867140000000E070073B400000000000001EC0000000C0A56C71400C00000013000000020A00003C0000000600000002000000000000005F683E400000004013FB19C000000040AE867140000000E066B432400000000000001EC00000
310
00A0A91372400C000000130000000A0A00003C0000000600000002000000000000E070073B400000000000001EC0000000C0A56C71400000000000E040400000004013FB19C000000020629C70400C00000013000000120A00003C0000000600000002000000000000005F683E400000004013FB19C000000040AE86714000
310
00000000E040400000004013FB19C000000020629C70400C000000130000001A0A00003C00000006000000020000000000000000E040400000004013FB19C000000020629C704000000060623F42400000000000000EC000000020629C70400C00000013000000220A00003C0000000600000002000000000000005F683E40
310
0000004013FB19C000000040AE86714000000060623F42400000000000000EC000000020629C70400C000000130000002A0A00003C00000006000000020000000000000000E040400000004013FB19C000000020629C7040000000A0C57040400000000000000EC0000000A00E3E6F400C00000013000000320A00003C0000
310
00060000000200000000000060623F42400000000000000EC000000020629C7040000000A0C57040400000000000000EC0000000A00E3E6F400C000000130000003A0A00003C0000000600000002000000000000A0C57040400000000000000EC0000000A00E3E6F4000000080A6E440400000000000000000000000401B30
310
6F400C00000013000000420A00003C000000060000000200000000000060623F42400000000000000EC000000020629C704000000080A6E440400000000000000000000000401B306F400C000000130000004A0A00003C000000060000000200000000000080806137400000000000000000000000A0918E6D40000000A0C5
310
7040400000000000000EC0000000A00E3E6F400C00000013000000520A00003C000000060000000200000000000080806137400000000000000000000000A0918E6D4000000080A6E440400000000000000000000000401B306F400C000000130000005A0A00003C0000000600000002000000000000001FC1364000000000
310
00000E4000000040B5A76D4000000080A6E440400000000000000000000000401B306F400C00000013000000620A00003C0000000600000002000000000000409A0E2CC00000000000000000000000C0D7B57140000000605D4F2DC00000000000000EC00000008069C271400C000000130000006A0A00003C000000060000
310
000200000000000000008026C000000000000000000000000027D47140000000605D4F2DC00000000000000EC00000008069C271400C00000013000000720A00003C0000000600000002000000000000605D4F2DC00000000000000EC00000008069C2714000000000D7EB14C00000000000000EC000000000080B72400C00
310
0000130000007A0A00003C0000000600000002000000000000409A0E2C400000000000000000000000C0D7B57140000000605D4F2D400000000000000E400000008069C271400C00000013000000820A00003C0000000600000002000000000000000080264000000000000000000000000027D47140000000605D4F2D4000
310
00000000000E400000008069C271400C000000130000008A0A00003C000000060000000200000000000000D7EB14400000000000000E4000000000080B7240000000605D4F2D400000000000000E400000008069C271400C00000013000000920A00003C000000060000000200000000000000D7EB14400000000000000E40
310
00000000080B7240000000E05C5D17400000004013FB194000000060DA3572400C000000130000009A0A00003C00000006000000020000000000000000803640000000000000000000000020629C7040000000403B8137400000000000000E4000000020629C70400C00000013000000A20A00003C00000006000000020000
310
00000000A0944534400000000000000000000000602F007040000000403B8137400000000000000E4000000020629C70400C00000013000000AA0A00003C000000060000000200000000000080562D35400000000000000E40000000A08E3F7140000000403B8137400000000000000E4000000020629C70400C0000001300
310
0000B20A00003C000000060000000200000000000080562D35400000000000000E40000000A08E3F7140000000C082A637400000004013FB1940000000609D5271400C00000013000000BA0A00003C0000000600000002000000000000C082A637400000004013FB1940000000609D527140000000403B8137400000000000
310
000E4000000020629C70400C00000013000000C20A00003C0000000600000002000000000000A0944534400000000000000000000000602F00704000000080562D35400000000000000E40000000606BF26F400C00000013000000CA0A00003C0000000600000002000000000000409A0E2C40000000000000000000000020
310
D9056F4000000080562D35400000000000000E40000000606BF26F400C00000013000000D20A00003C0000000600000002000000000000403B8137400000000000000E4000000020629C704000000080562D35400000000000000E40000000606BF26F400C00000013000000DA0A00003C0000000600000002000000000000
310
0000403A400000004013FB194000000020629C7040000000403B8137400000000000000E4000000020629C70400C00000013000000E20A00003C00000006000000020000000000000000403A400000004013FB194000000020629C704000000080562D35400000000000000E40000000606BF26F400C00000013000000EA0A
310
00003C0000000600000002000000000000E0E10614C00000000000000000000000A0D17A6E4000000000D7EB14C00000000000000EC000000080785B6E400C00000013000000F20A00003C0000000600000002000000000000E0E10614400000000000000000000000A0D17A6E4000000000D7EB14C00000000000000EC000
310
000080785B6E400C00000013000000FA0A00003C000000060000000200000000000000008026C00000000000000000000000803AC96E4000000000D7EB14C00000000000000EC000000080785B6E400C00000013000000020B00003C000000060000000200000000000000D7EB14C00000000000000EC000000080785B6E40
310
000000605D4F2DC00000000000000EC000000080B5EC6E400C000000130000000A0B00003C000000060000000200000000000080562D35C00000000000000E40000000606BF26F40000000605D4F2DC00000000000000E4000000080B5EC6E400C00000013000000120B00003C0000000600000002000000000000403B8137
310
C00000000000000EC000000020629C704000000080562D35C00000000000000EC0000000A08E3F71400C000000130000001A0B00003C000000060000000200000000000080562D35C00000000000000EC0000000A08E3F7140000000C082A637C00000004013FB19C0000000609D5271400C00000013000000220B00003C00
310
0000060000000200000000000000D7EB14C00000000000000EC000000080785B6E4000000000D7EB14400000000000000EC000000080785B6E400C000000130000002A0B00003C0000000600000002000000000000605D4F2D400000000000000E4000000080B5EC6E4000000080562D35400000000000000E40000000606B
310
F26F400C00000013000000320B00003C0000000600000002000000000000C082A637C00000004013FB19C0000000609D52714000000000DA5D30C00000004013FB19C0000000A0C0E471400C000000130000003A0B00003C0000000600000002000000000000E066B432C00000000000001EC0000000A0A913724000000000
310
DA5D30C00000004013FB19C0000000A0C0E471400C00000013000000420B00003C0000000600000002000000000000005F683EC00000004013FB19C000000040AE867140000000A0C57040C00000000000000EC000000000BD9971400C000000130000004A0B00003C0000000600000002000000000000005F683EC0000000
310
4013FB19C000000040AE867140000000001FC136C00000000000000EC0000000A0E96472400C00000013000000520B00003C0000000600000002000000000000001FC136C00000000000000EC0000000A0E9647240000000A0F30A35C00000004013FB19C000000080924272400C000000130000005A0B00003C0000000600
310
00000200000000000080A6E440C00000000000000000000000A0B6A07140000000A0C57040C00000000000000E4000000000BD9971400C00000013000000620B00003C000000060000000200000000000080A6E440C00000000000000000000000A0B6A07140000000001FC136C00000000000000E40000000A0E96472400C
310
000000130000006A0B00003C0000000600000002000000000000001FC136C00000000000000E40000000A0E964724000000080806137C00000000000000000000000807B7172400C00000013000000720B00003C0000000600000002000000000000005F683EC00000004013FB194000000040AE867140000000E070073BC0
310
0000000000001E40000000C0A56C71400C000000130000007A0B00003C0000000600000002000000000000005F683EC00000004013FB194000000040AE867140000000E066B432C00000000000001E40000000A0A91372400C00000013000000820B00003C0000000600000002000000000000E066B432C00000000000001E
310
40000000A0A9137240000000A0F30A35C00000004013FB194000000080924272400C000000130000008A0B00003C0000000600000002000000000000C082A637C00000004013FB1940000000609D52714000000080562D35C00000000000000E40000000A08E3F71400C00000013000000920B00003C000000060000000200
310
0000000000C082A637C00000004013FB1940000000609D527140000000605D4F2DC00000000000000E400000008069C271400C000000130000009A0B00003C0000000600000002000000000000605D4F2DC00000000000000E400000008069C2714000000000DA5D30C00000004013FB1940000000A0C0E471400C00000013
310
000000A20B00003C000000060000000200000000000080562D35C00000000000000E40000000606BF26F4000000000DA5D30C00000004013FB19400000004007A86E400C00000013000000AA0B00003C0000000600000002000000000000C082A637C00000004013FB1940000000E04DCC6F4000000000DA5D30C000000040
310
13FB19400000004007A86E400C00000013000000B20B00003C000000060000000200000000000000DA5D30C00000004013FB19400000004007A86E40000000605D4F2DC00000000000000E4000000080B5EC6E400C00000013000000BA0B00003C0000000600000002000000000000E05C5D17C00000004013FB1940000000
310
C0D3056E40000000605D4F2DC00000000000000E4000000080B5EC6E400C00000013000000C20B00003C0000000600000002000000000000E05C5D17C00000004013FB1940000000C0D3056E4000000000DA5D30C00000004013FB19400000004007A86E400C00000013000000CA0B00003C00000006000000020000000000
310
0000D7EB14C00000000000000E4000000080785B6E40000000E05C5D17C00000004013FB1940000000C0D3056E400C00000013000000D20B00003C000000060000000200000000000000D7EB14C00000000000000E4000000080785B6E40000000E05C5D17400000004013FB1940000000C0D3056E400C00000013000000DA
310
0B00003C0000000600000002000000000000E05C5D17C00000004013FB1940000000C0D3056E40000000E05C5D17400000004013FB1940000000C0D3056E400C00000013000000E20B00003C0000000600000002000000000000C082A637C00000004013FB1940000000E04DCC6F40000000E066B432C00000000000001E40
310
00000060354A6E400C00000013000000EA0B00003C0000000600000002000000000000E070073BC00000000000001E40000000003D986F40000000E066B432C00000000000001E4000000060354A6E400C00000013000000F20B00003C0000000600000002000000000000E066B432C00000000000001E4000000060354A6E
310
4000000000DA5D30C00000004013FB19400000004007A86E400C00000013000000FA0B00003C0000000600000002000000000000E0D7B31AC00000000000001E4000000000D6906D4000000000DA5D30C00000004013FB19400000004007A86E400C00000013000000020C00003C0000000600000002000000000000E0D7B3
310
1AC00000000000001E4000000000D6906D40000000E066B432C00000000000001E4000000060354A6E400C000000130000000A0C00003C0000000600000002000000000000E05C5D17C00000004013FB1940000000C0D3056E40000000E0D7B31AC00000000000001E4000000000D6906D400C00000013000000120C00003C
310
0000000600000002000000000000E05C5D17C00000004013FB1940000000C0D3056E40000000E0D7B31A400000000000001E4000000000D6906D400C000000130000001A0C00003C0000000600000002000000000000E0D7B31AC00000000000001E4000000000D6906D40000000E0D7B31A400000000000001E4000000000
310
D6906D400C00000013000000220C00003C0000000600000002000000000000E070073BC00000000000001E40000000003D986F40000000A0F30A35C00000004013FB19400000008063EC6D400C000000130000002A0C00003C0000000600000002000000000000005F683EC00000004013FB1940000000202C646F40000000
310
A0F30A35C00000004013FB19400000008063EC6D400C00000013000000320C00003C0000000600000002000000000000A0F30A35C00000004013FB19400000008063EC6D40000000E066B432C00000000000001E4000000060354A6E400C000000130000003A0C00003C0000000600000002000000000000C0520A1EC00000
310
004013FB194000000040D81B6D40000000E066B432C00000000000001E4000000060354A6E400C00000013000000420C00003C0000000600000002000000000000C0520A1EC00000004013FB194000000040D81B6D40000000A0F30A35C00000004013FB19400000008063EC6D400C000000130000004A0C00003C00000006
310
00000002000000000000E0D7B31AC00000000000001E4000000000D6906D40000000C0520A1EC00000004013FB194000000040D81B6D400C00000013000000520C00003C0000000600000002000000000000E0D7B31AC00000000000001E4000000000D6906D40000000C0520A1E400000004013FB194000000040D81B6D40
310
0C000000130000005A0C00003C0000000600000002000000000000C0520A1EC00000004013FB194000000040D81B6D40000000C0520A1E400000004013FB194000000040D81B6D400C00000013000000620C00003C0000000600000002000000000000005F683EC00000004013FB1940000000202C646F40000000001FC136
310
C00000000000000E4000000040B5A76D400C000000130000006A0C00003C0000000600000002000000000000A0C57040C00000000000000E40000000A00E3E6F40000000001FC136C00000000000000E4000000040B5A76D400C00000013000000720C00003C0000000600000002000000000000001FC136C0000000000000
310
0E4000000040B5A76D40000000A0F30A35C00000004013FB19400000008063EC6D400C000000130000007A0C00003C000000060000000200000000000060EC3D20C00000000000000E400000008033C66C40000000A0F30A35C00000004013FB19400000008063EC6D400C00000013000000820C00003C0000000600000002
310
00000000000060EC3D20C00000000000000E400000008033C66C40000000001FC136C00000000000000E4000000040B5A76D400C000000130000008A0C00003C0000000600000002000000000000C0520A1EC00000004013FB194000000040D81B6D4000000060EC3D20C00000000000000E400000008033C66C400C000000
310
13000000920C00003C0000000600000002000000000000C0520A1EC00000004013FB194000000040D81B6D4000000060EC3D20400000000000000E400000008033C66C400C000000130000009A0C00003C000000060000000200000000000060EC3D20C00000000000000E400000008033C66C4000000060EC3D2040000000
310
0000000E400000008033C66C400C00000013000000A20C00003C0000000600000002000000000000A0C57040C00000000000000E40000000A00E3E6F4000000080806137C00000000000000000000000A0918E6D400C00000013000000AA0C00003C000000060000000200000000000080A6E440C000000000000000000000
310
00401B306F4000000080806137C00000000000000000000000A0918E6D400C00000013000000B20C00003C000000060000000200000000000080806137C00000000000000000000000A0918E6D40000000001FC136C00000000000000E4000000040B5A76D400C00000013000000BA0C00003C000000060000000200000000
310
0000E066B020C0000000000000000000000060DAA66C40000000001FC136C00000000000000E4000000040B5A76D400C00000013000000C20C00003C0000000600000002000000000000E066B020C0000000000000000000000060DAA66C4000000080806137C00000000000000000000000A0918E6D400C00000013000000
310
CA0C00003C000000060000000200000000000060EC3D20C00000000000000E400000008033C66C40000000E066B020C0000000000000000000000060DAA66C400C00000013000000D20C00003C000000060000000200000000000060EC3D20C00000000000000E400000008033C66C40000000E066B0204000000000000000
310
0000000060DAA66C400C00000013000000DA0C00003C0000000600000002000000000000E066B020C0000000000000000000000060DAA66C40000000E066B02040000000000000000000000060DAA66C400C00000013000000E20C00003C000000060000000200000000000080A6E440C00000000000000000000000401B30
310
6F40000000001FC136C00000000000000EC000000040B5A76D400C00000013000000EA0C00003C0000000600000002000000000000A0C57040C00000000000000EC0000000A00E3E6F40000000001FC136C00000000000000EC000000040B5A76D400C00000013000000F20C00003C0000000600000002000000000000001F
310
C136C00000000000000EC000000040B5A76D4000000080806137C00000000000000000000000A0918E6D400C00000013000000FA0C00003C000000060000000200000000000060EC3D20C00000000000000EC00000008033C66C4000000080806137C00000000000000000000000A0918E6D400C00000013000000020D0000
310
3C000000060000000200000000000060EC3D20C00000000000000EC00000008033C66C40000000001FC136C00000000000000EC000000040B5A76D400C000000130000000A0D00003C0000000600000002000000000000E066B020C0000000000000000000000060DAA66C4000000060EC3D20C00000000000000EC0000000
310
8033C66C400C00000013000000120D00003C0000000600000002000000000000E066B020C0000000000000000000000060DAA66C4000000060EC3D20400000000000000EC00000008033C66C400C000000130000001A0D00003C000000060000000200000000000060EC3D20C00000000000000EC00000008033C66C400000
310
0060EC3D20400000000000000EC00000008033C66C400C00000013000000220D00003C0000000600000002000000000000A0C57040C00000000000000EC0000000A00E3E6F40000000A0F30A35C00000004013FB19C00000008063EC6D400C000000130000002A0D00003C0000000600000002000000000000005F683EC000
310
00004013FB19C0000000202C646F40000000A0F30A35C00000004013FB19C00000008063EC6D400C00000013000000320D00003C0000000600000002000000000000A0F30A35C00000004013FB19C00000008063EC6D40000000001FC136C00000000000000EC000000040B5A76D400C000000130000003A0D00003C000000
310
0600000002000000000000C0520A1EC00000004013FB19C000000040D81B6D40000000001FC136C00000000000000EC000000040B5A76D400C00000013000000420D00003C0000000600000002000000000000C0520A1EC00000004013FB19C000000040D81B6D40000000A0F30A35C00000004013FB19C00000008063EC6D
310
400C000000130000004A0D00003C000000060000000200000000000060EC3D20C00000000000000EC00000008033C66C40000000C0520A1EC00000004013FB19C000000040D81B6D400C00000013000000520D00003C000000060000000200000000000060EC3D20C00000000000000EC00000008033C66C40000000C0520A
310
1E400000004013FB19C000000040D81B6D400C000000130000005A0D00003C0000000600000002000000000000C0520A1EC00000004013FB19C000000040D81B6D40000000C0520A1E400000004013FB19C000000040D81B6D400C00000013000000620D00003C0000000600000002000000000000005F683EC00000004013
310
FB19C0000000202C646F40000000E066B432C00000000000001EC000000060354A6E400C000000130000006A0D00003C0000000600000002000000000000E070073BC00000000000001EC0000000003D986F40000000E066B432C00000000000001EC000000060354A6E400C00000013000000720D00003C00000006000000
310
02000000000000E066B432C00000000000001EC000000060354A6E40000000A0F30A35C00000004013FB19C00000008063EC6D400C000000130000007A0D00003C0000000600000002000000000000E0D7B31AC00000000000001EC000000000D6906D40000000A0F30A35C00000004013FB19C00000008063EC6D400C0000
310
0013000000820D00003C0000000600000002000000000000E0D7B31AC00000000000001EC000000000D6906D40000000E066B432C00000000000001EC000000060354A6E400C000000130000008A0D00003C0000000600000002000000000000C0520A1EC00000004013FB19C000000040D81B6D40000000E0D7B31AC00000
310
000000001EC000000000D6906D400C00000013000000920D00003C0000000600000002000000000000C0520A1EC00000004013FB19C000000040D81B6D40000000E0D7B31A400000000000001EC000000000D6906D400C000000130000009A0D00003C0000000600000002000000000000E0D7B31AC00000000000001EC000
310
000000D6906D40000000E0D7B31A400000000000001EC000000000D6906D400C00000013000000A20D00003C0000000600000002000000000000E070073BC00000000000001EC0000000003D986F4000000000DA5D30C00000004013FB19C00000004007A86E400C00000013000000AA0D00003C0000000600000002000000
310
000000C082A637C00000004013FB19C0000000E04DCC6F4000000000DA5D30C00000004013FB19C00000004007A86E400C00000013000000B20D00003C000000060000000200000000000000DA5D30C00000004013FB19C00000004007A86E40000000E066B432C00000000000001EC000000060354A6E400C000000130000
310
00BA0D00003C0000000600000002000000000000E05C5D17C00000004013FB19C0000000C0D3056E40000000E066B432C00000000000001EC000000060354A6E400C00000013000000C20D00003C0000000600000002000000000000E05C5D17C00000004013FB19C0000000C0D3056E4000000000DA5D30C00000004013FB
310
19C00000004007A86E400C00000013000000CA0D00003C0000000600000002000000000000E0D7B31AC00000000000001EC000000000D6906D40000000E05C5D17C00000004013FB19C0000000C0D3056E400C00000013000000D20D00003C0000000600000002000000000000E0D7B31AC00000000000001EC000000000D6
310
906D40000000E05C5D17400000004013FB19C0000000C0D3056E400C00000013000000DA0D00003C0000000600000002000000000000E05C5D17C00000004013FB19C0000000C0D3056E40000000E05C5D17400000004013FB19C0000000C0D3056E400C00000013000000E20D00003C0000000600000002000000000000E0
310
5C5D17C00000004013FB19C0000000C0D3056E4000000000D7EB14C00000000000000EC000000080785B6E400C00000013000000EA0D00003C000000060000000200000000000000D7EB14C00000000000000EC000000080785B6E4000000000DA5D30C00000004013FB19C00000004007A86E400C00000013000000F20D00
310
003C0000000600000002000000000000605D4F2DC00000000000000EC000000080B5EC6E4000000000DA5D30C00000004013FB19C00000004007A86E400C00000013000000FA0D00003C0000000600000002000000000000E05C5D17C00000004013FB19C0000000C0D3056E4000000000D7EB14400000000000000EC00000
310
0080785B6E400C00000013000000020E00003C0000000600000002000000000000C082A637400000004013FB1940000000E04DCC6F4000000080562D35400000000000000E40000000606BF26F400C000000130000000A0E00003C0000000600000002000000000000E066B432400000000000001E4000000060354A6E4000
310
0000E070073B400000000000001E40000000003D986F400C00000013000000120E00003C0000000600000002000000000000005F683E400000004013FB1940000000202C646F40000000E070073B400000000000001E40000000003D986F400C000000130000001A0E00003C0000000600000002000000000000001FC13640
310
0000000000000E4000000040B5A76D40000000A0C57040400000000000000E40000000A00E3E6F400C00000013000000220E00003C000000060000000200000000000080A6E440400000000000000000000000401B306F40000000A0C57040400000000000000E40000000A00E3E6F400C000000130000002A0E00003C0000
310
000600000002000000000000001FC136400000000000000EC000000040B5A76D40000000A0C57040400000000000000EC0000000A00E3E6F400C00000013000000320E00003C0000000600000002000000000000005F683E400000004013FB19C0000000202C646F40000000A0C57040400000000000000EC0000000A00E3E
310
6F400C000000130000003A0E00003C0000000600000002000000000000001FC136400000000000000EC000000040B5A76D40000000005F683E400000004013FB19C0000000202C646F400C00000013000000420E00003C0000000600000002000000000000A0F30A35400000004013FB19C00000008063EC6D40000000005F
310
683E400000004013FB19C0000000202C646F400C000000130000004A0E00003C0000000600000002000000000000E070073B400000000000001EC0000000003D986F40000000005F683E400000004013FB19C0000000202C646F400C00000013000000520E00003C0000000600000002000000000000A0F30A354000000040
310
13FB19C00000008063EC6D40000000E070073B400000000000001EC0000000003D986F400C000000130000005A0E00003C0000000600000002000000000000E066B432400000000000001EC000000060354A6E40000000E070073B400000000000001EC0000000003D986F400C00000013000000620E00003C000000060000
310
0002000000000000C082A637400000004013FB19C0000000E04DCC6F40000000E070073B400000000000001EC0000000003D986F400C000000130000006A0E00003C0000000600000002000000000000E066B432400000000000001EC000000060354A6E40000000C082A637400000004013FB19C0000000E04DCC6F400C00
310
000013000000720E00003C000000060000000200000000000000DA5D30400000004013FB19C00000004007A86E40000000C082A637400000004013FB19C0000000E04DCC6F400C000000130000007A0E00003C000000060000000200000000000080562D35400000000000000EC0000000606BF26F40000000C082A6374000
310
00004013FB19C0000000E04DCC6F400C00000013000000820E00003C000000060000000200000000000000DA5D30400000004013FB19C00000004007A86E4000000080562D35400000000000000EC0000000606BF26F400C000000130000008A0E00003C0000000600000002000000000000E070073B400000000000001E40
310
000000C0A56C7140000000005F683E400000004013FB194000000040AE8671400C00000013000000920E00003C0000000600000002000000000000E070073B400000000000001E40000000C0A56C7140000000A0F30A35400000004013FB194000000080924272400C000000130000009A0E00003C00000006000000020000
310
00000000A0F30A35400000004013FB19400000008092427240000000E066B432400000000000001E40000000A0A91372400C00000013000000A20E00003C0000000600000002000000000000A0C57040400000000000000E4000000000BD99714000000060623F42400000000000000E4000000020629C70400C0000001300
310
0000AA0E00003C000000060000000200000000000060623F42400000000000000E4000000020629C70400000000000E040400000004013FB194000000020629C70400C00000013000000B20E00003C0000000600000002000000000000A0C57040400000000000000E4000000000BD99714000000080A6E440400000000000
310
000000000000A0B6A071400C00000013000000BA0E00003C000000060000000200000000000080A6E440400000000000000000000000A0B6A0714000000080806137400000000000000000000000807B7172400C00000013000000C20E00003C0000000600000002000000000000001FC136400000000000000EC0000000A0
310
E964724000000080806137400000000000000000000000807B7172400C00000013000000CA0E00003C0000000600000002000000000000A0C57040400000000000000EC000000000BD99714000000060623F42400000000000000EC000000020629C70400C00000013000000D20E00003C0000000600000002000000000000
310
60623F42400000000000000EC000000020629C70400000000000C04240000000000000000000000020629C70400C00000013000000DA0E00003C0000000600000002000000000000A0C57040400000000000000EC000000000BD997140000000005F683E400000004013FB19C000000040AE8671400C00000013000000E20E
310
00003C0000000600000002000000000000005F683E400000004013FB19C000000040AE867140000000A0F30A35400000004013FB19C000000080924272400C00000013000000EA0E00003C0000000600000002000000000000E066B432400000000000001EC0000000A0A9137240000000A0F30A35400000004013FB19C000
310
000080924272400C00000013000000F20E00003C0000000600000002000000000000E070073B400000000000001EC0000000C0A56C7140000000C082A637400000004013FB19C0000000609D5271400C00000013000000FA0E00003C0000000600000002000000000000C082A637400000004013FB19C0000000609D527140
310
0000000000003E400000000000001EC000000020629C70400C00000013000000020F00003C0000000600000002000000000000E070073B400000000000001EC0000000C0A56C71400000000000003E400000000000001EC000000020629C70400C000000130000000A0F00003C0000000600000002000000000000C082A637
310
400000004013FB19C0000000609D5271400000000000403A400000004013FB19C000000020629C70400C00000013000000120F00003C00000006000000020000000000000000403A400000004013FB19C000000020629C70400000000000003E400000000000001EC000000020629C70400C000000130000001A0F00003C00
310
000006000000020000000000000000403A400000004013FB19C000000020629C7040000000E070073B400000000000001EC0000000003D986F400C00000013000000220F00003C00000006000000020000000000000000003E400000000000001EC000000020629C7040000000E070073B400000000000001EC0000000003D
310
986F400C000000130000002A0F00003C00000006000000020000000000000000403A400000004013FB19C000000020629C7040000000C082A637400000004013FB19C0000000E04DCC6F400C00000013000000320F00003C0000000600000002000000000000C082A637400000004013FB19C0000000609D52714000000080
310
562D35400000000000000EC0000000A08E3F71400C000000130000003A0F00003C000000060000000200000000000080562D35400000000000000EC0000000A08E3F71400000000000403A400000004013FB19C000000020629C70400C00000013000000420F00003C0000000600000002000000000000403B813740000000
310
0000000EC000000020629C70400000000000403A400000004013FB19C000000020629C70400C000000130000004A0F00003C0000000600000002000000000000403B8137400000000000000EC000000020629C7040000000C082A637400000004013FB19C0000000E04DCC6F400C00000013000000520F00003C0000000600
310
000002000000000000C082A637400000004013FB19C0000000609D52714000000000DA5D30400000004013FB19C0000000A0C0E471400C000000130000005A0F00003C0000000600000002000000000000605D4F2D400000000000000EC00000008069C2714000000000DA5D30400000004013FB19C0000000A0C0E471400C
310
00000013000000620F00003C0000000600000002000000000000C082A637400000004013FB19C0000000609D527140000000605D4F2D400000000000000EC00000008069C271400C000000130000006A0F00003C00000006000000020000000000000000003E400000000000001EC000000020629C70400000000000E04040
310
0000004013FB19C000000020629C70400C00000013000000720F00003C00000006000000020000000000000000003E400000000000001EC000000020629C7040000000005F683E400000004013FB19C0000000202C646F400C000000130000007A0F00003C00000006000000020000000000000000E040400000004013FB19
310
C000000020629C7040000000005F683E400000004013FB19C0000000202C646F400C00000013000000820F00003C00000006000000020000000000000000C04240000000000000000000000020629C704000000080A6E440400000000000000000000000401B306F400C000000130000008A0F00003C000000060000000200
310
00000000000000E040400000004013FB194000000020629C7040000000005F683E400000004013FB1940000000202C646F400C00000013000000920F00003C0000000600000002000000000000C0520A1E400000004013FB194000000020D8AA7240000000E066B432400000000000001E40000000A0A91372400C00000013
310
0000009A0F00003C0000000600000002000000000000E0D7B31A400000000000001E400000004059707240000000C0520A1E400000004013FB194000000020D8AA72400C00000013000000A20F00003C0000000600000002000000000000E0D7B31A400000000000001E400000004059707240000000C0520A1EC000000040
310
13FB194000000020D8AA72400C00000013000000AA0F00003C0000000600000002000000000000C0520A1EC00000004013FB194000000020D8AA7240000000E0D7B31AC00000000000001E4000000040597072400C00000013000000B20F00003C0000000600000002000000000000A0F30A35C00000004013FB1940000000
310
8092427240000000E0D7B31AC00000000000001E4000000040597072400C00000013000000BA0F00003C000000060000000200000000000060EC3D20400000000000000E4000000080AAD57240000000E066B0204000000000000000000000002057E572400C00000013000000C20F00003C00000006000000020000000000
310
0060EC3D20400000000000000E4000000080AAD57240000000E066B020C000000000000000000000002057E572400C00000013000000CA0F00003C0000000600000002000000000000E066B020C000000000000000000000002057E5724000000060EC3D20C00000000000000E4000000080AAD572400C00000013000000D2
310
0F00003C000000060000000200000000000060EC3D20400000000000000EC000000080AAD57240000000001FC136400000000000000EC0000000A0E96472400C00000013000000DA0F00003C000000060000000200000000000060EC3D20400000000000000EC000000080AAD57240000000C0520A1E400000004013FB19C0
310
00000020D8AA72400C00000013000000E20F00003C0000000600000002000000000000C0520A1E400000004013FB19C000000020D8AA7240000000C0520A1EC00000004013FB19C000000020D8AA72400C00000013000000EA0F00003C0000000600000002000000000000E0D7B31AC00000000000001EC000000040597072
310
40000000C0520A1EC00000004013FB19C000000020D8AA72400C00000013000000F20F00003C0000000600000002000000000000E066B432C00000000000001EC0000000A0A9137240000000E0D7B31AC00000000000001EC000000040597072400C00000013000000FA0F00003C0000000600000002000000000000E0D7B3
310
1A400000000000001EC00000004059707240000000E066B432400000000000001EC0000000A0A91372400C00000013000000021000003C0000000600000002000000000000E0D7B31A400000000000001EC00000004059707240000000E05C5D17400000004013FB19C000000060DA3572400C000000130000000A1000003C
310
0000000600000002000000000000E05C5D17400000004013FB19C000000060DA357240000000E05C5D17C00000004013FB19C000000060DA3572400C00000013000000121000003C000000060000000200000000000000D7EB14C00000000000000EC000000000080B7240000000E05C5D17C00000004013FB19C000000060
310
DA3572400C000000130000001A1000003C000000060000000200000000000080806137C00000000000000000000000807B71724000000060EC3D20C00000000000000E4000000080AAD572400C00000013000000221000003C000000060000000200000000000060C3F6284000000060B40E1A40000000E0B6226E40000000
310
60C3F6284000000060B40E1A40000000E0B6626F400C000000130000002A1000003C0000000600000002000000000000C06AD32C40000000C0B425E6BF000000E0B6226E4000000060C3F6284000000060B40E1A40000000E0B6626F400C00000013000000321000003C0000000600000002000000000000C06AD32C400000
310
00C0B425E6BF000000E0B6226E4000000060C3F6284000000060B40E1A40000000E0B6226E400C000000130000003A1000003C0000000600000002000000000000C06AD32C40000000C0B425E6BF000000E0B6626F4000000060C3F6284000000060B40E1A40000000E0B6626F400C00000013000000421000003C00000006
310
00000002000000000000C06AD32C40000000C0B425E6BF000000E0B6226E40000000C06AD32C40000000C0B425E6BF000000E0B6626F400C000000130000004A1000003C000000060000000200000000000060C3F628400000006021981FC0000000E0B6226E40000000C06AD32C40000000C0B425E6BF000000E0B6626F40
310
0C00000013000000521000003C0000000600000002000000000000C06AD32C40000000C0B425E6BF000000E0B6226E4000000060C3F628400000006021981FC0000000E0B6226E400C000000130000005A1000003C0000000600000002000000000000C06AD32C40000000C0B425E6BF000000E0B6626F4000000060C3F628
310
400000006021981FC0000000E0B6626F400C00000013000000621000003C000000060000000200000000000060C3F628400000006021981FC0000000E0B6226E4000000060C3F628400000006021981FC0000000E0B6626F400C000000130000006A1000003C0000000600000002000000000000C06AD31C40000000801E59
310
2AC0000000E0B6226E4000000060C3F628400000006021981FC0000000E0B6626F400C00000013000000721000003C0000000600000002000000000000C06AD31C40000000801E592AC0000000E0B6226E4000000060C3F628400000006021981FC0000000E0B6226E400C000000130000007A1000003C0000000600000002
310
00000000000060C3F628400000006021981FC0000000E0B6626F40000000C06AD31C40000000801E592AC0000000E0B6626F400C00000013000000821000003C0000000600000002000000000000C06AD31C40000000801E592AC0000000E0B6226E40000000C06AD31C40000000801E592AC0000000E0B6626F400C000000
310
130000008A1000003C0000000600000002000000000000C0F7CBCF3C00000040C6352EC0000000E0B6226E40000000C06AD31C40000000801E592AC0000000E0B6626F400C00000013000000921000003C0000000600000002000000000000C0F7CBCF3C00000040C6352EC0000000E0B6226E40000000C06AD31C40000000
310
801E592AC0000000E0B6226E400C000000130000009A1000003C0000000600000002000000000000C06AD31C40000000801E592AC0000000E0B6626F40000000E0F9D8E7BC00000040C6352EC0000000E0B6626F400C00000013000000A21000003C0000000600000002000000000000C0F7CBCF3C00000040C6352EC00000
310
00E0B6226E40000000E0F9D8E7BC00000040C6352EC0000000E0B6626F400C00000013000000AA1000003C0000000600000002000000000000C06AD31CC0000000801E592AC0000000E0B6226E40000000E0F9D8E7BC00000040C6352EC0000000E0B6626F400C00000013000000B21000003C000000060000000200000000
310
0000C06AD31CC0000000801E592AC0000000E0B6226E40000000C0F7CBCF3C00000040C6352EC0000000E0B6226E400C00000013000000BA1000003C0000000600000002000000000000E0F9D8E7BC00000040C6352EC0000000E0B6626F40000000C06AD31CC0000000801E592AC0000000E0B6626F400C00000013000000
310
C21000003C0000000600000002000000000000C06AD31CC0000000801E592AC0000000E0B6226E40000000C06AD31CC0000000801E592AC0000000E0B6626F400C00000013000000CA1000003C000000060000000200000000000060C3F628C00000006021981FC0000000E0B6226E40000000C06AD31CC0000000801E592A
310
C0000000E0B6626F400C00000013000000D21000003C000000060000000200000000000060C3F628C00000006021981FC0000000E0B6226E40000000C06AD31CC0000000801E592AC0000000E0B6226E400C00000013000000DA1000003C0000000600000002000000000000C06AD31CC0000000801E592AC0000000E0B662
310
6F4000000060C3F628C00000006021981FC0000000E0B6626F400C00000013000000E21000003C000000060000000200000000000060C3F628C00000006021981FC0000000E0B6226E4000000060C3F628C00000006021981FC0000000E0B6626F400C00000013000000EA1000003C0000000600000002000000000000C06A
310
D32CC0000000C0B425E6BF000000E0B6226E4000000060C3F628C00000006021981FC0000000E0B6626F400C00000013000000F21000003C0000000600000002000000000000C06AD32CC0000000C0B425E6BF000000E0B6226E4000000060C3F628C00000006021981FC0000000E0B6226E400C00000013000000FA100000
310
3C000000060000000200000000000060C3F628C00000006021981FC0000000E0B6626F40000000C06AD32CC0000000C0B425E6BF000000E0B6626F400C00000013000000021100003C0000000600000002000000000000C06AD32CC0000000C0B425E6BF000000E0B6226E40000000C06AD32CC0000000C0B425E6BF000000
310
E0B6626F400C000000130000000A1100003C000000060000000200000000000060C3F628C000000060B40E1A40000000E0B6226E40000000C06AD32CC0000000C0B425E6BF000000E0B6626F400C00000013000000121100003C000000060000000200000000000060C3F628C000000060B40E1A40000000E0B6226E400000
310
00C06AD32CC0000000C0B425E6BF000000E0B6226E400C000000130000001A1100003C0000000600000002000000000000C06AD32CC0000000C0B425E6BF000000E0B6626F4000000060C3F628C000000060B40E1A40000000E0B6626F400C00000013000000221100003C000000060000000200000000000060C3F628C000
310
000060B40E1A40000000E0B6226E4000000060C3F628C000000060B40E1A40000000E0B6626F400C000000130000002A1100003C0000000600000002000000000000C06AD31CC00000000068942740000000E0B6226E4000000060C3F628C000000060B40E1A40000000E0B6626F400C00000013000000321100003C000000
310
0600000002000000000000C06AD31CC00000000068942740000000E0B6226E4000000060C3F628C000000060B40E1A40000000E0B6226E400C000000130000003A1100003C000000060000000200000000000060C3F628C000000060B40E1A40000000E0B6626F40000000C06AD31CC00000000068942740000000E0B6626F
310
400C00000013000000421100003C0000000600000002000000000000C06AD31CC00000000068942740000000E0B6226E40000000C06AD31CC00000000068942740000000E0B6626F400C000000130000004A1100003C0000000600000002000000000000E0F9D8E7BC000000800F712B40000000E0B6226E40000000C06AD3
310
1CC00000000068942740000000E0B6626F400C00000013000000521100003C0000000600000002000000000000E0F9D8E7BC000000800F712B40000000E0B6226E40000000C06AD31CC00000000068942740000000E0B6226E400C000000130000005A1100003C0000000600000002000000000000C06AD31CC00000000068
310
942740000000E0B6626F40000000C0F7CBCF3C000000800F712B40000000E0B6626F400C00000013000000621100003C0000000600000002000000000000E0F9D8E7BC000000800F712B40000000E0B6226E40000000C0F7CBCF3C000000800F712B40000000E0B6626F400C000000130000006A1100003C00000006000000
310
02000000000000C06AD31C400000000068942740000000E0B6226E40000000C0F7CBCF3C000000800F712B40000000E0B6626F400C00000013000000721100003C0000000600000002000000000000C06AD31C400000000068942740000000E0B6226E40000000E0F9D8E7BC000000800F712B40000000E0B6226E400C0000
310
00130000007A1100003C0000000600000002000000000000C0F7CBCF3C000000800F712B40000000E0B6626F40000000C06AD31C400000000068942740000000E0B6626F400C00000013000000821100003C0000000600000002000000000000C06AD31C400000000068942740000000E0B6226E40000000C06AD31C400000
310
000068942740000000E0B6626F400C000000130000008A1100003C000000060000000200000000000060C3F6284000000060B40E1A40000000E0B6226E40000000C06AD31C400000000068942740000000E0B6626F400C00000013000000921100003C000000060000000200000000000060C3F6284000000060B40E1A4000
310
0000E0B6226E40000000C06AD31C400000000068942740000000E0B6226E400C000000130000009A1100003C0000000600000002000000000000C06AD31C400000000068942740000000E0B6626F4000000060C3F6284000000060B40E1A40000000E0B6626F400C00000013000000A21100003C0000000600000002000000
310
00000060C3F628C00000006021981FC0000000E0B6226E4000000060C3F628400000006021981FC0000000E0B6226E400C00000013000000AA1100003C0000000600000002000000000000C06AD32C40000000C0B425E6BF000000E0B6226E4000000060C3F628C00000006021981FC0000000E0B6226E400C000000130000
310
00B21100003C0000000600000002000000000000C06AD32C40000000C0B425E6BF000000E0B6226E40000000C06AD32CC0000000C0B425E6BF000000E0B6226E400C00000013000000BA1100003C000000060000000200000000000060C3F6284000000060B40E1A40000000E0B6226E40000000C06AD32CC0000000C0B425
310
E6BF000000E0B6226E400C00000013000000C21100003C000000060000000200000000000060C3F6284000000060B40E1A40000000E0B6226E4000000060C3F628C000000060B40E1A40000000E0B6226E400C00000013000000CA1100003C0000000600000002000000000000C06AD31C400000000068942740000000E0B6
310
226E4000000060C3F628C000000060B40E1A40000000E0B6226E400C00000013000000D21100003C0000000600000002000000000000C06AD31C400000000068942740000000E0B6226E40000000C06AD31CC00000000068942740000000E0B6226E400C00000013000000DA1100003C0000000600000002000000000000C0
310
6AD31CC0000000801E592AC0000000E0B6226E4000000060C3F628400000006021981FC0000000E0B6226E400C00000013000000E21100003C0000000600000002000000000000C06AD31CC0000000801E592AC0000000E0B6226E40000000C06AD31C40000000801E592AC0000000E0B6226E400C00000013000000EA1100
310
003C000000060000000200000000000060C3F628C000000060B40E1A40000000E0B6626F4000000060C3F6284000000060B40E1A40000000E0B6626F400C00000013000000F21100003C0000000600000002000000000000C06AD32C40000000C0B425E6BF000000E0B6626F4000000060C3F628C000000060B40E1A400000
310
00E0B6626F400C00000013000000FA1100003C0000000600000002000000000000C06AD32C40000000C0B425E6BF000000E0B6626F40000000C06AD32CC0000000C0B425E6BF000000E0B6626F400C00000013000000021200003C000000060000000200000000000060C3F628400000006021981FC0000000E0B6626F4000
310
0000C06AD32CC0000000C0B425E6BF000000E0B6626F400C000000130000000A1200003C000000060000000200000000000060C3F628400000006021981FC0000000E0B6626F4000000060C3F628C00000006021981FC0000000E0B6626F400C00000013000000121200003C0000000600000002000000000000C06AD31C40
310
000000801E592AC0000000E0B6626F4000000060C3F628C00000006021981FC0000000E0B6626F400C000000130000001A1200003C0000000600000002000000000000C06AD31C40000000801E592AC0000000E0B6626F40000000C06AD31CC0000000801E592AC0000000E0B6626F400C00000013000000221200003C0000
310
000600000002000000000000C06AD31CC00000000068942740000000E0B6626F4000000060C3F6284000000060B40E1A40000000E0B6626F400C000000130000002A1200003C0000000600000002000000000000C06AD31CC00000000068942740000000E0B6626F40000000C06AD31C400000000068942740000000E0B662
310
6F40
100
AcDbSubDMesh
 71
     2
 72
     0
 91
        0
 92
      196
 10
-22.5
 20
0.0
 30
265.7739562988281
 10
-26.25
 20
6.495190620422363
 30
265.7739562988281
 10
-33.75
 20
6.495190620422363
 30
265.7739562988281
 10
-37.5
 20
0.0
 30
265.7739562988281
 10
-33.75
 20
-6.495190620422363
 30
265.7739562988281
 10
-26.25
 20
-6.495190620422363
 30
265.7739562988281
 10
-11.25
 20
0.0
 30
246.2883911132812
 10
11.25
 20
0.0
 30
246.2883911132812
 10
22.5
 20
0.0
 30
265.7739562988281
 10
11.25
 20
0.0
 30
285.259521484375
 10
-11.25
 20
0.0
 30
285.259521484375
 10
-20.27179908752442
 20
0.0
 30
275.5363464355469
 10
-14.02852058410644
 20
0.0
 30
283.3651733398438
 10
-5.006721019744873
 20
0.0
 30
287.7098388671875
 10
5.006721019744873
 20
0.0
 30
287.7098388671875
 10
14.02852058410644
 20
0.0
 30
283.3651733398438
 10
20.27179908752442
 20
0.0
 30
275.5363464355469
 10
20.27179908752442
 20
0.0
 30
256.0115661621094
 10
14.02852058410644
 20
0.0
 30
248.1827545166016
 10
5.006721019744873
 20
0.0
 30
243.8380889892578
 10
-5.006721019744873
 20
0.0
 30
243.8380889892578
 10
-14.02852058410644
 20
0.0
 30
248.1827545166016
 10
-20.27179908752442
 20
0.0
 30
256.0115661621094
 10
-23.50481033325195
 20
-3.75
 30
265.7739562988281
 10
-30.0
 20
-7.5
 30
265.7739562988281
 10
-36.49518966674805
 20
-3.75
 30
265.7739562988281
 10
-36.49518966674805
 20
3.75
 30
265.7739562988281
 10
-30.0
 20
7.5
 30
265.7739562988281
 10
-23.50481033325195
 20
3.75
 30
265.7739562988281
 10
-21.17710113525391
 20
-3.75
 30
275.9723205566406
 10
-23.65043258666992
 20
-6.495190620422363
 30
277.1634216308594
 10
-27.02906608581543
 20
-7.5
 30
278.7904663085937
 10
-30.40769958496094
 20
-6.495190620422363
 30
280.4175415039063
 10
-32.88103103637695
 20
-3.75
 30
281.608642578125
 10
-33.78633117675781
 20
0.0
 30
282.0445861816406
 10
-32.88103103637695
 20
3.75
 30
281.608642578125
 10
-30.40769958496094
 20
6.495190620422363
 30
280.4175415039063
 10
-27.02906608581543
 20
7.5
 30
278.7904663085937
 10
-23.65043258666992
 20
6.495190620422363
 30
277.1634216308594
 10
-21.17710113525391
 20
3.75
 30
275.9723205566406
 10
-21.17710113525391
 20
3.75
 30
255.5756072998047
 10
-23.65043258666992
 20
6.495190620422363
 30
254.3845062255859
 10
-27.02906608581543
 20
7.5
 30
252.7574462890625
 10
-30.40769958496094
 20
6.495190620422363
 30
251.1303863525391
 10
-32.88103103637695
 20
3.75
 30
249.9392852783203
 10
-33.78633117675781
 20
0.0
 30
249.5033264160156
 10
-32.88103103637695
 20
-3.75
 30
249.9392852783203
 10
-30.40769958496094
 20
-6.495190620422363
 30
251.1303863525391
 10
-27.02906608581543
 20
-7.5
 30
252.7574462890625
 10
-23.65043258666992
 20
-6.495190620422363
 30
254.3845062255859
 10
-21.17710113525391
 20
-3.75
 30
255.5756072998047
 10
-5.230312347412109
 20
3.75
 30
242.8584594726562
 10
-5.841174602508544
 20
6.495190620422363
 30
240.1820983886719
 10
-6.675628185272216
 20
7.5
 30
236.526123046875
 10
-7.51008129119873
 20
6.495190620422363
 30
232.8701477050781
 10
-8.120944023132324
 20
3.75
 30
230.1937866210938
 10
-8.344534873962402
 20
0.0
 30
229.2141571044922
 10
-8.120944023132324
 20
-3.75
 30
230.1937866210938
 10
-7.51008129119873
 20
-6.495190620422363
 30
232.8701477050781
 10
-6.675628185272216
 20
-7.5
 30
236.526123046875
 10
-5.841174602508544
 20
-6.495190620422363
 30
240.1820983886719
 10
-5.230312347412109
 20
-3.75
 30
242.8584594726562
 10
-14.65500926971435
 20
-3.75
 30
247.3971557617188
 10
-16.36660766601562
 20
-6.495190620422363
 30
245.2508850097656
 10
-18.7046947479248
 20
-7.5
 30
242.3190155029297
 10
-21.04277992248535
 20
-6.495190620422363
 30
239.3871459960938
 10
-22.75437927246094
 20
-3.75
 30
237.2408752441406
 10
-23.38086700439453
 20
0.0
 30
236.4552764892578
 10
-22.75437927246094
 20
3.75
 30
237.2408752441406
 10
-21.04277992248535
 20
6.495190620422363
 30
239.3871459960938
 10
-18.7046947479248
 20
7.5
 30
242.3190155029297
 10
-16.36660766601562
 20
6.495190620422363
 30
245.2508850097656
 10
-14.65500926971435
 20
3.75
 30
247.3971557617188
 10
14.65500926971435
 20
3.75
 30
247.3971557617188
 10
16.36660766601562
 20
6.495190620422363
 30
245.2508850097656
 10
18.7046947479248
 20
7.5
 30
242.3190155029297
 10
21.04277992248535
 20
6.495190620422363
 30
239.3871459960938
 10
22.75437927246094
 20
3.75
 30
237.2408752441406
 10
23.38086700439453
 20
0.0
 30
236.4552764892578
 10
22.75437927246094
 20
-3.75
 30
237.2408752441406
 10
21.04277992248535
 20
-6.495190620422363
 30
239.3871459960938
 10
18.7046947479248
 20
-7.5
 30
242.3190155029297
 10
16.36660766601562
 20
-6.495190620422363
 30
245.2508850097656
 10
14.65500926971435
 20
-3.75
 30
247.3971557617188
 10
5.230312347412109
 20
-3.75
 30
242.8584594726562
 10
5.841174602508544
 20
-6.495190620422363
 30
240.1820983886719
 10
6.675628185272216
 20
-7.5
 30
236.526123046875
 10
7.51008129119873
 20
-6.495190620422363
 30
232.8701477050781
 10
8.120944023132324
 20
-3.75
 30
230.1937866210938
 10
8.344534873962402
 20
0.0
 30
229.2141571044922
 10
8.120944023132324
 20
3.75
 30
230.1937866210938
 10
7.51008129119873
 20
6.495190620422363
 30
232.8701477050781
 10
6.675628185272216
 20
7.5
 30
236.526123046875
 10
5.841174602508544
 20
6.495190620422363
 30
240.1820983886719
 10
5.230312347412109
 20
3.75
 30
242.8584594726562
 10
21.17710113525391
 20
3.75
 30
275.9723205566406
 10
23.65043258666992
 20
6.495190620422363
 30
277.1634216308594
 10
27.02906608581543
 20
7.5
 30
278.7904663085937
 10
30.40769958496094
 20
6.495190620422363
 30
280.4175415039063
 10
32.88103103637695
 20
3.75
 30
281.608642578125
 10
33.78633117675781
 20
0.0
 30
282.0445861816406
 10
32.88103103637695
 20
-3.75
 30
281.608642578125
 10
30.40769958496094
 20
-6.495190620422363
 30
280.4175415039063
 10
27.02906608581543
 20
-7.5
 30
278.7904663085937
 10
23.65043258666992
 20
-6.495190620422363
 30
277.1634216308594
 10
21.17710113525391
 20
-3.75
 30
275.9723205566406
 10
23.50481033325195
 20
-3.75
 30
265.7739562988281
 10
26.25
 20
-6.495190620422363
 30
265.7739562988281
 10
30.0
 20
-7.5
 30
265.7739562988281
 10
33.75
 20
-6.495190620422363
 30
265.7739562988281
 10
36.49518966674805
 20
-3.75
 30
265.7739562988281
 10
37.5
 20
0.0
 30
265.7739562988281
 10
36.49518966674805
 20
3.75
 30
265.7739562988281
 10
33.75
 20
6.495190620422363
 30
265.7739562988281
 10
30.0
 20
7.5
 30
265.7739562988281
 10
26.25
 20
6.495190620422363
 30
265.7739562988281
 10
23.50481033325195
 20
3.75
 30
265.7739562988281
 10
21.17710113525391
 20
-3.75
 30
255.5756072998047
 10
23.65043258666992
 20
-6.495190620422363
 30
254.3845062255859
 10
27.02906608581543
 20
-7.5
 30
252.7574462890625
 10
30.40769958496094
 20
-6.495190620422363
 30
251.1303863525391
 10
32.88103103637695
 20
-3.75
 30
249.9392852783203
 10
33.78633117675781
 20
0.0
 30
249.5033264160156
 10
32.88103103637695
 20
3.75
 30
249.9392852783203
 10
30.40769958496094
 20
6.495190620422363
 30
251.1303863525391
 10
27.02906608581543
 20
7.5
 30
252.7574462890625
 10
23.65043258666992
 20
6.495190620422363
 30
254.3845062255859
 10
21.17710113525391
 20
3.75
 30
255.5756072998047
 10
5.230312347412109
 20
3.75
 30
288.689453125
 10
5.841174602508544
 20
6.495190620422363
 30
291.3658142089844
 10
6.675628185272216
 20
7.5
 30
295.0217895507813
 10
7.51008129119873
 20
6.495190620422363
 30
298.6777648925781
 10
8.120944023132324
 20
3.75
 30
301.3541259765625
 10
8.344534873962402
 20
0.0
 30
302.3337707519531
 10
8.120944023132324
 20
-3.75
 30
301.3541259765625
 10
7.51008129119873
 20
-6.495190620422363
 30
298.6777648925781
 10
6.675628185272216
 20
-7.5
 30
295.0217895507813
 10
5.841174602508544
 20
-6.495190620422363
 30
291.3658142089844
 10
5.230312347412109
 20
-3.75
 30
288.689453125
 10
14.65500926971435
 20
-3.75
 30
284.1507568359375
 10
16.36660766601562
 20
-6.495190620422363
 30
286.2970275878906
 10
18.7046947479248
 20
-7.5
 30
289.2289123535156
 10
21.04277992248535
 20
-6.495190620422363
 30
292.1607666015625
 10
22.75437927246094
 20
-3.75
 30
294.3070373535156
 10
23.38086700439453
 20
0.0
 30
295.0926513671875
 10
22.75437927246094
 20
3.75
 30
294.3070373535156
 10
21.04277992248535
 20
6.495190620422363
 30
292.1607666015625
 10
18.7046947479248
 20
7.5
 30
289.2289123535156
 10
16.36660766601562
 20
6.495190620422363
 30
286.2970275878906
 10
14.65500926971435
 20
3.75
 30
284.1507568359375
 10
-14.65500926971435
 20
3.75
 30
284.1507568359375
 10
-16.36660766601562
 20
6.495190620422363
 30
286.2970275878906
 10
-18.7046947479248
 20
7.5
 30
289.2289123535156
 10
-21.04277992248535
 20
6.495190620422363
 30
292.1607666015625
 10
-22.75437927246094
 20
3.75
 30
294.3070373535156
 10
-23.38086700439453
 20
0.0
 30
295.0926513671875
 10
-22.75437927246094
 20
-3.75
 30
294.3070373535156
 10
-21.04277992248535
 20
-6.495190620422363
 30
292.1607666015625
 10
-18.7046947479248
 20
-7.5
 30
289.2289123535156
 10
-16.36660766601562
 20
-6.495190620422363
 30
286.2970275878906
 10
-14.65500926971435
 20
-3.75
 30
284.1507568359375
 10
-5.230312347412109
 20
-3.75
 30
288.689453125
 10
-5.841174602508544
 20
-6.495190620422363
 30
291.3658142089844
 10
-6.675628185272216
 20
-7.5
 30
295.0217895507813
 10
-7.51008129119873
 20
-6.495190620422363
 30
298.6777648925781
 10
-8.120944023132324
 20
-3.75
 30
301.3541259765625
 10
-8.344534873962402
 20
0.0
 30
302.3337707519531
 10
-8.120944023132324
 20
3.75
 30
301.3541259765625
 10
-7.51008129119873
 20
6.495190620422363
 30
298.6777648925781
 10
-6.675628185272216
 20
7.5
 30
295.0217895507813
 10
-5.841174602508544
 20
6.495190620422363
 30
291.3658142089844
 10
-5.230312347412109
 20
3.75
 30
288.689453125
 10
14.41292381286621
 20
-0.6921027898788453
 30
241.0848236083984
 10
12.48195934295654
 20
6.514359951019287
 30
241.0848236083984
 10
7.206461906433105
 20
11.78985595703125
 30
241.0848236083984
 10
-0.0000000000000026
 20
13.72082138061523
 30
241.0848236083984
 10
-7.206461906433105
 20
11.78985595703125
 30
241.0848236083984
 10
-12.48195934295654
 20
6.514359951019287
 30
241.0848236083984
 10
-14.41292381286621
 20
-0.6921027898788453
 30
241.0848236083984
 10
-12.48195934295654
 20
-7.89856481552124
 30
241.0848236083984
 10
-7.206461906433105
 20
-13.1740608215332
 30
241.0848236083984
 10
0.0000000000000009
 20
-15.10502815246582
 30
241.0848236083984
 10
7.206461906433105
 20
-13.1740608215332
 30
241.0848236083984
 10
12.48195934295654
 20
-7.89856481552124
 30
241.0848236083984
 10
14.41292381286621
 20
-0.6921027898788453
 30
251.0848236083984
 10
12.48195934295654
 20
-7.89856481552124
 30
251.0848236083984
 10
7.206461906433105
 20
-13.1740608215332
 30
251.0848236083984
 10
-0.0000000000000026
 20
-15.10502815246582
 30
251.0848236083984
 10
-7.206461906433105
 20
-13.1740608215332
 30
251.0848236083984
 10
-12.48195934295654
 20
-7.89856481552124
 30
251.0848236083984
 10
-14.41292381286621
 20
-0.6921027898788453
 30
251.0848236083984
 10
-12.48195934295654
 20
6.514359951019287
 30
251.0848236083984
 10
-7.206461906433105
 20
11.78985595703125
 30
251.0848236083984
 10
0.0000000000000009
 20
13.72082138061523
 30
251.0848236083984
 10
7.206461906433105
 20
11.78985595703125
 30
251.0848236083984
 10
12.48195934295654
 20
6.514359951019287
 30
251.0848236083984
 93
     1552
 90
        3
 90
        0
 90
       28
 90
       11
 90
        3
 90
       11
 90
       28
 90
       39
 90
        3
 90
       11
 90
       39
 90
       12
 90
        3
 90
       12
 90
       39
 90
      150
 90
        3
 90
       12
 90
      150
 90
       10
 90
        3
 90
       10
 90
      150
 90
      171
 90
        3
 90
       10
 90
      171
 90
       13
 90
        3
 90
       13
 90
      171
 90
       14
 90
        3
 90
       13
 90
       14
 90
      138
 90
        3
 90
      138
 90
       14
 90
        9
 90
        3
 90
      138
 90
        9
 90
      139
 90
        3
 90
      139
 90
        9
 90
       15
 90
        3
 90
      139
 90
       15
 90
      105
 90
        3
 90
      105
 90
       15
 90
       16
 90
        3
 90
      105
 90
       16
 90
      106
 90
        3
 90
      106
 90
       16
 90
        8
 90
        3
 90
      106
 90
        8
 90
      117
 90
        3
 90
      117
 90
        8
 90
       17
 90
        3
 90
      117
 90
       17
 90
       83
 90
        3
 90
       83
 90
       17
 90
       18
 90
        3
 90
       83
 90
       18
 90
        7
 90
        3
 90
        7
 90
       18
 90
       73
 90
        3
 90
        7
 90
       73
 90
       94
 90
        3
 90
       94
 90
       73
 90
       74
 90
        3
 90
       94
 90
       74
 90
       93
 90
        3
 90
       93
 90
       74
 90
       75
 90
        3
 90
       93
 90
       75
 90
       92
 90
        3
 90
       92
 90
       75
 90
       76
 90
        3
 90
       92
 90
       76
 90
       91
 90
        3
 90
       91
 90
       76
 90
       77
 90
        3
 90
       91
 90
       77
 90
       90
 90
        3
 90
       90
 90
       77
 90
       78
 90
        3
 90
       90
 90
       78
 90
       89
 90
        3
 90
       89
 90
       78
 90
       79
 90
        3
 90
       89
 90
       79
 90
       88
 90
        3
 90
       88
 90
       79
 90
       80
 90
        3
 90
       88
 90
       80
 90
       87
 90
        3
 90
       87
 90
       80
 90
       81
 90
        3
 90
       87
 90
       81
 90
       86
 90
        3
 90
       86
 90
       81
 90
       82
 90
        3
 90
       86
 90
       82
 90
       85
 90
        3
 90
       85
 90
       82
 90
       83
 90
        3
 90
       85
 90
       83
 90
       84
 90
        3
 90
       84
 90
       83
 90
        7
 90
        3
 90
       84
 90
        7
 90
       19
 90
        3
 90
       19
 90
        7
 90
       94
 90
        3
 90
       19
 90
       94
 90
       20
 90
        3
 90
       20
 90
       94
 90
       51
 90
        3
 90
       20
 90
       51
 90
        6
 90
        3
 90
        6
 90
       51
 90
       72
 90
        3
 90
        6
 90
       72
 90
       21
 90
        3
 90
       21
 90
       72
 90
       22
 90
        3
 90
       21
 90
       22
 90
       50
 90
        3
 90
       50
 90
       22
 90
       23
 90
        3
 90
       50
 90
       23
 90
        5
 90
        3
 90
        5
 90
       23
 90
       30
 90
        3
 90
        5
 90
       30
 90
       31
 90
        3
 90
       31
 90
       30
 90
      158
 90
        3
 90
       31
 90
      158
 90
      157
 90
        3
 90
      157
 90
      158
 90
      164
 90
        3
 90
      157
 90
      164
 90
      165
 90
        3
 90
      165
 90
      164
 90
      134
 90
        3
 90
      165
 90
      134
 90
      133
 90
        3
 90
      133
 90
      134
 90
      144
 90
        3
 90
      133
 90
      144
 90
      145
 90
        3
 90
      145
 90
      144
 90
       99
 90
        3
 90
      145
 90
       99
 90
       98
 90
        3
 90
       98
 90
       99
 90
      113
 90
        3
 90
       98
 90
      113
 90
      114
 90
        3
 90
      114
 90
      113
 90
      125
 90
        3
 90
      114
 90
      125
 90
      126
 90
        3
 90
      126
 90
      125
 90
       74
 90
        3
 90
      126
 90
       74
 90
       73
 90
        3
 90
       23
 90
       22
 90
        0
 90
        3
 90
        0
 90
       22
 90
       40
 90
        3
 90
        0
 90
       40
 90
       28
 90
        3
 90
       28
 90
       40
 90
       41
 90
        3
 90
       28
 90
       41
 90
        1
 90
        3
 90
        1
 90
       41
 90
       42
 90
        3
 90
        1
 90
       42
 90
       27
 90
        3
 90
       27
 90
       42
 90
       43
 90
        3
 90
       27
 90
       43
 90
        2
 90
        3
 90
        2
 90
       43
 90
       44
 90
        3
 90
        2
 90
       44
 90
       26
 90
        3
 90
       26
 90
       44
 90
       45
 90
        3
 90
       26
 90
       45
 90
        3
 90
        3
 90
        3
 90
       45
 90
       46
 90
        3
 90
        3
 90
       46
 90
       25
 90
        3
 90
       25
 90
       46
 90
       47
 90
        3
 90
       25
 90
       47
 90
        4
 90
        3
 90
        4
 90
       47
 90
       48
 90
        3
 90
        4
 90
       48
 90
       24
 90
        3
 90
       24
 90
       48
 90
       49
 90
        3
 90
       24
 90
       49
 90
        5
 90
        3
 90
        5
 90
       49
 90
       50
 90
        3
 90
        0
 90
       11
 90
       29
 90
        3
 90
       29
 90
       11
 90
      160
 90
        3
 90
       29
 90
      160
 90
      159
 90
        3
 90
      159
 90
      160
 90
      162
 90
        3
 90
      159
 90
      162
 90
      163
 90
        3
 90
      163
 90
      162
 90
      136
 90
        3
 90
      163
 90
      136
 90
      135
 90
        3
 90
      135
 90
      136
 90
      142
 90
        3
 90
      135
 90
      142
 90
      143
 90
        3
 90
      143
 90
      142
 90
      101
 90
        3
 90
      143
 90
      101
 90
      100
 90
        3
 90
      100
 90
      101
 90
      111
 90
        3
 90
      100
 90
      111
 90
      112
 90
        3
 90
      112
 90
      111
 90
      123
 90
        3
 90
      112
 90
      123
 90
      124
 90
        3
 90
      124
 90
      123
 90
       76
 90
        3
 90
      124
 90
       76
 90
       75
 90
        3
 90
        1
 90
       27
 90
       38
 90
        3
 90
       38
 90
       27
 90
       37
 90
        3
 90
       38
 90
       37
 90
      151
 90
        3
 90
      151
 90
       37
 90
      152
 90
        3
 90
      151
 90
      152
 90
      170
 90
        3
 90
      170
 90
      152
 90
      169
 90
        3
 90
      170
 90
      169
 90
      129
 90
        3
 90
      129
 90
      169
 90
      130
 90
        3
 90
      129
 90
      130
 90
      148
 90
        3
 90
      148
 90
      130
 90
      147
 90
        3
 90
      148
 90
      147
 90
       96
 90
        3
 90
       96
 90
      147
 90
       97
 90
        3
 90
       96
 90
       97
 90
      115
 90
        3
 90
      115
 90
       97
 90
      114
 90
        3
 90
      115
 90
      114
 90
      126
 90
        3
 90
       39
 90
       28
 90
        1
 90
        3
 90
        2
 90
       26
 90
       36
 90
        3
 90
       36
 90
       26
 90
       35
 90
        3
 90
       36
 90
       35
 90
      153
 90
        3
 90
      153
 90
       35
 90
      154
 90
        3
 90
      153
 90
      154
 90
      168
 90
        3
 90
      168
 90
      154
 90
      167
 90
        3
 90
      168
 90
      167
 90
      131
 90
        3
 90
      131
 90
      167
 90
      132
 90
        3
 90
      131
 90
      132
 90
      146
 90
        3
 90
      146
 90
      132
 90
      145
 90
        3
 90
      146
 90
      145
 90
       98
 90
        3
 90
       37
 90
       27
 90
        2
 90
        3
 90
        3
 90
       25
 90
       34
 90
        3
 90
       34
 90
       25
 90
       33
 90
        3
 90
       34
 90
       33
 90
      155
 90
        3
 90
      155
 90
       33
 90
      156
 90
        3
 90
      155
 90
      156
 90
      166
 90
        3
 90
      166
 90
      156
 90
      165
 90
        3
 90
      166
 90
      165
 90
      133
 90
        3
 90
       35
 90
       26
 90
        3
 90
        3
 90
        4
 90
       24
 90
       32
 90
        3
 90
       32
 90
       24
 90
       31
 90
        3
 90
       32
 90
       31
 90
      157
 90
        3
 90
       33
 90
       25
 90
        4
 90
        3
 90
       31
 90
       24
 90
        5
 90
        3
 90
        6
 90
       21
 90
       62
 90
        3
 90
       62
 90
       21
 90
       50
 90
        3
 90
       62
 90
       50
 90
       49
 90
        3
 90
        8
 90
       16
 90
       95
 90
        3
 90
       95
 90
       16
 90
      149
 90
        3
 90
       95
 90
      149
 90
      148
 90
        3
 90
      148
 90
      149
 90
      129
 90
        3
 90
        9
 90
       14
 90
      128
 90
        3
 90
      128
 90
       14
 90
      171
 90
        3
 90
      128
 90
      171
 90
      170
 90
        3
 90
      170
 90
      171
 90
      151
 90
        3
 90
       10
 90
       13
 90
      161
 90
        3
 90
      161
 90
       13
 90
      138
 90
        3
 90
      161
 90
      138
 90
      137
 90
        3
 90
      137
 90
      138
 90
      140
 90
        3
 90
      137
 90
      140
 90
      141
 90
        3
 90
      141
 90
      140
 90
      103
 90
        3
 90
      141
 90
      103
 90
      102
 90
        3
 90
      102
 90
      103
 90
      109
 90
        3
 90
      102
 90
      109
 90
      110
 90
        3
 90
      110
 90
      109
 90
      121
 90
        3
 90
      110
 90
      121
 90
      122
 90
        3
 90
      122
 90
      121
 90
       78
 90
        3
 90
      122
 90
       78
 90
       77
 90
        3
 90
       11
 90
       12
 90
      160
 90
        3
 90
      160
 90
       12
 90
       10
 90
        3
 90
      160
 90
       10
 90
      161
 90
        3
 90
      149
 90
       16
 90
       15
 90
        3
 90
       15
 90
        9
 90
      149
 90
        3
 90
      149
 90
        9
 90
      128
 90
        3
 90
      149
 90
      128
 90
      129
 90
        3
 90
      129
 90
      128
 90
      170
 90
        3
 90
       17
 90
        8
 90
      116
 90
        3
 90
      116
 90
        8
 90
       95
 90
        3
 90
      116
 90
       95
 90
       96
 90
        3
 90
       96
 90
       95
 90
      148
 90
        3
 90
       18
 90
       17
 90
      127
 90
        3
 90
      127
 90
       17
 90
      116
 90
        3
 90
      127
 90
      116
 90
      115
 90
        3
 90
      115
 90
      116
 90
       96
 90
        3
 90
       19
 90
       20
 90
       61
 90
        3
 90
       61
 90
       20
 90
        6
 90
        3
 90
       61
 90
        6
 90
       62
 90
        3
 90
       40
 90
       22
 90
       72
 90
        3
 90
       30
 90
       23
 90
       29
 90
        3
 90
       29
 90
       23
 90
        0
 90
        3
 90
       84
 90
       19
 90
       61
 90
        3
 90
       73
 90
       18
 90
      127
 90
        3
 90
      158
 90
       30
 90
      159
 90
        3
 90
      159
 90
       30
 90
       29
 90
        3
 90
      156
 90
       33
 90
       32
 90
        3
 90
       32
 90
       33
 90
        4
 90
        3
 90
      156
 90
       32
 90
      157
 90
        3
 90
      154
 90
       35
 90
       34
 90
        3
 90
       34
 90
       35
 90
        3
 90
        3
 90
      154
 90
       34
 90
      155
 90
        3
 90
      152
 90
       37
 90
       36
 90
        3
 90
       36
 90
       37
 90
        2
 90
        3
 90
      152
 90
       36
 90
      153
 90
        3
 90
      150
 90
       39
 90
       38
 90
        3
 90
       38
 90
       39
 90
        1
 90
        3
 90
      150
 90
       38
 90
      151
 90
        3
 90
       41
 90
       40
 90
       71
 90
        3
 90
       71
 90
       40
 90
       72
 90
        3
 90
       71
 90
       72
 90
       52
 90
        3
 90
       52
 90
       72
 90
       51
 90
        3
 90
       52
 90
       51
 90
       93
 90
        3
 90
       93
 90
       51
 90
       94
 90
        3
 90
       42
 90
       41
 90
       70
 90
        3
 90
       70
 90
       41
 90
       71
 90
        3
 90
       70
 90
       71
 90
       53
 90
        3
 90
       53
 90
       71
 90
       52
 90
        3
 90
       53
 90
       52
 90
       92
 90
        3
 90
       92
 90
       52
 90
       93
 90
        3
 90
       43
 90
       42
 90
       69
 90
        3
 90
       69
 90
       42
 90
       70
 90
        3
 90
       69
 90
       70
 90
       54
 90
        3
 90
       54
 90
       70
 90
       53
 90
        3
 90
       54
 90
       53
 90
       91
 90
        3
 90
       91
 90
       53
 90
       92
 90
        3
 90
       44
 90
       43
 90
       68
 90
        3
 90
       68
 90
       43
 90
       69
 90
        3
 90
       68
 90
       69
 90
       55
 90
        3
 90
       55
 90
       69
 90
       54
 90
        3
 90
       55
 90
       54
 90
       90
 90
        3
 90
       90
 90
       54
 90
       91
 90
        3
 90
       45
 90
       44
 90
       67
 90
        3
 90
       67
 90
       44
 90
       68
 90
        3
 90
       67
 90
       68
 90
       56
 90
        3
 90
       56
 90
       68
 90
       55
 90
        3
 90
       56
 90
       55
 90
       89
 90
        3
 90
       89
 90
       55
 90
       90
 90
        3
 90
       46
 90
       45
 90
       66
 90
        3
 90
       66
 90
       45
 90
       67
 90
        3
 90
       66
 90
       67
 90
       57
 90
        3
 90
       57
 90
       67
 90
       56
 90
        3
 90
       57
 90
       56
 90
       88
 90
        3
 90
       88
 90
       56
 90
       89
 90
        3
 90
       47
 90
       46
 90
       65
 90
        3
 90
       65
 90
       46
 90
       66
 90
        3
 90
       65
 90
       66
 90
       58
 90
        3
 90
       58
 90
       66
 90
       57
 90
        3
 90
       58
 90
       57
 90
       87
 90
        3
 90
       87
 90
       57
 90
       88
 90
        3
 90
       48
 90
       47
 90
       64
 90
        3
 90
       64
 90
       47
 90
       65
 90
        3
 90
       64
 90
       65
 90
       59
 90
        3
 90
       59
 90
       65
 90
       58
 90
        3
 90
       59
 90
       58
 90
       86
 90
        3
 90
       86
 90
       58
 90
       87
 90
        3
 90
       49
 90
       48
 90
       63
 90
        3
 90
       63
 90
       48
 90
       64
 90
        3
 90
       63
 90
       64
 90
       60
 90
        3
 90
       60
 90
       64
 90
       59
 90
        3
 90
       60
 90
       59
 90
       85
 90
        3
 90
       85
 90
       59
 90
       86
 90
        3
 90
       60
 90
       61
 90
       63
 90
        3
 90
       63
 90
       61
 90
       62
 90
        3
 90
       63
 90
       62
 90
       49
 90
        3
 90
       85
 90
       84
 90
       60
 90
        3
 90
       60
 90
       84
 90
       61
 90
        3
 90
      126
 90
       73
 90
      127
 90
        3
 90
      124
 90
       75
 90
      125
 90
        3
 90
      125
 90
       75
 90
       74
 90
        3
 90
      122
 90
       77
 90
      123
 90
        3
 90
      123
 90
       77
 90
       76
 90
        3
 90
       78
 90
      121
 90
       79
 90
        3
 90
       79
 90
      121
 90
      120
 90
        3
 90
       79
 90
      120
 90
       80
 90
        3
 90
       80
 90
      120
 90
      119
 90
        3
 90
       80
 90
      119
 90
       81
 90
        3
 90
       81
 90
      119
 90
      118
 90
        3
 90
       81
 90
      118
 90
       82
 90
        3
 90
       82
 90
      118
 90
      117
 90
        3
 90
       82
 90
      117
 90
       83
 90
        3
 90
      146
 90
       98
 90
       97
 90
        3
 90
       97
 90
       98
 90
      114
 90
        3
 90
      146
 90
       97
 90
      147
 90
        3
 90
      113
 90
       99
 90
      112
 90
        3
 90
      112
 90
       99
 90
      100
 90
        3
 90
      143
 90
      100
 90
      144
 90
        3
 90
      144
 90
      100
 90
       99
 90
        3
 90
      111
 90
      101
 90
      110
 90
        3
 90
      110
 90
      101
 90
      102
 90
        3
 90
      141
 90
      102
 90
      142
 90
        3
 90
      142
 90
      102
 90
      101
 90
        3
 90
      103
 90
      104
 90
      108
 90
        3
 90
      108
 90
      104
 90
      107
 90
        3
 90
      108
 90
      107
 90
      119
 90
        3
 90
      119
 90
      107
 90
      118
 90
        3
 90
      104
 90
      105
 90
      107
 90
        3
 90
      107
 90
      105
 90
      106
 90
        3
 90
      107
 90
      106
 90
      118
 90
        3
 90
      118
 90
      106
 90
      117
 90
        3
 90
      103
 90
      140
 90
      104
 90
        3
 90
      104
 90
      140
 90
      139
 90
        3
 90
      104
 90
      139
 90
      105
 90
        3
 90
      103
 90
      108
 90
      109
 90
        3
 90
      109
 90
      108
 90
      120
 90
        3
 90
      109
 90
      120
 90
      121
 90
        3
 90
      120
 90
      108
 90
      119
 90
        3
 90
      123
 90
      111
 90
      122
 90
        3
 90
      122
 90
      111
 90
      110
 90
        3
 90
      125
 90
      113
 90
      124
 90
        3
 90
      124
 90
      113
 90
      112
 90
        3
 90
      127
 90
      115
 90
      126
 90
        3
 90
      146
 90
      147
 90
      131
 90
        3
 90
      131
 90
      147
 90
      130
 90
        3
 90
      131
 90
      130
 90
      168
 90
        3
 90
      168
 90
      130
 90
      169
 90
        3
 90
      168
 90
      169
 90
      153
 90
        3
 90
      153
 90
      169
 90
      152
 90
        3
 90
      166
 90
      133
 90
      132
 90
        3
 90
      132
 90
      133
 90
      145
 90
        3
 90
      166
 90
      132
 90
      167
 90
        3
 90
      143
 90
      144
 90
      134
 90
        3
 90
      143
 90
      134
 90
      135
 90
        3
 90
      135
 90
      134
 90
      164
 90
        3
 90
      135
 90
      164
 90
      163
 90
        3
 90
      163
 90
      164
 90
      158
 90
        3
 90
      163
 90
      158
 90
      159
 90
        3
 90
      141
 90
      142
 90
      136
 90
        3
 90
      141
 90
      136
 90
      137
 90
        3
 90
      137
 90
      136
 90
      162
 90
        3
 90
      137
 90
      162
 90
      161
 90
        3
 90
      161
 90
      162
 90
      160
 90
        3
 90
      139
 90
      140
 90
      138
 90
        3
 90
      150
 90
      151
 90
      171
 90
        3
 90
      166
 90
      167
 90
      155
 90
        3
 90
      155
 90
      167
 90
      154
 90
        3
 90
      156
 90
      157
 90
      165
 90
        3
 90
      173
 90
      195
 90
      172
 90
        3
 90
      172
 90
      195
 90
      184
 90
        3
 90
      172
 90
      184
 90
      183
 90
        3
 90
      183
 90
      184
 90
      185
 90
        3
 90
      183
 90
      185
 90
      182
 90
        3
 90
      182
 90
      185
 90
      186
 90
        3
 90
      182
 90
      186
 90
      181
 90
        3
 90
      181
 90
      186
 90
      187
 90
        3
 90
      181
 90
      187
 90
      180
 90
        3
 90
      180
 90
      187
 90
      188
 90
        3
 90
      180
 90
      188
 90
      179
 90
        3
 90
      179
 90
      188
 90
      189
 90
        3
 90
      179
 90
      189
 90
      178
 90
        3
 90
      178
 90
      189
 90
      190
 90
        3
 90
      178
 90
      190
 90
      177
 90
        3
 90
      177
 90
      190
 90
      191
 90
        3
 90
      177
 90
      191
 90
      176
 90
        3
 90
      176
 90
      191
 90
      192
 90
        3
 90
      176
 90
      192
 90
      175
 90
        3
 90
      175
 90
      192
 90
      193
 90
        3
 90
      175
 90
      193
 90
      174
 90
        3
 90
      174
 90
      193
 90
      194
 90
        3
 90
      174
 90
      194
 90
      173
 90
        3
 90
      173
 90
      194
 90
      195
 90
        3
 90
      183
 90
      179
 90
      172
 90
        3
 90
      172
 90
      179
 90
      178
 90
        3
 90
      172
 90
      178
 90
      173
 90
        3
 90
      173
 90
      178
 90
      177
 90
        3
 90
      173
 90
      177
 90
      174
 90
        3
 90
      174
 90
      177
 90
      176
 90
        3
 90
      174
 90
      176
 90
      175
 90
        3
 90
      179
 90
      183
 90
      180
 90
        3
 90
      180
 90
      183
 90
      182
 90
        3
 90
      180
 90
      182
 90
      181
 90
        3
 90
      195
 90
      191
 90
      184
 90
        3
 90
      184
 90
      191
 90
      190
 90
        3
 90
      184
 90
      190
 90
      185
 90
        3
 90
      185
 90
      190
 90
      189
 90
        3
 90
      185
 90
      189
 90
      186
 90
        3
 90
      186
 90
      189
 90
      188
 90
        3
 90
      186
 90
      188
 90
      187
 90
        3
 90
      191
 90
      195
 90
      192
 90
        3
 90
      192
 90
      195
 90
      194
 90
        3
 90
      192
 90
      194
 90
      193
 94
      582
 90
        0
 90
       28
 90
       11
 90
       28
 90
        0
 90
       11
 90
       28
 90
       39
 90
       11
 90
       39
 90
       12
 90
       39
 90
       11
 90
       12
 90
       39
 90
      150
 90
       12
 90
      150
 90
       10
 90
      150
 90
       10
 90
       12
 90
      150
 90
      171
 90
       10
 90
      171
 90
       13
 90
      171
 90
       10
 90
       13
 90
       14
 90
      171
 90
       13
 90
       14
 90
       14
 90
      138
 90
       13
 90
      138
 90
        9
 90
       14
 90
        9
 90
      138
 90
        9
 90
      139
 90
      138
 90
      139
 90
        9
 90
       15
 90
       15
 90
      139
 90
       15
 90
      105
 90
      105
 90
      139
 90
       15
 90
       16
 90
       16
 90
      105
 90
       16
 90
      106
 90
      105
 90
      106
 90
        8
 90
       16
 90
        8
 90
      106
 90
        8
 90
      117
 90
      106
 90
      117
 90
        8
 90
       17
 90
       17
 90
      117
 90
       17
 90
       83
 90
       83
 90
      117
 90
       17
 90
       18
 90
       18
 90
       83
 90
        7
 90
       18
 90
        7
 90
       83
 90
       18
 90
       73
 90
        7
 90
       73
 90
       73
 90
       94
 90
        7
 90
       94
 90
       73
 90
       74
 90
       74
 90
       94
 90
       74
 90
       93
 90
       93
 90
       94
 90
       74
 90
       75
 90
       75
 90
       93
 90
       75
 90
       92
 90
       92
 90
       93
 90
       75
 90
       76
 90
       76
 90
       92
 90
       76
 90
       91
 90
       91
 90
       92
 90
       76
 90
       77
 90
       77
 90
       91
 90
       77
 90
       90
 90
       90
 90
       91
 90
       77
 90
       78
 90
       78
 90
       90
 90
       78
 90
       89
 90
       89
 90
       90
 90
       78
 90
       79
 90
       79
 90
       89
 90
       79
 90
       88
 90
       88
 90
       89
 90
       79
 90
       80
 90
       80
 90
       88
 90
       80
 90
       87
 90
       87
 90
       88
 90
       80
 90
       81
 90
       81
 90
       87
 90
       81
 90
       86
 90
       86
 90
       87
 90
       81
 90
       82
 90
       82
 90
       86
 90
       82
 90
       85
 90
       85
 90
       86
 90
       82
 90
       83
 90
       83
 90
       85
 90
       83
 90
       84
 90
       84
 90
       85
 90
        7
 90
       84
 90
        7
 90
       19
 90
       19
 90
       84
 90
       19
 90
       94
 90
       20
 90
       94
 90
       19
 90
       20
 90
       51
 90
       94
 90
       20
 90
       51
 90
        6
 90
       51
 90
        6
 90
       20
 90
       51
 90
       72
 90
        6
 90
       72
 90
       21
 90
       72
 90
        6
 90
       21
 90
       22
 90
       72
 90
       21
 90
       22
 90
       22
 90
       50
 90
       21
 90
       50
 90
       22
 90
       23
 90
       23
 90
       50
 90
        5
 90
       23
 90
        5
 90
       50
 90
       23
 90
       30
 90
        5
 90
       30
 90
       30
 90
       31
 90
        5
 90
       31
 90
       30
 90
      158
 90
       31
 90
      158
 90
      157
 90
      158
 90
       31
 90
      157
 90
      158
 90
      164
 90
      157
 90
      164
 90
      164
 90
      165
 90
      157
 90
      165
 90
      134
 90
      164
 90
      134
 90
      165
 90
      133
 90
      134
 90
      133
 90
      165
 90
      134
 90
      144
 90
      133
 90
      144
 90
      144
 90
      145
 90
      133
 90
      145
 90
       99
 90
      144
 90
       99
 90
      145
 90
       98
 90
       99
 90
       98
 90
      145
 90
       99
 90
      113
 90
       98
 90
      113
 90
      113
 90
      114
 90
       98
 90
      114
 90
      113
 90
      125
 90
      114
 90
      125
 90
      125
 90
      126
 90
      114
 90
      126
 90
       74
 90
      125
 90
       74
 90
      126
 90
       73
 90
      126
 90
        0
 90
       22
 90
        0
 90
       23
 90
       22
 90
       40
 90
        0
 90
       40
 90
       28
 90
       40
 90
       40
 90
       41
 90
       28
 90
       41
 90
        1
 90
       41
 90
        1
 90
       28
 90
       41
 90
       42
 90
        1
 90
       42
 90
       27
 90
       42
 90
        1
 90
       27
 90
       42
 90
       43
 90
       27
 90
       43
 90
        2
 90
       43
 90
        2
 90
       27
 90
       43
 90
       44
 90
        2
 90
       44
 90
       26
 90
       44
 90
        2
 90
       26
 90
       44
 90
       45
 90
       26
 90
       45
 90
        3
 90
       45
 90
        3
 90
       26
 90
       45
 90
       46
 90
        3
 90
       46
 90
       25
 90
       46
 90
        3
 90
       25
 90
       46
 90
       47
 90
       25
 90
       47
 90
        4
 90
       47
 90
        4
 90
       25
 90
       47
 90
       48
 90
        4
 90
       48
 90
       24
 90
       48
 90
        4
 90
       24
 90
       48
 90
       49
 90
       24
 90
       49
 90
        5
 90
       49
 90
        5
 90
       24
 90
       49
 90
       50
 90
       11
 90
       29
 90
        0
 90
       29
 90
       11
 90
      160
 90
       29
 90
      160
 90
      159
 90
      160
 90
       29
 90
      159
 90
      160
 90
      162
 90
      159
 90
      162
 90
      162
 90
      163
 90
      159
 90
      163
 90
      136
 90
      162
 90
      136
 90
      163
 90
      135
 90
      136
 90
      135
 90
      163
 90
      136
 90
      142
 90
      135
 90
      142
 90
      142
 90
      143
 90
      135
 90
      143
 90
      101
 90
      142
 90
      101
 90
      143
 90
      100
 90
      101
 90
      100
 90
      143
 90
      101
 90
      111
 90
      100
 90
      111
 90
      111
 90
      112
 90
      100
 90
      112
 90
      111
 90
      123
 90
      112
 90
      123
 90
      123
 90
      124
 90
      112
 90
      124
 90
       76
 90
      123
 90
       76
 90
      124
 90
       75
 90
      124
 90
       27
 90
       38
 90
        1
 90
       38
 90
       27
 90
       37
 90
       37
 90
       38
 90
       37
 90
      151
 90
       38
 90
      151
 90
       37
 90
      152
 90
      151
 90
      152
 90
      152
 90
      170
 90
      151
 90
      170
 90
      152
 90
      169
 90
      169
 90
      170
 90
      129
 90
      169
 90
      129
 90
      170
 90
      130
 90
      169
 90
      129
 90
      130
 90
      130
 90
      148
 90
      129
 90
      148
 90
      130
 90
      147
 90
      147
 90
      148
 90
       96
 90
      147
 90
       96
 90
      148
 90
       97
 90
      147
 90
       96
 90
       97
 90
       97
 90
      115
 90
       96
 90
      115
 90
       97
 90
      114
 90
      114
 90
      115
 90
      115
 90
      126
 90
        1
 90
       39
 90
       26
 90
       36
 90
        2
 90
       36
 90
       26
 90
       35
 90
       35
 90
       36
 90
       35
 90
      153
 90
       36
 90
      153
 90
       35
 90
      154
 90
      153
 90
      154
 90
      154
 90
      168
 90
      153
 90
      168
 90
      154
 90
      167
 90
      167
 90
      168
 90
      131
 90
      167
 90
      131
 90
      168
 90
      132
 90
      167
 90
      131
 90
      132
 90
      132
 90
      146
 90
      131
 90
      146
 90
      132
 90
      145
 90
      145
 90
      146
 90
       98
 90
      146
 90
        2
 90
       37
 90
       25
 90
       34
 90
        3
 90
       34
 90
       25
 90
       33
 90
       33
 90
       34
 90
       33
 90
      155
 90
       34
 90
      155
 90
       33
 90
      156
 90
      155
 90
      156
 90
      156
 90
      166
 90
      155
 90
      166
 90
      156
 90
      165
 90
      165
 90
      166
 90
      133
 90
      166
 90
        3
 90
       35
 90
       24
 90
       32
 90
        4
 90
       32
 90
       24
 90
       31
 90
       31
 90
       32
 90
       32
 90
      157
 90
        4
 90
       33
 90
       21
 90
       62
 90
        6
 90
       62
 90
       50
 90
       62
 90
       49
 90
       62
 90
       16
 90
       95
 90
        8
 90
       95
 90
       16
 90
      149
 90
       95
 90
      149
 90
      148
 90
      149
 90
       95
 90
      148
 90
      129
 90
      149
 90
       14
 90
      128
 90
        9
 90
      128
 90
      128
 90
      171
 90
      170
 90
      171
 90
      128
 90
      170
 90
      151
 90
      171
 90
       13
 90
      161
 90
       10
 90
      161
 90
      138
 90
      161
 90
      137
 90
      138
 90
      137
 90
      161
 90
      138
 90
      140
 90
      137
 90
      140
 90
      140
 90
      141
 90
      137
 90
      141
 90
      103
 90
      140
 90
      103
 90
      141
 90
      102
 90
      103
 90
      102
 90
      141
 90
      103
 90
      109
 90
      102
 90
      109
 90
      109
 90
      110
 90
      102
 90
      110
 90
      109
 90
      121
 90
      110
 90
      121
 90
      121
 90
      122
 90
      110
 90
      122
 90
       78
 90
      121
 90
       78
 90
      122
 90
       77
 90
      122
 90
       12
 90
      160
 90
       10
 90
      160
 90
      160
 90
      161
 90
       15
 90
      149
 90
        9
 90
      149
 90
      128
 90
      149
 90
      128
 90
      129
 90
        8
 90
      116
 90
       17
 90
      116
 90
       95
 90
      116
 90
       95
 90
       96
 90
       96
 90
      116
 90
       17
 90
      127
 90
       18
 90
      127
 90
      116
 90
      127
 90
      115
 90
      116
 90
      115
 90
      127
 90
       20
 90
       61
 90
       19
 90
       61
 90
        6
 90
       61
 90
       61
 90
       62
 90
       40
 90
       72
 90
       23
 90
       29
 90
       29
 90
       30
 90
       61
 90
       84
 90
       73
 90
      127
 90
       30
 90
      159
 90
      158
 90
      159
 90
       32
 90
       33
 90
       32
 90
      156
 90
      156
 90
      157
 90
       34
 90
       35
 90
       34
 90
      154
 90
      154
 90
      155
 90
       36
 90
       37
 90
       36
 90
      152
 90
      152
 90
      153
 90
       38
 90
       39
 90
       38
 90
      150
 90
      150
 90
      151
 90
       40
 90
       71
 90
       41
 90
       71
 90
       71
 90
       72
 90
       52
 90
       72
 90
       52
 90
       71
 90
       51
 90
       52
 90
       51
 90
       93
 90
       52
 90
       93
 90
       41
 90
       70
 90
       42
 90
       70
 90
       70
 90
       71
 90
       53
 90
       71
 90
       53
 90
       70
 90
       52
 90
       53
 90
       52
 90
       92
 90
       53
 90
       92
 90
       42
 90
       69
 90
       43
 90
       69
 90
       69
 90
       70
 90
       54
 90
       70
 90
       54
 90
       69
 90
       53
 90
       54
 90
       53
 90
       91
 90
       54
 90
       91
 90
       43
 90
       68
 90
       44
 90
       68
 90
       68
 90
       69
 90
       55
 90
       69
 90
       55
 90
       68
 90
       54
 90
       55
 90
       54
 90
       90
 90
       55
 90
       90
 90
       44
 90
       67
 90
       45
 90
       67
 90
       67
 90
       68
 90
       56
 90
       68
 90
       56
 90
       67
 90
       55
 90
       56
 90
       55
 90
       89
 90
       56
 90
       89
 90
       45
 90
       66
 90
       46
 90
       66
 90
       66
 90
       67
 90
       57
 90
       67
 90
       57
 90
       66
 90
       56
 90
       57
 90
       56
 90
       88
 90
       57
 90
       88
 90
       46
 90
       65
 90
       47
 90
       65
 90
       65
 90
       66
 90
       58
 90
       66
 90
       58
 90
       65
 90
       57
 90
       58
 90
       57
 90
       87
 90
       58
 90
       87
 90
       47
 90
       64
 90
       48
 90
       64
 90
       64
 90
       65
 90
       59
 90
       65
 90
       59
 90
       64
 90
       58
 90
       59
 90
       58
 90
       86
 90
       59
 90
       86
 90
       48
 90
       63
 90
       49
 90
       63
 90
       63
 90
       64
 90
       60
 90
       64
 90
       60
 90
       63
 90
       59
 90
       60
 90
       59
 90
       85
 90
       60
 90
       85
 90
       60
 90
       61
 90
       61
 90
       63
 90
       62
 90
       63
 90
       60
 90
       84
 90
      126
 90
      127
 90
       75
 90
      125
 90
      124
 90
      125
 90
       77
 90
      123
 90
      122
 90
      123
 90
       79
 90
      121
 90
      120
 90
      121
 90
       79
 90
      120
 90
       80
 90
      120
 90
      119
 90
      120
 90
       80
 90
      119
 90
       81
 90
      119
 90
      118
 90
      119
 90
       81
 90
      118
 90
       82
 90
      118
 90
      117
 90
      118
 90
       82
 90
      117
 90
       97
 90
       98
 90
       97
 90
      146
 90
      146
 90
      147
 90
       99
 90
      112
 90
      112
 90
      113
 90
       99
 90
      100
 90
      100
 90
      144
 90
      143
 90
      144
 90
      101
 90
      110
 90
      110
 90
      111
 90
      101
 90
      102
 90
      102
 90
      142
 90
      141
 90
      142
 90
      103
 90
      104
 90
      104
 90
      108
 90
      103
 90
      108
 90
      104
 90
      107
 90
      107
 90
      108
 90
      107
 90
      119
 90
      108
 90
      119
 90
      107
 90
      118
 90
      104
 90
      105
 90
      105
 90
      107
 90
      106
 90
      107
 90
      106
 90
      118
 90
      104
 90
      140
 90
      139
 90
      140
 90
      104
 90
      139
 90
      108
 90
      109
 90
      108
 90
      120
 90
      109
 90
      120
 90
      111
 90
      122
 90
      113
 90
      124
 90
      131
 90
      147
 90
      130
 90
      131
 90
      130
 90
      168
 90
      168
 90
      169
 90
      153
 90
      169
 90
      132
 90
      133
 90
      132
 90
      166
 90
      166
 90
      167
 90
      134
 90
      143
 90
      134
 90
      135
 90
      135
 90
      164
 90
      163
 90
      164
 90
      158
 90
      163
 90
      136
 90
      141
 90
      136
 90
      137
 90
      137
 90
      162
 90
      161
 90
      162
 90
      155
 90
      167
 90
      173
 90
      195
 90
      172
 90
      195
 90
      172
 90
      173
 90
      184
 90
      195
 90
      172
 90
      184
 90
      183
 90
      184
 90
      172
 90
      183
 90
      184
 90
      185
 90
      183
 90
      185
 90
      182
 90
      185
 90
      182
 90
      183
 90
      185
 90
      186
 90
      182
 90
      186
 90
      181
 90
      186
 90
      181
 90
      182
 90
      186
 90
      187
 90
      181
 90
      187
 90
      180
 90
      187
 90
      180
 90
      181
 90
      187
 90
      188
 90
      180
 90
      188
 90
      179
 90
      188
 90
      179
 90
      180
 90
      188
 90
      189
 90
      179
 90
      189
 90
      178
 90
      189
 90
      178
 90
      179
 90
      189
 90
      190
 90
      178
 90
      190
 90
      177
 90
      190
 90
      177
 90
      178
 90
      190
 90
      191
 90
      177
 90
      191
 90
      176
 90
      191
 90
      176
 90
      177
 90
      191
 90
      192
 90
      176
 90
      192
 90
      175
 90
      192
 90
      175
 90
      176
 90
      192
 90
      193
 90
      175
 90
      193
 90
      174
 90
      193
 90
      174
 90
      175
 90
      193
 90
      194
 90
      174
 90
      194
 90
      173
 90
      194
 90
      173
 90
      174
 90
      194
 90
      195
 90
      179
 90
      183
 90
      172
 90
      179
 90
      172
 90
      178
 90
      173
 90
      178
 90
      173
 90
      177
 90
      174
 90
      177
 90
      174
 90
      176
 90
      180
 90
      183
 90
      180
 90
      182
 90
      191
 90
      195
 90
      184
 90
      191
 90
      184
 90
      190
 90
      185
 90
      190
 90
      185
 90
      189
 90
      186
 90
      189
 90
      186
 90
      188
 90
      192
 90
      195
 90
      192
 90
      194
 95
      582
140
0.0
140
0.0
140
0.0
140
0.0
140
0.0
140
0.0
140
0.0
140
0.0
140
0.0
140
0.0
140
0.0
140
0.0
140
0.0
140
0.0
140
0.0
140
0.0
140
0.0
140
0.0
140
0.0
140
0.0
140
0.0
140
0.0
140
0.0
140
0.0
140
0.0
140
0.0
140
0.0
140
0.0
140
0.0
140
0.0
140
0.0
140
0.0
140
0.0
140
0.0
140
0.0
140
0.0
140
0.0
140
0.0
140
0.0
140
0.0
140
0.0
140
0.0
140
0.0
140
0.0
140
0.0
140
0.0
140
0.0
140
0.0
140
0.0
140
0.0
140
0.0
140
0.0
140
0.0
140
0.0
140
0.0
140
0.0
140
0.0
140
0.0
140
0.0
140
0.0
140
0.0
140
0.0
140
0.0
140
0.0
140
0.0
140
0.0
140
0.0
140
0.0
140
0.0
140
0.0
140
0.0
140
0.0
140
0.0
140
0.0
140
0.0
140
0.0
140
0.0
140
0.0
140
0.0
140
0.0
140
0.0
140
0.0
140
0.0
140
0.0
140
0.0
140
0.0
140
0.0
140
0.0
140
0.0
140
0.0
140
0.0
140
0.0
140
0.0
140
0.0
140
0.0
140
0.0
140
0.0
140
0.0
140
0.0
140
0.0
140
0.0
140
0.0
140
0.0
140
0.0
140
0.0
140
0.0
140
0.0
140
0.0
140
0.0
140
0.0
140
0.0
140
0.0
140
0.0
140
0.0
140
0.0
140
0.0
140
0.0
140
0.0
140
0.0
140
0.0
140
0.0
140
0.0
140
0.0
140
0.0
140
0.0
140
0.0
140
0.0
140
0.0
140
0.0
140
0.0
140
0.0
140
0.0
140
0.0
140
0.0
140
0.0
140
0.0
140
0.0
140
0.0
140
0.0
140
0.0
140
0.0
140
0.0
140
0.0
140
0.0
140
0.0
140
0.0
140
0.0
140
0.0
140
0.0
140
0.0
140
0.0
140
0.0
140
0.0
140
0.0
140
0.0
140
0.0
140
0.0
140
0.0
140
0.0
140
0.0
140
0.0
140
0.0
140
0.0
140
0.0
140
0.0
140
0.0
140
0.0
140
0.0
140
0.0
140
0.0
140
0.0
140
0.0
140
0.0
140
0.0
140
0.0
140
0.0
140
0.0
140
0.0
140
0.0
140
0.0
140
0.0
140
0.0
140
0.0
140
0.0
140
0.0
140
0.0
140
0.0
140
0.0
140
0.0
140
0.0
140
0.0
140
0.0
140
0.0
140
0.0
140
0.0
140
0.0
140
0.0
140
0.0
140
0.0
140
0.0
140
0.0
140
0.0
140
0.0
140
0.0
140
0.0
140
0.0
140
0.0
140
0.0
140
0.0
140
0.0
140
0.0
140
0.0
140
0.0
140
0.0
140
0.0
140
0.0
140
0.0
140
0.0
140
0.0
140
0.0
140
0.0
140
0.0
140
0.0
140
0.0
140
0.0
140
0.0
140
0.0
140
0.0
140
0.0
140
0.0
140
0.0
140
0.0
140
0.0
140
0.0
140
0.0
140
0.0
140
0.0
140
0.0
140
0.0
140
0.0
140
0.0
140
0.0
140
0.0
140
0.0
140
0.0
140
0.0
140
0.0
140
0.0
140
0.0
140
0.0
140
0.0
140
0.0
140
0.0
140
0.0
140
0.0
140
0.0
140
0.0
140
0.0
140
0.0
140
0.0
140
0.0
140
0.0
140
0.0
140
0.0
140
0.0
140
0.0
140
0.0
140
0.0
140
0.0
140
0.0
140
0.0
140
0.0
140
0.0
140
0.0
140
0.0
140
0.0
140
0.0
140
0.0
140
0.0
140
0.0
140
0.0
140
0.0
140
0.0
140
0.0
140
0.0
140
0.0
140
0.0
140
0.0
140
0.0
140
0.0
140
0.0
140
0.0
140
0.0
140
0.0
140
0.0
140
0.0
140
0.0
140
0.0
140
0.0
140
0.0
140
0.0
140
0.0
140
0.0
140
0.0
140
0.0
140
0.0
140
0.0
140
0.0
140
0.0
140
0.0
140
0.0
140
0.0
140
0.0
140
0.0
140
0.0
140
0.0
140
0.0
140
0.0
140
0.0
140
0.0
140
0.0
140
0.0
140
0.0
140
0.0
140
0.0
140
0.0
140
0.0
140
0.0
140
0.0
140
0.0
140
0.0
140
0.0
140
0.0
140
0.0
140
0.0
140
0.0
140
0.0
140
0.0
140
0.0
140
0.0
140
0.0
140
0.0
140
0.0
140
0.0
140
0.0
140
0.0
140
0.0
140
0.0
140
0.0
140
0.0
140
0.0
140
0.0
140
0.0
140
0.0
140
0.0
140
0.0
140
0.0
140
0.0
140
0.0
140
0.0
140
0.0
140
0.0
140
0.0
140
0.0
140
0.0
140
0.0
140
0.0
140
0.0
140
0.0
140
0.0
140
0.0
140
0.0
140
0.0
140
0.0
140
0.0
140
0.0
140
0.0
140
0.0
140
0.0
140
0.0
140
0.0
140
0.0
140
0.0
140
0.0
140
0.0
140
0.0
140
0.0
140
0.0
140
0.0
140
0.0
140
0.0
140
0.0
140
0.0
140
0.0
140
0.0
140
0.0
140
0.0
140
0.0
140
0.0
140
0.0
140
0.0
140
0.0
140
0.0
140
0.0
140
0.0
140
0.0
140
0.0
140
0.0
140
0.0
140
0.0
140
0.0
140
0.0
140
0.0
140
0.0
140
0.0
140
0.0
140
0.0
140
0.0
140
0.0
140
0.0
140
0.0
140
0.0
140
0.0
140
0.0
140
0.0
140
0.0
140
0.0
140
0.0
140
0.0
140
0.0
140
0.0
140
0.0
140
0.0
140
0.0
140
0.0
140
0.0
140
0.0
140
0.0
140
0.0
140
0.0
140
0.0
140
0.0
140
0.0
140
0.0
140
0.0
140
0.0
140
0.0
140
0.0
140
0.0
140
0.0
140
0.0
140
0.0
140
0.0
140
0.0
140
0.0
140
0.0
140
0.0
140
0.0
140
0.0
140
0.0
140
0.0
140
0.0
140
0.0
140
0.0
140
0.0
140
0.0
140
0.0
140
0.0
140
0.0
140
0.0
140
0.0
140
0.0
140
0.0
140
0.0
140
0.0
140
0.0
140
0.0
140
0.0
140
0.0
140
0.0
140
0.0
140
0.0
140
0.0
140
0.0
140
0.0
140
0.0
140
0.0
140
0.0
140
0.0
140
0.0
140
0.0
140
0.0
140
0.0
140
0.0
140
0.0
140
0.0
140
0.0
140
0.0
140
0.0
140
0.0
140
0.0
140
0.0
140
0.0
140
0.0
140
0.0
140
0.0
140
0.0
140
0.0
140
0.0
140
0.0
140
0.0
140
0.0
140
0.0
140
0.0
140
0.0
140
0.0
140
0.0
140
0.0
140
0.0
140
0.0
140
0.0
140
0.0
140
0.0
140
0.0
140
0.0
140
0.0
140
0.0
140
0.0
140
0.0
140
0.0
140
0.0
140
0.0
140
0.0
140
0.0
140
0.0
140
0.0
140
0.0
140
0.0
140
0.0
140
0.0
140
0.0
140
0.0
140
0.0
140
0.0
140
0.0
140
0.0
140
0.0
140
0.0
140
0.0
140
0.0
140
0.0
140
0.0
140
0.0
140
0.0
140
0.0
140
0.0
140
0.0
140
0.0
140
0.0
140
0.0
140
0.0
140
0.0
140
0.0
140
0.0
140
0.0
140
0.0
140
0.0
140
0.0
140
0.0
140
0.0
140
0.0
140
0.0
140
0.0
140
0.0
140
0.0
140
0.0
140
0.0
140
0.0
140
0.0
140
0.0
140
0.0
140
0.0
 90
        0
  0
ENDSEC
  0
SECTION
  2
OBJECTS
  0
DICTIONARY
  5
C
330
0
100
AcDbDictionary
281
     1
  3
ACAD_COLOR
350
DC
  3
ACAD_DETAILVIEWSTYLE
350
F5
  3
ACAD_GROUP
350
D
  3
ACAD_LAYOUT
350
1A
  3
ACAD_MATERIAL
350
AA
  3
ACAD_MLEADERSTYLE
350
F1
  3
ACAD_MLINESTYLE
350
17
  3
ACAD_PLOTSETTINGS
350
19
  3
ACAD_PLOTSTYLENAME
350
E
  3
ACAD_SCALELIST
350
DF
  3
ACAD_SECTIONVIEWSTYLE
350
F3
  3
ACAD_TABLESTYLE
350
DD
  3
ACAD_VISUALSTYLE
350
C3
  3
ACDB_RECOMPOSE_DATA
350
109
  3
AcDbVariableDictionary
350
FD
  0
DICTIONARY
  5
DC
102
{ACAD_REACTORS
330
C
102
}
330
C
100
AcDbDictionary
281
     1
  0
DICTIONARY
  5
F5
102
{ACAD_REACTORS
330
C
102
}
330
C
100
AcDbDictionary
281
     1
  3
Imperial24
350
F6
  0
DICTIONARY
  5
D
102
{ACAD_REACTORS
330
C
102
}
330
C
100
AcDbDictionary
281
     1
  0
DICTIONARY
  5
1A
102
{ACAD_REACTORS
330
C
102
}
330
C
100
AcDbDictionary
281
     1
  3
Layout1
350
1E
  3
Layout2
350
26
  3
Model
350
22
  0
DICTIONARY
  5
AA
102
{ACAD_REACTORS
330
C
102
}
330
C
100
AcDbDictionary
281
     1
  3
ByBlock
350
B3
  3
ByLayer
350
AB
  3
Global
350
BB
  0
DICTIONARY
  5
F1
102
{ACAD_REACTORS
330
C
102
}
330
C
100
AcDbDictionary
281
     1
  3
Standard
350
F2
  0
DICTIONARY
  5
17
102
{ACAD_REACTORS
330
C
102
}
330
C
100
AcDbDictionary
281
     1
  3
Standard
350
18
  0
DICTIONARY
  5
19
102
{ACAD_REACTORS
330
C
102
}
330
C
100
AcDbDictionary
281
     1
  0
ACDBDICTIONARYWDFLT
  5
E
102
{ACAD_REACTORS
330
C
102
}
330
C
100
AcDbDictionary
281
     1
  3
ByLayer
350
2D
  3
Normal
350
F
100
AcDbDictionaryWithDefault
340
F
  0
DICTIONARY
  5
DF
102
{ACAD_REACTORS
330
C
102
}
330
C
100
AcDbDictionary
281
     1
  3
A0
350
E0
  3
A1
350
E1
  3
A2
350
E2
  3
A3
350
E3
  3
A4
350
E4
  3
A5
350
E5
  3
A6
350
E6
  3
A7
350
E7
  3
A8
350
E8
  3
A9
350
E9
  3
B0
350
EA
  3
B1
350
EB
  3
B2
350
EC
  3
B3
350
ED
  3
B4
350
EE
  3
B5
350
EF
  3
B6
350
F0
  0
DICTIONARY
  5
F3
102
{ACAD_REACTORS
330
C
102
}
330
C
100
AcDbDictionary
281
     1
  3
Imperial24
350
F4
  0
DICTIONARY
  5
DD
102
{ACAD_REACTORS
330
C
102
}
330
C
100
AcDbDictionary
281
     1
  3
Standard
350
DE
  0
DICTIONARY
  5
C3
102
{ACAD_REACTORS
330
C
102
}
330
C
100
AcDbDictionary
281
     1
  3
2dWireframe
350
C9
  3
Basic
350
C8
  3
Brighten
350
CF
  3
ColorChange
350
D3
  3
Conceptual
350
CC
  3
Dim
350
CE
  3
EdgeColorOff
350
DB
  3
Facepattern
350
D2
  3
Flat
350
C4
  3
FlatWithEdges
350
C5
  3
Gouraud
350
C6
  3
GouraudWithEdges
350
C7
  3
Hidden
350
CB
  3
JitterOff
350
D9
  3
Linepattern
350
D1
  3
OverhangOff
350
DA
  3
Realistic
350
CD
  3
Shaded
350
D8
  3
Shaded with edges
350
D7
  3
Shades of Gray
350
D4
  3
Sketchy
350
D5
  3
Thicken
350
D0
  3
Wireframe
350
CA
  3
X-Ray
350
D6
  0
XRECORD
  5
109
102
{ACAD_REACTORS
330
C
102
}
330
C
100
AcDbXrecord
280
     1
 90
        1
330
DE
  0
DICTIONARY
  5
FD
102
{ACAD_REACTORS
330
C
102
}
330
C
100
AcDbDictionary
281
     1
  3
CANNOSCALE
350
103
  3
CMLEADERSTYLE
350
FF
  3
CTABLESTYLE
350
FE
  3
CVIEWDETAILSTYLE
350
100
  3
CVIEWSECTIONSTYLE
350
101
  3
LAYEREVAL
350
105
  3
LAYERNOTIFY
350
106
  3
LIGHTINGUNITS
350
104
  3
MSLTSCALE
350
102
  0
ACDBDETAILVIEWSTYLE
  5
F6
102
{ACAD_XDICTIONARY
360
13E
102
}
102
{ACAD_REACTORS
330
F5
102
}
330
F5
100
AcDbModelDocViewStyle
 70
     0
  3
Imperial24
290
     0
100
AcDbDetailViewStyle
 70
     0
 71
     0
 90
        3
 71
     1
340
11
 62
   256
 40
0.24
340
0
 62
   256
 40
0.24
300

 40
0.36
280
     3
 71
     2
340
16
 90
       25
 62
   256
 71
     3
340
11
 62
   256
 40
0.24
 90
        1
 40
0.75
 90
        1
300
%<\AcVar ViewType \f "%tc1">% %<\AcVar ViewDetailId>%\PSCALE %<\AcVar ViewScale \f "%sn">%
 71
     4
340
16
 90
       25
 62
   256
340
16
 90
       25
 62
   256
280
     0
  0
LAYOUT
  5
1E
102
{ACAD_REACTORS
330
1A
102
}
330
1A
100
AcDbPlotSettings
  1

  2
\\KTXNTBDC\CASF2PN1
  4

  6

 40
0.0
 41
0.0
 42
0.0
 43
0.0
 44
0.0
 45
0.0
 46
0.0
 47
0.0
 48
0.0
 49
0.0
140
0.0
141
0.0
142
1.0
143
1.0
 70
   688
 72
     0
 73
     0
 74
     5
  7

 75
    16
147
1.0
 76
     0
 77
     2
 78
   300
148
0.0
149
0.0
100
AcDbLayout
  1
Layout1
 70
     1
 71
     1
 10
0.0
 20
0.0
 11
12.0
 21
9.0
 12
0.0
 22
0.0
 32
0.0
 14
1.000000000000000E+20
 24
1.000000000000000E+20
 34
1.000000000000000E+20
 15
-1.000000000000000E+20
 25
-1.000000000000000E+20
 35
-1.000000000000000E+20
146
0.0
 13
0.0
 23
0.0
 33
0.0
 16
1.0
 26
0.0
 36
0.0
 17
0.0
 27
1.0
 37
0.0
 76
     0
330
1B
  0
LAYOUT
  5
26
102
{ACAD_REACTORS
330
1A
102
}
330
1A
100
AcDbPlotSettings
  1

  2
\\KTXNTBDC\CASF2PN1
  4

  6

 40
0.0
 41
0.0
 42
0.0
 43
0.0
 44
0.0
 45
0.0
 46
0.0
 47
0.0
 48
0.0
 49
0.0
140
0.0
141
0.0
142
1.0
143
1.0
 70
   688
 72
     0
 73
     0
 74
     5
  7

 75
    16
147
1.0
 76
     0
 77
     2
 78
   300
148
0.0
149
0.0
100
AcDbLayout
  1
Layout2
 70
     1
 71
     2
 10
0.0
 20
0.0
 11
12.0
 21
9.0
 12
0.0
 22
0.0
 32
0.0
 14
0.0
 24
0.0
 34
0.0
 15
0.0
 25
0.0
 35
0.0
146
0.0
 13
0.0
 23
0.0
 33
0.0
 16
1.0
 26
0.0
 36
0.0
 17
0.0
 27
1.0
 37
0.0
 76
     0
330
23
  0
LAYOUT
  5
22
102
{ACAD_REACTORS
330
1A
102
}
330
1A
100
AcDbPlotSettings
  1

  2
\\KTXNTBDC\CASF2PN1
  4

  6

 40
0.0
 41
0.0
 42
0.0
 43
0.0
 44
0.0
 45
0.0
 46
0.0
 47
0.0
 48
0.0
 49
0.0
140
0.0
141
0.0
142
1.0
143
1.0
 70
  1712
 72
     0
 73
     0
 74
     0
  7

 75
     0
147
1.0
 76
     0
 77
     2
 78
   300
148
0.0
149
0.0
100
AcDbLayout
  1
Model
 70
     1
 71
     0
 10
0.0
 20
0.0
 11
12.0
 21
9.0
 12
0.0
 22
0.0
 32
0.0
 14
0.0
 24
0.0
 34
0.0
 15
0.0
 25
0.0
 35
0.0
146
0.0
 13
0.0
 23
0.0
 33
0.0
 16
1.0
 26
0.0
 36
0.0
 17
0.0
 27
1.0
 37
0.0
 76
     0
330
1F
  0
MATERIAL
  5
B3
102
{ACAD_XDICTIONARY
360
B4
102
}
102
{ACAD_REACTORS
330
AA
102
}
330
AA
100
AcDbMaterial
  1
ByBlock
 72
     0
 43
0.0208333333333333
 43
0.0
 43
0.0
 43
0.0
 43
0.0
 43
0.0208333333333333
 43
0.0
 43
0.0
 43
0.0
 43
0.0
 43
1.0
 43
0.0
 43
0.0
 43
0.0
 43
0.0
 43
1.0
 77
     0
 47
0.0208333333333333
 47
0.0
 47
0.0
 47
0.0
 47
0.0
 47
0.0208333333333333
 47
0.0
 47
0.0
 47
0.0
 47
0.0
 47
1.0
 47
0.0
 47
0.0
 47
0.0
 47
0.0
 47
1.0
171
     0
 49
0.0208333333333333
 49
0.0
 49
0.0
 49
0.0
 49
0.0
 49
0.0208333333333333
 49
0.0
 49
0.0
 49
0.0
 49
0.0
 49
1.0
 49
0.0
 49
0.0
 49
0.0
 49
0.0
 49
1.0
175
     0
142
0.0208333333333333
142
0.0
142
0.0
142
0.0
142
0.0
142
0.0208333333333333
142
0.0
142
0.0
142
0.0
142
0.0
142
1.0
142
0.0
142
0.0
142
0.0
142
0.0
142
1.0
179
     0
144
0.0208333333333333
144
0.0
144
0.0
144
0.0
144
0.0
144
0.0208333333333333
144
0.0
144
0.0
144
0.0
144
0.0
144
1.0
144
0.0
144
0.0
144
0.0
144
0.0
144
1.0
147
0.0208333333333333
147
0.0
147
0.0
147
0.0
147
0.0
147
0.0208333333333333
147
0.0
147
0.0
147
0.0
147
0.0
147
1.0
147
0.0
147
0.0
147
0.0
147
0.0
147
1.0
  0
MATERIAL
  5
AB
102
{ACAD_XDICTIONARY
360
AC
102
}
102
{ACAD_REACTORS
330
AA
102
}
330
AA
100
AcDbMaterial
  1
ByLayer
 72
     0
 43
0.0208333333333333
 43
0.0
 43
0.0
 43
0.0
 43
0.0
 43
0.0208333333333333
 43
0.0
 43
0.0
 43
0.0
 43
0.0
 43
1.0
 43
0.0
 43
0.0
 43
0.0
 43
0.0
 43
1.0
 77
     0
 47
0.0208333333333333
 47
0.0
 47
0.0
 47
0.0
 47
0.0
 47
0.0208333333333333
 47
0.0
 47
0.0
 47
0.0
 47
0.0
 47
1.0
 47
0.0
 47
0.0
 47
0.0
 47
0.0
 47
1.0
171
     0
 49
0.0208333333333333
 49
0.0
 49
0.0
 49
0.0
 49
0.0
 49
0.0208333333333333
 49
0.0
 49
0.0
 49
0.0
 49
0.0
 49
1.0
 49
0.0
 49
0.0
 49
0.0
 49
0.0
 49
1.0
175
     0
142
0.0208333333333333
142
0.0
142
0.0
142
0.0
142
0.0
142
0.0208333333333333
142
0.0
142
0.0
142
0.0
142
0.0
142
1.0
142
0.0
142
0.0
142
0.0
142
0.0
142
1.0
179
     0
144
0.0208333333333333
144
0.0
144
0.0
144
0.0
144
0.0
144
0.0208333333333333
144
0.0
144
0.0
144
0.0
144
0.0
144
1.0
144
0.0
144
0.0
144
0.0
144
0.0
144
1.0
147
0.0208333333333333
147
0.0
147
0.0
147
0.0
147
0.0
147
0.0208333333333333
147
0.0
147
0.0
147
0.0
147
0.0
147
1.0
147
0.0
147
0.0
147
0.0
147
0.0
147
1.0
  0
MATERIAL
  5
BB
102
{ACAD_XDICTIONARY
360
BC
102
}
102
{ACAD_REACTORS
330
AA
102
}
330
AA
100
AcDbMaterial
  1
Global
 72
     0
 43
0.0208333333333333
 43
0.0
 43
0.0
 43
0.0
 43
0.0
 43
0.0208333333333333
 43
0.0
 43
0.0
 43
0.0
 43
0.0
 43
1.0
 43
0.0
 43
0.0
 43
0.0
 43
0.0
 43
1.0
 77
     0
 47
0.0208333333333333
 47
0.0
 47
0.0
 47
0.0
 47
0.0
 47
0.0208333333333333
 47
0.0
 47
0.0
 47
0.0
 47
0.0
 47
1.0
 47
0.0
 47
0.0
 47
0.0
 47
0.0
 47
1.0
171
     0
 49
0.0208333333333333
 49
0.0
 49
0.0
 49
0.0
 49
0.0
 49
0.0208333333333333
 49
0.0
 49
0.0
 49
0.0
 49
0.0
 49
1.0
 49
0.0
 49
0.0
 49
0.0
 49
0.0
 49
1.0
175
     0
142
0.0208333333333333
142
0.0
142
0.0
142
0.0
142
0.0
142
0.0208333333333333
142
0.0
142
0.0
142
0.0
142
0.0
142
1.0
142
0.0
142
0.0
142
0.0
142
0.0
142
1.0
179
     0
144
0.0208333333333333
144
0.0
144
0.0
144
0.0
144
0.0
144
0.0208333333333333
144
0.0
144
0.0
144
0.0
144
0.0
144
1.0
144
0.0
144
0.0
144
0.0
144
0.0
144
1.0
147
0.0208333333333333
147
0.0
147
0.0
147
0.0
147
0.0
147
0.0208333333333333
147
0.0
147
0.0
147
0.0
147
0.0
147
1.0
147
0.0
147
0.0
147
0.0
147
0.0
147
1.0
  0
MLEADERSTYLE
  5
F2
102
{ACAD_XDICTIONARY
360
13A
102
}
102
{ACAD_REACTORS
330
F1
102
}
330
F1
100
AcDbMLeaderStyle
179
     2
170
     2
171
     1
172
     0
 90
        2
 40
0.0
 41
0.0
173
     1
 91
-1056964608
340
14
 92
       -2
290
     1
 42
0.09
291
     1
 43
0.36
  3
Standard
 44
0.18
300

342
11
174
     1
178
     6
175
     1
176
     0
 93
-1056964608
 45
0.18
292
     0
297
     0
 46
0.18
 94
-1056964608
 47
1.0
 49
1.0
140
1.0
293
     1
141
0.0
294
     1
177
     0
142
1.0
295
     0
296
     0
143
0.125
271
     0
272
     9
273
     9
  0
MLINESTYLE
  5
18
102
{ACAD_REACTORS
330
17
102
}
330
17
100
AcDbMlineStyle
  2
STANDARD
 70
     0
  3

 62
   256
 51
90.0
 52
90.0
 71
     2
 49
0.5
 62
   256
  6
BYLAYER
 49
-0.5
 62
   256
  6
BYLAYER
  0
ACDBPLACEHOLDER
  5
2D
102
{ACAD_REACTORS
330
E
102
}
330
E
  0
ACDBPLACEHOLDER
  5
F
102
{ACAD_REACTORS
330
E
102
}
330
E
  0
SCALE
  5
E0
102
{ACAD_REACTORS
330
DF
102
}
330
DF
100
AcDbScale
 70
     0
300
1:1
140
1.0
141
1.0
290
     1
  0
SCALE
  5
E1
102
{ACAD_REACTORS
330
DF
102
}
330
DF
100
AcDbScale
 70
     0
300
1/128" = 1'-0"
140
0.0078125
141
12.0
290
     0
  0
SCALE
  5
E2
102
{ACAD_REACTORS
330
DF
102
}
330
DF
100
AcDbScale
 70
     0
300
1/64" = 1'-0"
140
0.015625
141
12.0
290
     0
  0
SCALE
  5
E3
102
{ACAD_REACTORS
330
DF
102
}
330
DF
100
AcDbScale
 70
     0
300
1/32" = 1'-0"
140
0.03125
141
12.0
290
     0
  0
SCALE
  5
E4
102
{ACAD_REACTORS
330
DF
102
}
330
DF
100
AcDbScale
 70
     0
300
1/16" = 1'-0"
140
0.0625
141
12.0
290
     0
  0
SCALE
  5
E5
102
{ACAD_REACTORS
330
DF
102
}
330
DF
100
AcDbScale
 70
     0
300
3/32" = 1'-0"
140
0.09375
141
12.0
290
     0
  0
SCALE
  5
E6
102
{ACAD_REACTORS
330
DF
102
}
330
DF
100
AcDbScale
 70
     0
300
1/8" = 1'-0"
140
0.125
141
12.0
290
     0
  0
SCALE
  5
E7
102
{ACAD_REACTORS
330
DF
102
}
330
DF
100
AcDbScale
 70
     0
300
3/16" = 1'-0"
140
0.1875
141
12.0
290
     0
  0
SCALE
  5
E8
102
{ACAD_REACTORS
330
DF
102
}
330
DF
100
AcDbScale
 70
     0
300
1/4" = 1'-0"
140
0.25
141
12.0
290
     0
  0
SCALE
  5
E9
102
{ACAD_REACTORS
330
DF
102
}
330
DF
100
AcDbScale
 70
     0
300
3/8" = 1'-0"
140
0.375
141
12.0
290
     0
  0
SCALE
  5
EA
102
{ACAD_REACTORS
330
DF
102
}
330
DF
100
AcDbScale
 70
     0
300
1/2" = 1'-0"
140
0.5
141
12.0
290
     0
  0
SCALE
  5
EB
102
{ACAD_REACTORS
330
DF
102
}
330
DF
100
AcDbScale
 70
     0
300
3/4" = 1'-0"
140
0.75
141
12.0
290
     0
  0
SCALE
  5
EC
102
{ACAD_REACTORS
330
DF
102
}
330
DF
100
AcDbScale
 70
     0
300
1" = 1'-0"
140
1.0
141
12.0
290
     0
  0
SCALE
  5
ED
102
{ACAD_REACTORS
330
DF
102
}
330
DF
100
AcDbScale
 70
     0
300
1-1/2" = 1'-0"
140
1.5
141
12.0
290
     0
  0
SCALE
  5
EE
102
{ACAD_REACTORS
330
DF
102
}
330
DF
100
AcDbScale
 70
     0
300
3" = 1'-0"
140
3.0
141
12.0
290
     0
  0
SCALE
  5
EF
102
{ACAD_REACTORS
330
DF
102
}
330
DF
100
AcDbScale
 70
     0
300
6" = 1'-0"
140
6.0
141
12.0
290
     0
  0
SCALE
  5
F0
102
{ACAD_REACTORS
330
DF
102
}
330
DF
100
AcDbScale
 70
     0
300
1'-0" = 1'-0"
140
12.0
141
12.0
290
     0
  0
ACDBSECTIONVIEWSTYLE
  5
F4
102
{ACAD_XDICTIONARY
360
13C
102
}
102
{ACAD_REACTORS
330
F3
102
}
330
F3
100
AcDbModelDocViewStyle
 70
     0
  3
Imperial24
290
     0
100
AcDbSectionViewStyle
 70
     0
 71
     0
 90
       78
 71
     1
340
11
 62
   256
 40
0.24
340
0
340
0
 62
   256
 40
0.24
300
I, O, Q, S, X, Z
 40
0.48
 90
        3
 40
0.18
 90
        1
 71
     2
340
16
 90
       25
 62
   256
340
16
 90
       50
 62
   256
 40
0.24
 40
0.0
 40
0.24
 71
     3
340
11
 62
   256
 40
0.24
 90
        1
 40
0.75
 90
        1
300
%<\AcVar ViewType \f "%tc1">% %<\AcVar ViewSectionStartId>%-%<\AcVar ViewSectionEndId>%\PSCALE %<\AcVar ViewScale \f "%sn">%
 71
     4
 62
   256
 62
   257
300
ANSI31
 40
1.0
 90
        0
290
     0
290
     0
 90
        6
 40
0.0
 40
1.570796326794896
 40
0.2617993877991494
 40
1.308996938995747
 40
-0.2617993877991494
 40
1.832595714594046
  0
TABLESTYLE
  5
DE
102
{ACAD_XDICTIONARY
360
107
102
}
102
{ACAD_REACTORS
330
DD
102
}
330
DD
100
AcDbTableStyle
280
     0
  3
Standard
 70
     0
 71
     0
 40
0.06
 41
0.06
280
     0
281
     0
  7
Standard
140
0.18
170
     2
 62
     0
 63
     7
283
     0
 90
      512
 91
        0
  1

274
    -2
284
     1
 64
     0
275
    -2
285
     1
 65
     0
276
    -2
286
     1
 66
     0
277
    -2
287
     1
 67
     0
278
    -2
288
     1
 68
     0
279
    -2
289
     1
 69
     0
  7
Standard
140
0.25
170
     5
 62
     0
 63
     7
283
     0
 90
      512
 91
        0
  1

274
    -2
284
     1
 64
     0
275
    -2
285
     1
 65
     0
276
    -2
286
     1
 66
     0
277
    -2
287
     1
 67
     0
278
    -2
288
     1
 68
     0
279
    -2
289
     1
 69
     0
  7
Standard
140
0.18
170
     5
 62
     0
 63
     7
283
     0
 90
      512
 91
        0
  1

274
    -2
284
     1
 64
     0
275
    -2
285
     1
 65
     0
276
    -2
286
     1
 66
     0
277
    -2
287
     1
 67
     0
278
    -2
288
     1
 68
     0
279
    -2
289
     1
 69
     0
  0
VISUALSTYLE
  5
C9
102
{ACAD_XDICTIONARY
360
114
102
}
102
{ACAD_REACTORS
330
C3
102
}
330
C3
100
AcDbVisualStyle
  2
2dWireframe
 70
     4
177
     2
291
     0
 71
     0
176
     1
 72
     2
176
     1
 73
     0
176
     1
 90
        0
176
     1
 40
0.6
176
     1
 41
30.0
176
     1
 63
     7
421
 16777215
176
     1
 74
     1
176
     1
 91
        4
176
     1
 64
     7
176
     1
 65
   257
176
     1
 75
     1
176
     1
175
     1
176
     1
 42
1.0
176
     1
 92
        0
176
     1
 66
   257
176
     1
 43
1.0
176
     1
 76
     1
176
     1
 77
     6
176
     1
 78
     2
176
     1
 67
     7
176
     1
 79
     5
176
     1
170
     0
176
     1
171
     0
176
     1
290
     0
176
     1
 93
        1
176
     1
 44
0.0
176
     1
173
     0
176
     1
1001
ACAD
1000
AcDbSavedByObjectVersion
1070
     0
  0
VISUALSTYLE
  5
C8
102
{ACAD_XDICTIONARY
360
112
102
}
102
{ACAD_REACTORS
330
C3
102
}
330
C3
100
AcDbVisualStyle
  2
Basic
 70
     7
177
     2
291
     1
 71
     1
176
     1
 72
     0
176
     1
 73
     1
176
     1
 90
        0
176
     1
 40
0.6
176
     1
 41
30.0
176
     1
 63
     7
421
 16777215
176
     1
 74
     0
176
     1
 91
        4
176
     1
 64
     7
176
     1
 65
   257
176
     1
 75
     1
176
     1
175
     1
176
     1
 42
1.0
176
     1
 92
        8
176
     1
 66
     7
176
     1
 43
1.0
176
     1
 76
     1
176
     1
 77
     6
176
     1
 78
     2
176
     1
 67
     7
176
     1
 79
     5
176
     1
170
     0
176
     1
171
     0
176
     1
290
     0
176
     1
 93
        1
176
     1
 44
0.0
176
     1
173
     0
176
     1
1001
ACAD
1000
AcDbSavedByObjectVersion
1070
     0
  0
VISUALSTYLE
  5
CF
102
{ACAD_XDICTIONARY
360
120
102
}
102
{ACAD_REACTORS
330
C3
102
}
330
C3
100
AcDbVisualStyle
  2
Brighten
 70
    12
177
     2
291
     1
 71
     2
176
     1
 72
     2
176
     1
 73
     0
176
     1
 90
        0
176
     1
 40
0.6
176
     1
 41
30.0
176
     1
 63
     7
421
 16777215
176
     1
 74
     1
176
     1
 91
        4
176
     1
 64
     7
176
     1
 65
   257
176
     1
 75
     1
176
     1
175
     1
176
     1
 42
1.0
176
     1
 92
        8
176
     1
 66
     7
176
     1
 43
1.0
176
     1
 76
     1
176
     1
 77
     6
176
     1
 78
     2
176
     1
 67
     7
176
     1
 79
     5
176
     1
170
     0
176
     1
171
     0
176
     1
290
     0
176
     1
 93
        1
176
     1
 44
50.0
176
     1
173
     0
176
     1
1001
ACAD
1000
AcDbSavedByObjectVersion
1070
     0
  0
VISUALSTYLE
  5
D3
102
{ACAD_XDICTIONARY
360
128
102
}
102
{ACAD_REACTORS
330
C3
102
}
330
C3
100
AcDbVisualStyle
  2
ColorChange
 70
    16
177
     2
291
     1
 71
     2
176
     1
 72
     2
176
     1
 73
     3
176
     1
 90
        0
176
     1
 40
0.6
176
     1
 41
30.0
176
     1
 63
     8
421
  8421504
176
     1
 74
     1
176
     1
 91
        4
176
     1
 64
     7
176
     1
 65
   257
176
     1
 75
     1
176
     1
175
     1
176
     1
 42
1.0
176
     1
 92
        8
176
     1
 66
     8
424
  8421504
176
     1
 43
1.0
176
     1
 76
     1
176
     1
 77
     6
176
     1
 78
     2
176
     1
 67
     7
176
     1
 79
     5
176
     1
170
     0
176
     1
171
     0
176
     1
290
     0
176
     1
 93
        1
176
     1
 44
0.0
176
     1
173
     0
176
     1
1001
ACAD
1000
AcDbSavedByObjectVersion
1070
     0
  0
VISUALSTYLE
  5
CC
102
{ACAD_XDICTIONARY
360
11A
102
}
102
{ACAD_REACTORS
330
C3
102
}
330
C3
100
AcDbVisualStyle
  2
Conceptual
 70
     9
177
     2
291
     0
 71
     3
176
     1
 72
     2
176
     1
 73
     0
176
     1
 90
        0
176
     1
 40
0.6
176
     1
 41
30.0
176
     1
 63
     7
421
 16777215
176
     1
 74
     2
176
     1
 91
        2
176
     1
 64
     7
176
     1
 65
   257
176
     1
 75
     1
176
     1
175
     1
176
     1
 42
179.0
176
     1
 92
        8
176
     1
 66
     7
176
     1
 43
1.0
176
     1
 76
     1
176
     1
 77
     6
176
     1
 78
     2
176
     1
 67
     7
176
     1
 79
     3
176
     1
170
     0
176
     1
171
     0
176
     1
290
     0
176
     1
 93
        1
176
     1
 44
0.0
176
     1
173
     0
176
     1
1001
ACAD
1000
AcDbSavedByObjectVersion
1070
     0
  0
VISUALSTYLE
  5
CE
102
{ACAD_XDICTIONARY
360
11E
102
}
102
{ACAD_REACTORS
330
C3
102
}
330
C3
100
AcDbVisualStyle
  2
Dim
 70
    11
177
     2
291
     1
 71
     2
176
     1
 72
     2
176
     1
 73
     0
176
     1
 90
        0
176
     1
 40
0.6
176
     1
 41
30.0
176
     1
 63
     7
421
 16777215
176
     1
 74
     1
176
     1
 91
        4
176
     1
 64
     7
176
     1
 65
   257
176
     1
 75
     1
176
     1
175
     1
176
     1
 42
1.0
176
     1
 92
        8
176
     1
 66
     7
176
     1
 43
1.0
176
     1
 76
     1
176
     1
 77
     6
176
     1
 78
     2
176
     1
 67
     7
176
     1
 79
     5
176
     1
170
     0
176
     1
171
     0
176
     1
290
     0
176
     1
 93
        1
176
     1
 44
-50.0
176
     1
173
     0
176
     1
1001
ACAD
1000
AcDbSavedByObjectVersion
1070
     0
  0
VISUALSTYLE
  5
DB
102
{ACAD_XDICTIONARY
360
138
102
}
102
{ACAD_REACTORS
330
C3
102
}
330
C3
100
AcDbVisualStyle
  2
EdgeColorOff
 70
    22
177
     2
291
     1
 71
     2
176
     0
 72
     2
176
     0
 73
     0
176
     0
 90
        0
176
     0
 40
0.6
176
     0
 41
30.0
176
     0
 63
     7
421
 16777215
176
     0
 74
     1
176
     0
 91
        4
176
     0
 64
     7
176
     0
 65
   257
176
     0
 75
     1
176
     0
175
     1
176
     0
 42
1.0
176
     0
 92
        8
176
     2
 66
     7
176
     0
 43
1.0
176
     0
 76
     1
176
     0
 77
     6
176
     0
 78
     2
176
     0
 67
     7
176
     0
 79
     5
176
     0
170
     0
176
     0
171
     0
176
     0
290
     0
176
     0
 93
        1
176
     0
 44
0.0
176
     0
173
     0
176
     0
1001
ACAD
1000
AcDbSavedByObjectVersion
1070
     0
  0
VISUALSTYLE
  5
D2
102
{ACAD_XDICTIONARY
360
126
102
}
102
{ACAD_REACTORS
330
C3
102
}
330
C3
100
AcDbVisualStyle
  2
Facepattern
 70
    15
177
     2
291
     1
 71
     2
176
     1
 72
     2
176
     1
 73
     0
176
     1
 90
        0
176
     1
 40
0.6
176
     1
 41
30.0
176
     1
 63
     7
421
 16777215
176
     1
 74
     1
176
     1
 91
        4
176
     1
 64
     7
176
     1
 65
   257
176
     1
 75
     1
176
     1
175
     1
176
     1
 42
1.0
176
     1
 92
        8
176
     1
 66
     7
176
     1
 43
1.0
176
     1
 76
     1
176
     1
 77
     6
176
     1
 78
     2
176
     1
 67
     7
176
     1
 79
     5
176
     1
170
     0
176
     1
171
     0
176
     1
290
     0
176
     1
 93
        1
176
     1
 44
0.0
176
     1
173
     0
176
     1
1001
ACAD
1000
AcDbSavedByObjectVersion
1070
     0
  0
VISUALSTYLE
  5
C4
102
{ACAD_XDICTIONARY
360
10A
102
}
102
{ACAD_REACTORS
330
C3
102
}
330
C3
100
AcDbVisualStyle
  2
Flat
 70
     0
177
     2
291
     1
 71
     2
176
     1
 72
     1
176
     1
 73
     1
176
     1
 90
        2
176
     1
 40
0.6
176
     1
 41
30.0
176
     1
 63
     7
421
 16777215
176
     1
 74
     0
176
     1
 91
        0
176
     1
 64
     7
176
     1
 65
   257
176
     1
 75
     1
176
     1
175
     1
176
     1
 42
1.0
176
     1
 92
        8
176
     1
 66
     7
176
     1
 43
1.0
176
     1
 76
     1
176
     1
 77
     6
176
     1
 78
     2
176
     1
 67
     7
176
     1
 79
     5
176
     1
170
     0
176
     1
171
     0
176
     1
290
     0
176
     1
 93
       13
176
     1
 44
0.0
176
     1
173
     0
176
     1
1001
ACAD
1000
AcDbSavedByObjectVersion
1070
     0
  0
VISUALSTYLE
  5
C5
102
{ACAD_XDICTIONARY
360
10C
102
}
102
{ACAD_REACTORS
330
C3
102
}
330
C3
100
AcDbVisualStyle
  2
FlatWithEdges
 70
     1
177
     2
291
     1
 71
     2
176
     1
 72
     1
176
     1
 73
     1
176
     1
 90
        2
176
     1
 40
0.6
176
     1
 41
30.0
176
     1
 63
     7
421
 16777215
176
     1
 74
     1
176
     1
 91
        0
176
     1
 64
     7
176
     1
 65
   257
176
     1
 75
     1
176
     1
175
     1
176
     1
 42
1.0
176
     1
 92
        0
176
     1
 66
   257
176
     1
 43
1.0
176
     1
 76
     1
176
     1
 77
     6
176
     1
 78
     2
176
     1
 67
     7
176
     1
 79
     5
176
     1
170
     0
176
     1
171
     0
176
     1
290
     0
176
     1
 93
       13
176
     1
 44
0.0
176
     1
173
     0
176
     1
1001
ACAD
1000
AcDbSavedByObjectVersion
1070
     0
  0
VISUALSTYLE
  5
C6
102
{ACAD_XDICTIONARY
360
10E
102
}
102
{ACAD_REACTORS
330
C3
102
}
330
C3
100
AcDbVisualStyle
  2
Gouraud
 70
     2
177
     2
291
     1
 71
     2
176
     1
 72
     2
176
     1
 73
     1
176
     1
 90
        2
176
     1
 40
0.6
176
     1
 41
30.0
176
     1
 63
     7
421
 16777215
176
     1
 74
     0
176
     1
 91
        0
176
     1
 64
     7
176
     1
 65
   257
176
     1
 75
     1
176
     1
175
     1
176
     1
 42
1.0
176
     1
 92
        0
176
     1
 66
     7
176
     1
 43
1.0
176
     1
 76
     1
176
     1
 77
     6
176
     1
 78
     2
176
     1
 67
     7
176
     1
 79
     5
176
     1
170
     0
176
     1
171
     0
176
     1
290
     0
176
     1
 93
       13
176
     1
 44
0.0
176
     1
173
     0
176
     1
1001
ACAD
1000
AcDbSavedByObjectVersion
1070
     0
  0
VISUALSTYLE
  5
C7
102
{ACAD_XDICTIONARY
360
110
102
}
102
{ACAD_REACTORS
330
C3
102
}
330
C3
100
AcDbVisualStyle
  2
GouraudWithEdges
 70
     3
177
     2
291
     1
 71
     2
176
     1
 72
     2
176
     1
 73
     1
176
     1
 90
        2
176
     1
 40
0.6
176
     1
 41
30.0
176
     1
 63
     7
421
 16777215
176
     1
 74
     1
176
     1
 91
        0
176
     1
 64
     7
176
     1
 65
   257
176
     1
 75
     1
176
     1
175
     1
176
     1
 42
1.0
176
     1
 92
        0
176
     1
 66
   257
176
     1
 43
1.0
176
     1
 76
     1
176
     1
 77
     6
176
     1
 78
     2
176
     1
 67
     7
176
     1
 79
     5
176
     1
170
     0
176
     1
171
     0
176
     1
290
     0
176
     1
 93
       13
176
     1
 44
0.0
176
     1
173
     0
176
     1
1001
ACAD
1000
AcDbSavedByObjectVersion
1070
     0
  0
VISUALSTYLE
  5
CB
102
{ACAD_XDICTIONARY
360
118
102
}
102
{ACAD_REACTORS
330
C3
102
}
330
C3
100
AcDbVisualStyle
  2
Hidden
 70
     6
177
     2
291
     0
 71
     1
176
     1
 72
     2
176
     1
 73
     2
176
     1
 90
        0
176
     1
 40
0.6
176
     1
 41
30.0
176
     1
 63
     7
421
 16777215
176
     1
 74
     2
176
     1
 91
        2
176
     1
 64
     7
176
     1
 65
   257
176
     1
 75
     2
176
     1
175
     1
176
     1
 42
40.0
176
     1
 92
        0
176
     1
 66
   257
176
     1
 43
1.0
176
     1
 76
     1
176
     1
 77
     6
176
     1
 78
     2
176
     1
 67
     7
176
     1
 79
     3
176
     1
170
     0
176
     1
171
     0
176
     1
290
     0
176
     1
 93
        1
176
     1
 44
0.0
176
     1
173
     0
176
     1
1001
ACAD
1000
AcDbSavedByObjectVersion
1070
     0
  0
VISUALSTYLE
  5
D9
102
{ACAD_XDICTIONARY
360
134
102
}
102
{ACAD_REACTORS
330
C3
102
}
330
C3
100
AcDbVisualStyle
  2
JitterOff
 70
    20
177
     2
291
     1
 71
     2
176
     0
 72
     2
176
     0
 73
     0
176
     0
 90
        0
176
     0
 40
0.6
176
     0
 41
30.0
176
     0
 63
     7
421
 16777215
176
     0
 74
     1
176
     0
 91
        4
176
     0
 64
     7
176
     0
 65
   257
176
     0
 75
     1
176
     0
175
     1
176
     0
 42
1.0
176
     0
 92
       10
176
     2
 66
     7
176
     0
 43
1.0
176
     0
 76
     1
176
     0
 77
     6
176
     0
 78
     2
176
     0
 67
     7
176
     0
 79
     5
176
     0
170
     0
176
     0
171
     0
176
     0
290
     0
176
     0
 93
        1
176
     0
 44
0.0
176
     0
173
     0
176
     0
1001
ACAD
1000
AcDbSavedByObjectVersion
1070
     0
  0
VISUALSTYLE
  5
D1
102
{ACAD_XDICTIONARY
360
124
102
}
102
{ACAD_REACTORS
330
C3
102
}
330
C3
100
AcDbVisualStyle
  2
Linepattern
 70
    14
177
     2
291
     1
 71
     2
176
     1
 72
     2
176
     1
 73
     0
176
     1
 90
        0
176
     1
 40
0.6
176
     1
 41
30.0
176
     1
 63
     7
421
 16777215
176
     1
 74
     1
176
     1
 91
        4
176
     1
 64
     7
176
     1
 65
   257
176
     1
 75
     7
176
     1
175
     7
176
     1
 42
1.0
176
     1
 92
        8
176
     1
 66
     7
176
     1
 43
1.0
176
     1
 76
     1
176
     1
 77
     6
176
     1
 78
     2
176
     1
 67
     7
176
     1
 79
     5
176
     1
170
     0
176
     1
171
     0
176
     1
290
     0
176
     1
 93
        1
176
     1
 44
0.0
176
     1
173
     0
176
     1
1001
ACAD
1000
AcDbSavedByObjectVersion
1070
     0
  0
VISUALSTYLE
  5
DA
102
{ACAD_XDICTIONARY
360
136
102
}
102
{ACAD_REACTORS
330
C3
102
}
330
C3
100
AcDbVisualStyle
  2
OverhangOff
 70
    21
177
     2
291
     1
 71
     2
176
     0
 72
     2
176
     0
 73
     0
176
     0
 90
        0
176
     0
 40
0.6
176
     0
 41
30.0
176
     0
 63
     7
421
 16777215
176
     0
 74
     1
176
     0
 91
        4
176
     0
 64
     7
176
     0
 65
   257
176
     0
 75
     1
176
     0
175
     1
176
     0
 42
1.0
176
     0
 92
        9
176
     2
 66
     7
176
     0
 43
1.0
176
     0
 76
     1
176
     0
 77
     6
176
     0
 78
     2
176
     0
 67
     7
176
     0
 79
     5
176
     0
170
     0
176
     0
171
     0
176
     0
290
     0
176
     0
 93
        1
176
     0
 44
0.0
176
     0
173
     0
176
     0
1001
ACAD
1000
AcDbSavedByObjectVersion
1070
     0
  0
VISUALSTYLE
  5
CD
102
{ACAD_XDICTIONARY
360
11C
102
}
102
{ACAD_REACTORS
330
C3
102
}
330
C3
100
AcDbVisualStyle
  2
Realistic
 70
     8
177
     2
291
     0
 71
     2
176
     1
 72
     3
176
     1
 73
     0
176
     1
 90
        2
176
     1
 40
0.6
176
     1
 41
30.0
176
     1
 63
     7
421
 16777215
176
     1
 74
     0
176
     1
 91
        0
176
     1
 64
     7
176
     1
 65
   257
176
     1
 75
     1
176
     1
175
     1
176
     1
 42
1.0
176
     1
 92
        8
176
     1
 66
   257
176
     1
 43
1.0
176
     1
 76
     1
176
     1
 77
     6
176
     1
 78
     2
176
     1
 67
     7
176
     1
 79
     3
176
     1
170
     0
176
     1
171
     0
176
     1
290
     0
176
     1
 93
       13
176
     1
 44
0.0
176
     1
173
     0
176
     1
1001
ACAD
1000
AcDbSavedByObjectVersion
1070
     0
  0
VISUALSTYLE
  5
D8
102
{ACAD_XDICTIONARY
360
132
102
}
102
{ACAD_REACTORS
330
C3
102
}
330
C3
100
AcDbVisualStyle
  2
Shaded
 70
    27
177
     2
291
     0
 71
     2
176
     1
 72
     2
176
     1
 73
     1
176
     1
 90
        2
176
     1
 40
0.6
176
     1
 41
30.0
176
     1
 63
     7
421
 16777215
176
     1
 74
     0
176
     1
 91
        4
176
     1
 64
     7
176
     1
 65
   257
176
     1
 75
     1
176
     1
175
     1
176
     1
 42
1.0
176
     1
 92
        8
176
     1
 66
   257
176
     1
 43
1.0
176
     1
 76
     1
176
     1
 77
     6
176
     1
 78
     2
176
     1
 67
     8
425
  7895160
176
     1
 79
     3
176
     1
170
     0
176
     1
171
     0
176
     1
290
     0
176
     1
 93
        5
176
     1
 44
0.0
176
     1
173
     0
176
     1
1001
ACAD
1000
AcDbSavedByObjectVersion
1070
     0
  0
VISUALSTYLE
  5
D7
102
{ACAD_XDICTIONARY
360
130
102
}
102
{ACAD_REACTORS
330
C3
102
}
330
C3
100
AcDbVisualStyle
  2
Shaded with edges
 70
    26
177
     2
291
     0
 71
     2
176
     1
 72
     2
176
     1
 73
     1
176
     1
 90
        2
176
     1
 40
0.6
176
     1
 41
30.0
176
     1
 63
     7
421
 16777215
176
     1
 74
     1
176
     1
 91
        2
176
     1
 64
     7
176
     1
 65
   257
176
     1
 75
     2
176
     1
175
     1
176
     1
 42
1.0
176
     1
 92
        8
176
     1
 66
   257
176
     1
 43
1.0
176
     1
 76
     1
176
     1
 77
     6
176
     1
 78
     2
176
     1
 67
     7
176
     1
 79
     3
176
     1
170
     0
176
     1
171
     0
176
     1
290
     0
176
     1
 93
        5
176
     1
 44
0.0
176
     1
173
     0
176
     1
1001
ACAD
1000
AcDbSavedByObjectVersion
1070
     0
  0
VISUALSTYLE
  5
D4
102
{ACAD_XDICTIONARY
360
12A
102
}
102
{ACAD_REACTORS
330
C3
102
}
330
C3
100
AcDbVisualStyle
  2
Shades of Gray
 70
    23
177
     2
291
     0
 71
     2
176
     1
 72
     2
176
     1
 73
     3
176
     1
 90
        0
176
     1
 40
0.6
176
     1
 41
30.0
176
     1
 63
     7
421
 16777215
176
     1
 74
     2
176
     1
 91
        2
176
     1
 64
     7
176
     1
 65
     7
176
     1
 75
     1
176
     1
175
     1
176
     1
 42
40.0
176
     1
 92
        8
176
     1
 66
     7
176
     1
 43
1.0
176
     1
 76
     1
176
     1
 77
     6
176
     1
 78
     2
176
     1
 67
     7
176
     1
 79
     3
176
     1
170
     0
176
     1
171
     0
176
     1
290
     0
176
     1
 93
        1
176
     1
 44
0.0
176
     1
173
     0
176
     1
1001
ACAD
1000
AcDbSavedByObjectVersion
1070
     0
  0
VISUALSTYLE
  5
D5
102
{ACAD_XDICTIONARY
360
12C
102
}
102
{ACAD_REACTORS
330
C3
102
}
330
C3
100
AcDbVisualStyle
  2
Sketchy
 70
    24
177
     2
291
     0
 71
     1
176
     1
 72
     2
176
     1
 73
     2
176
     1
 90
        0
176
     1
 40
0.6
176
     1
 41
30.0
176
     1
 63
     7
421
 16777215
176
     1
 74
     2
176
     1
 91
        2
176
     1
 64
     7
176
     1
 65
     7
176
     1
 75
     1
176
     1
175
     1
176
     1
 42
40.0
176
     1
 92
       11
176
     1
 66
     7
176
     1
 43
1.0
176
     1
 76
     1
176
     1
 77
     6
176
     1
 78
     2
176
     1
 67
     7
176
     1
 79
     6
176
     1
170
     0
176
     1
171
     0
176
     1
290
     0
176
     1
 93
        1
176
     1
 44
0.0
176
     1
173
     0
176
     1
1001
ACAD
1000
AcDbSavedByObjectVersion
1070
     0
  0
VISUALSTYLE
  5
D0
102
{ACAD_XDICTIONARY
360
122
102
}
102
{ACAD_REACTORS
330
C3
102
}
330
C3
100
AcDbVisualStyle
  2
Thicken
 70
    13
177
     2
291
     1
 71
     2
176
     1
 72
     2
176
     1
 73
     0
176
     1
 90
        0
176
     1
 40
0.6
176
     1
 41
30.0
176
     1
 63
     7
421
 16777215
176
     1
 74
     1
176
     1
 91
        4
176
     1
 64
     7
176
     1
 65
   257
176
     1
 75
     1
176
     1
175
     1
176
     1
 42
1.0
176
     1
 92
       12
176
     1
 66
     7
176
     1
 43
1.0
176
     1
 76
     1
176
     1
 77
     6
176
     1
 78
     2
176
     1
 67
     7
176
     1
 79
     5
176
     1
170
     0
176
     1
171
     0
176
     1
290
     0
176
     1
 93
        1
176
     1
 44
0.0
176
     1
173
     0
176
     1
1001
ACAD
1000
AcDbSavedByObjectVersion
1070
     0
  0
VISUALSTYLE
  5
CA
102
{ACAD_XDICTIONARY
360
116
102
}
102
{ACAD_REACTORS
330
C3
102
}
330
C3
100
AcDbVisualStyle
  2
Wireframe
 70
     5
177
     2
291
     0
 71
     0
176
     1
 72
     2
176
     1
 73
     0
176
     1
 90
        0
176
     1
 40
0.6
176
     1
 41
30.0
176
     1
 63
     7
421
 16777215
176
     1
 74
     1
176
     1
 91
        4
176
     1
 64
     7
176
     1
 65
   257
176
     1
 75
     1
176
     1
175
     1
176
     1
 42
1.0
176
     1
 92
        0
176
     1
 66
   257
176
     1
 43
1.0
176
     1
 76
     1
176
     1
 77
     6
176
     1
 78
     2
176
     1
 67
     7
176
     1
 79
     3
176
     1
170
     0
176
     1
171
     0
176
     1
290
     0
176
     1
 93
        1
176
     1
 44
0.0
176
     1
173
     0
176
     1
1001
ACAD
1000
AcDbSavedByObjectVersion
1070
     0
  0
VISUALSTYLE
  5
D6
102
{ACAD_XDICTIONARY
360
12E
102
}
102
{ACAD_REACTORS
330
C3
102
}
330
C3
100
AcDbVisualStyle
  2
X-Ray
 70
    25
177
     2
291
     0
 71
     2
176
     1
 72
     2
176
     1
 73
     1
176
     1
 90
        1
176
     1
 40
0.5
176
     1
 41
30.0
176
     1
 63
     7
421
 16777215
176
     1
 74
     1
176
     1
 91
        0
176
     1
 64
     7
176
     1
 65
   257
176
     1
 75
     1
176
     1
175
     1
176
     1
 42
1.0
176
     1
 92
        8
176
     1
 66
     7
176
     1
 43
1.0
176
     1
 76
     1
176
     1
 77
     6
176
     1
 78
     2
176
     1
 67
     7
176
     1
 79
     3
176
     1
170
     0
176
     1
171
     0
176
     1
290
     0
176
     1
 93
       13
176
     1
 44
0.0
176
     1
173
     0
176
     1
1001
ACAD
1000
AcDbSavedByObjectVersion
1070
     0
  0
DICTIONARYVAR
  5
103
102
{ACAD_REACTORS
330
FD
102
}
330
FD
100
DictionaryVariables
280
     0
  1
1:1
  0
DICTIONARYVAR
  5
FF
102
{ACAD_REACTORS
330
FD
102
}
330
FD
100
DictionaryVariables
280
     0
  1
STANDARD
  0
DICTIONARYVAR
  5
FE
102
{ACAD_REACTORS
330
FD
102
}
330
FD
100
DictionaryVariables
280
     0
  1
STANDARD
  0
DICTIONARYVAR
  5
100
102
{ACAD_REACTORS
330
FD
102
}
330
FD
100
DictionaryVariables
280
     0
  1
Imperial24
  0
DICTIONARYVAR
  5
101
102
{ACAD_REACTORS
330
FD
102
}
330
FD
100
DictionaryVariables
280
     0
  1
Imperial24
  0
DICTIONARYVAR
  5
105
102
{ACAD_REACTORS
330
FD
102
}
330
FD
100
DictionaryVariables
280
     0
  1
1
  0
DICTIONARYVAR
  5
106
102
{ACAD_REACTORS
330
FD
102
}
330
FD
100
DictionaryVariables
280
     0
  1
15
  0
DICTIONARYVAR
  5
104
102
{ACAD_REACTORS
330
FD
102
}
330
FD
100
DictionaryVariables
280
     0
  1
0
  0
DICTIONARYVAR
  5
102
102
{ACAD_REACTORS
330
FD
102
}
330
FD
100
DictionaryVariables
280
     0
  1
0
  0
DICTIONARY
  5
13E
330
F6
100
AcDbDictionary
280
     1
281
     1
  3
ACAD_XREC_ROUNDTRIP
360
13F
  0
DICTIONARY
  5
B4
330
B3
100
AcDbDictionary
280
     1
281
     1
  3
BUMPTILE
360
B6
  3
DIFFUSETILE
360
B5
  3
OPACITYTILE
360
B9
  3
REFLECTIONTILE
360
B8
  3
REFRACTIONTILE
360
BA
  3
SPECULARTILE
360
B7
  0
DICTIONARY
  5
AC
330
AB
100
AcDbDictionary
280
     1
281
     1
  3
BUMPTILE
360
AE
  3
DIFFUSETILE
360
AD
  3
OPACITYTILE
360
B1
  3
REFLECTIONTILE
360
B0
  3
REFRACTIONTILE
360
B2
  3
SPECULARTILE
360
AF
  0
DICTIONARY
  5
BC
330
BB
100
AcDbDictionary
280
     1
281
     1
  3
BUMPTILE
360
BE
  3
DIFFUSETILE
360
BD
  3
OPACITYTILE
360
C1
  3
REFLECTIONTILE
360
C0
  3
REFRACTIONTILE
360
C2
  3
SPECULARTILE
360
BF
  0
DICTIONARY
  5
13A
330
F2
100
AcDbDictionary
280
     1
281
     1
  3
ACAD_XREC_ROUNDTRIP
360
13B
  0
DICTIONARY
  5
13C
330
F4
100
AcDbDictionary
280
     1
281
     1
  3
ACAD_XREC_ROUNDTRIP
360
13D
  0
DICTIONARY
  5
107
330
DE
100
AcDbDictionary
280
     1
281
     1
  3
ACAD_ROUNDTRIP_2008_TABLESTYLE_CELLSTYLEMAP
360
108
  0
DICTIONARY
  5
114
330
C9
100
AcDbDictionary
280
     1
281
     1
  3
ACAD_XREC_ROUNDTRIP
360
115
  0
DICTIONARY
  5
112
330
C8
100
AcDbDictionary
280
     1
281
     1
  3
ACAD_XREC_ROUNDTRIP
360
113
  0
DICTIONARY
  5
120
330
CF
100
AcDbDictionary
280
     1
281
     1
  3
ACAD_XREC_ROUNDTRIP
360
121
  0
DICTIONARY
  5
128
330
D3
100
AcDbDictionary
280
     1
281
     1
  3
ACAD_XREC_ROUNDTRIP
360
129
  0
DICTIONARY
  5
11A
330
CC
100
AcDbDictionary
280
     1
281
     1
  3
ACAD_XREC_ROUNDTRIP
360
11B
  0
DICTIONARY
  5
11E
330
CE
100
AcDbDictionary
280
     1
281
     1
  3
ACAD_XREC_ROUNDTRIP
360
11F
  0
DICTIONARY
  5
138
330
DB
100
AcDbDictionary
280
     1
281
     1
  3
ACAD_XREC_ROUNDTRIP
360
139
  0
DICTIONARY
  5
126
330
D2
100
AcDbDictionary
280
     1
281
     1
  3
ACAD_XREC_ROUNDTRIP
360
127
  0
DICTIONARY
  5
10A
330
C4
100
AcDbDictionary
280
     1
281
     1
  3
ACAD_XREC_ROUNDTRIP
360
10B
  0
DICTIONARY
  5
10C
330
C5
100
AcDbDictionary
280
     1
281
     1
  3
ACAD_XREC_ROUNDTRIP
360
10D
  0
DICTIONARY
  5
10E
330
C6
100
AcDbDictionary
280
     1
281
     1
  3
ACAD_XREC_ROUNDTRIP
360
10F
  0
DICTIONARY
  5
110
330
C7
100
AcDbDictionary
280
     1
281
     1
  3
ACAD_XREC_ROUNDTRIP
360
111
  0
DICTIONARY
  5
118
330
CB
100
AcDbDictionary
280
     1
281
     1
  3
ACAD_XREC_ROUNDTRIP
360
119
  0
DICTIONARY
  5
134
330
D9
100
AcDbDictionary
280
     1
281
     1
  3
ACAD_XREC_ROUNDTRIP
360
135
  0
DICTIONARY
  5
124
330
D1
100
AcDbDictionary
280
     1
281
     1
  3
ACAD_XREC_ROUNDTRIP
360
125
  0
DICTIONARY
  5
136
330
DA
100
AcDbDictionary
280
     1
281
     1
  3
ACAD_XREC_ROUNDTRIP
360
137
  0
DICTIONARY
  5
11C
330
CD
100
AcDbDictionary
280
     1
281
     1
  3
ACAD_XREC_ROUNDTRIP
360
11D
  0
DICTIONARY
  5
132
330
D8
100
AcDbDictionary
280
     1
281
     1
  3
ACAD_XREC_ROUNDTRIP
360
133
  0
DICTIONARY
  5
130
330
D7
100
AcDbDictionary
280
     1
281
     1
  3
ACAD_XREC_ROUNDTRIP
360
131
  0
DICTIONARY
  5
12A
330
D4
100
AcDbDictionary
280
     1
281
     1
  3
ACAD_XREC_ROUNDTRIP
360
12B
  0
DICTIONARY
  5
12C
330
D5
100
AcDbDictionary
280
     1
281
     1
  3
ACAD_XREC_ROUNDTRIP
360
12D
  0
DICTIONARY
  5
122
330
D0
100
AcDbDictionary
280
     1
281
     1
  3
ACAD_XREC_ROUNDTRIP
360
123
  0
DICTIONARY
  5
116
330
CA
100
AcDbDictionary
280
     1
281
     1
  3
ACAD_XREC_ROUNDTRIP
360
117
  0
DICTIONARY
  5
12E
330
D6
100
AcDbDictionary
280
     1
281
     1
  3
ACAD_XREC_ROUNDTRIP
360
12F
  0
XRECORD
  5
13F
102
{ACAD_REACTORS
330
13E
102
}
330
13E
100
AcDbXrecord
280
     1
102
DISPLAYNAME
  1
Imperial24
102
FLAGS
 90
        0
  0
XRECORD
  5
B6
102
{ACAD_REACTORS
330
B4
102
}
330
B4
100
AcDbXrecord
280
     1
270
     1
271
     1
  0
XRECORD
  5
B5
102
{ACAD_REACTORS
330
B4
102
}
330
B4
100
AcDbXrecord
280
     1
270
     1
271
     1
  0
XRECORD
  5
B9
102
{ACAD_REACTORS
330
B4
102
}
330
B4
100
AcDbXrecord
280
     1
270
     1
271
     1
  0
XRECORD
  5
B8
102
{ACAD_REACTORS
330
B4
102
}
330
B4
100
AcDbXrecord
280
     1
270
     1
271
     1
  0
XRECORD
  5
BA
102
{ACAD_REACTORS
330
B4
102
}
330
B4
100
AcDbXrecord
280
     1
270
     1
271
     1
  0
XRECORD
  5
B7
102
{ACAD_REACTORS
330
B4
102
}
330
B4
100
AcDbXrecord
280
     1
270
     1
271
     1
  0
XRECORD
  5
AE
102
{ACAD_REACTORS
330
AC
102
}
330
AC
100
AcDbXrecord
280
     1
270
     1
271
     1
  0
XRECORD
  5
AD
102
{ACAD_REACTORS
330
AC
102
}
330
AC
100
AcDbXrecord
280
     1
270
     1
271
     1
  0
XRECORD
  5
B1
102
{ACAD_REACTORS
330
AC
102
}
330
AC
100
AcDbXrecord
280
     1
270
     1
271
     1
  0
XRECORD
  5
B0
102
{ACAD_REACTORS
330
AC
102
}
330
AC
100
AcDbXrecord
280
     1
270
     1
271
     1
  0
XRECORD
  5
B2
102
{ACAD_REACTORS
330
AC
102
}
330
AC
100
AcDbXrecord
280
     1
270
     1
271
     1
  0
XRECORD
  5
AF
102
{ACAD_REACTORS
330
AC
102
}
330
AC
100
AcDbXrecord
280
     1
270
     1
271
     1
  0
XRECORD
  5
BE
102
{ACAD_REACTORS
330
BC
102
}
330
BC
100
AcDbXrecord
280
     1
270
     1
271
     1
  0
XRECORD
  5
BD
102
{ACAD_REACTORS
330
BC
102
}
330
BC
100
AcDbXrecord
280
     1
270
     1
271
     1
  0
XRECORD
  5
C1
102
{ACAD_REACTORS
330
BC
102
}
330
BC
100
AcDbXrecord
280
     1
270
     1
271
     1
  0
XRECORD
  5
C0
102
{ACAD_REACTORS
330
BC
102
}
330
BC
100
AcDbXrecord
280
     1
270
     1
271
     1
  0
XRECORD
  5
C2
102
{ACAD_REACTORS
330
BC
102
}
330
BC
100
AcDbXrecord
280
     1
270
     1
271
     1
  0
XRECORD
  5
BF
102
{ACAD_REACTORS
330
BC
102
}
330
BC
100
AcDbXrecord
280
     1
270
     1
271
     1
  0
XRECORD
  5
13B
102
{ACAD_REACTORS
330
13A
102
}
330
13A
100
AcDbXrecord
280
     1
102
ACAD_ROUNDTRIP_2012_MLEADER_STYLE
298
     1
  0
XRECORD
  5
13D
102
{ACAD_REACTORS
330
13C
102
}
330
13C
100
AcDbXrecord
280
     1
102
DISPLAYNAME
  1
Imperial24
102
FLAGS
 90
        0
  0
CELLSTYLEMAP
  5
108
102
{ACAD_REACTORS
330
107
102
}
330
107
100
AcDbCellStyleMap
 90
        3
300
CELLSTYLE
  1
TABLEFORMAT_BEGIN
 90
        5
170
     1
 91
        0
 92
    32768
 62
   257
 93
        1
300
CONTENTFORMAT
  1
CONTENTFORMAT_BEGIN
 90
        0
 91
        0
 92
      512
 93
        0
300

 40
0.0
140
1.0
 94
        5
 62
     0
340
11
144
0.25
309
CONTENTFORMAT_END
171
     0
 94
        0
309
TABLEFORMAT_END
  1
CELLSTYLE_BEGIN
 90
        1
 91
        1
300
_TITLE
309
CELLSTYLE_END
300
CELLSTYLE
  1
TABLEFORMAT_BEGIN
 90
        5
170
     1
 91
        0
 92
        0
 62
   257
 93
        1
300
CONTENTFORMAT
  1
CONTENTFORMAT_BEGIN
 90
        0
 91
        0
 92
      512
 93
        0
300

 40
0.0
140
1.0
 94
        5
 62
     0
340
11
144
0.18
309
CONTENTFORMAT_END
171
     0
 94
        0
309
TABLEFORMAT_END
  1
CELLSTYLE_BEGIN
 90
        2
 91
        1
300
_HEADER
309
CELLSTYLE_END
300
CELLSTYLE
  1
TABLEFORMAT_BEGIN
 90
        5
170
     1
 91
        0
 92
        0
 62
   257
 93
        1
300
CONTENTFORMAT
  1
CONTENTFORMAT_BEGIN
 90
        0
 91
        0
 92
      512
 93
        0
300

 40
0.0
140
1.0
 94
        2
 62
     0
340
11
144
0.18
309
CONTENTFORMAT_END
171
     0
 94
        0
309
TABLEFORMAT_END
  1
CELLSTYLE_BEGIN
 90
        3
 91
        2
300
_DATA
309
CELLSTYLE_END
  0
XRECORD
  5
115
102
{ACAD_REACTORS
330
114
102
}
330
114
100
AcDbXrecord
280
     1
102
RTVSPost2010Prop28
280
     1
102
RTVSPost2010PropOp28
 70
     1
102
RTVSPost2010Prop29
280
     1
102
RTVSPost2010PropOp29
 70
     1
102
RTVSPost2010Prop30
280
     0
102
RTVSPost2010PropOp30
 70
     1
102
RTVSPost2010Prop31
280
     0
102
RTVSPost2010PropOp31
 70
     1
102
RTVSPost2010Prop32
280
     0
102
RTVSPost2010PropOp32
 70
     1
102
RTVSPost2010Prop33
280
     0
102
RTVSPost2010PropOp33
 70
     1
102
RTVSPost2010Prop34
280
     0
102
RTVSPost2010PropOp34
 70
     1
102
RTVSPost2010Prop35
280
     0
102
RTVSPost2010PropOp35
 70
     1
102
RTVSPost2010Prop36
280
     0
102
RTVSPost2010PropOp36
 70
     1
102
RTVSPost2010Prop37
 90
       50
102
RTVSPost2010PropOp37
 70
     1
102
RTVSPost2010Prop38
140
0.0
102
RTVSPost2010PropOp38
 70
     1
102
RTVSPost2010Prop39
140
1.0
102
RTVSPost2010PropOp39
 70
     1
102
RTVSPost2010Prop40
 90
        0
102
RTVSPost2010PropOp40
 70
     1
102
RTVSPost2010Prop41ColorIndex
 90
       18
102
RTVSPost2010Prop41ColorRGB
 90
        0
102
RTVSPost2010PropOp41
 70
     1
102
RTVSPost2010Prop42
 90
       50
102
RTVSPost2010PropOp42
 70
     1
102
RTVSPost2010Prop43
 90
        3
102
RTVSPost2010PropOp43
 70
     1
102
RTVSPost2010Prop44ColorIndex
 90
        5
102
RTVSPost2010Prop44ColorRGB
 90
      255
102
RTVSPost2010PropOp44
 70
     1
102
RTVSPost2010Prop45
280
     0
102
RTVSPost2010PropOp45
 70
     1
102
RTVSPost2010Prop46
 90
       50
102
RTVSPost2010PropOp46
 70
     1
102
RTVSPost2010Prop47
 90
       50
102
RTVSPost2010PropOp47
 70
     1
102
RTVSPost2010Prop48
 90
       50
102
RTVSPost2010PropOp48
 70
     1
102
RTVSPost2010Prop49
280
     0
102
RTVSPost2010PropOp49
 70
     1
102
RTVSPost2010Prop50
 90
       50
102
RTVSPost2010PropOp50
 70
     1
102
RTVSPost2010Prop51ColorIndex
 90
      256
102
RTVSPost2010Prop51ColorRGB
 90
-16777216
102
RTVSPost2010PropOp51
 70
     0
102
RTVSPost2010Prop52
140
1.0
102
RTVSPost2010PropOp52
 70
     0
102
RTVSPost2010Prop53
 90
        2
102
RTVSPost2010PropOp53
 70
     1
102
RTVSPost2010Prop54
  1
strokes_ogs.tif
102
RTVSPost2010PropOp54
 70
     1
102
RTVSPost2010Prop55
280
     0
102
RTVSPost2010PropOp55
 70
     1
102
RTVSPost2010Prop56
140
1.0
102
RTVSPost2010PropOp56
 70
     1
102
RTVSPost2010Prop57
140
1.0
102
RTVSPost2010PropOp57
 70
     1
  0
XRECORD
  5
113
102
{ACAD_REACTORS
330
112
102
}
330
112
100
AcDbXrecord
280
     1
102
RTVSPost2010Prop28
280
     0
102
RTVSPost2010PropOp28
 70
     1
102
RTVSPost2010Prop29
280
     1
102
RTVSPost2010PropOp29
 70
     1
102
RTVSPost2010Prop30
280
     1
102
RTVSPost2010PropOp30
 70
     1
102
RTVSPost2010Prop31
280
     0
102
RTVSPost2010PropOp31
 70
     1
102
RTVSPost2010Prop32
280
     0
102
RTVSPost2010PropOp32
 70
     1
102
RTVSPost2010Prop33
280
     0
102
RTVSPost2010PropOp33
 70
     1
102
RTVSPost2010Prop34
280
     0
102
RTVSPost2010PropOp34
 70
     1
102
RTVSPost2010Prop35
280
     0
102
RTVSPost2010PropOp35
 70
     1
102
RTVSPost2010Prop36
280
     0
102
RTVSPost2010PropOp36
 70
     1
102
RTVSPost2010Prop37
 90
       50
102
RTVSPost2010PropOp37
 70
     1
102
RTVSPost2010Prop38
140
0.0
102
RTVSPost2010PropOp38
 70
     1
102
RTVSPost2010Prop39
140
1.0
102
RTVSPost2010PropOp39
 70
     1
102
RTVSPost2010Prop40
 90
        0
102
RTVSPost2010PropOp40
 70
     1
102
RTVSPost2010Prop41ColorIndex
 90
       18
102
RTVSPost2010Prop41ColorRGB
 90
        0
102
RTVSPost2010PropOp41
 70
     1
102
RTVSPost2010Prop42
 90
       50
102
RTVSPost2010PropOp42
 70
     1
102
RTVSPost2010Prop43
 90
        3
102
RTVSPost2010PropOp43
 70
     1
102
RTVSPost2010Prop44ColorIndex
 90
        5
102
RTVSPost2010Prop44ColorRGB
 90
      255
102
RTVSPost2010PropOp44
 70
     1
102
RTVSPost2010Prop45
280
     0
102
RTVSPost2010PropOp45
 70
     1
102
RTVSPost2010Prop46
 90
       50
102
RTVSPost2010PropOp46
 70
     1
102
RTVSPost2010Prop47
 90
       50
102
RTVSPost2010PropOp47
 70
     1
102
RTVSPost2010Prop48
 90
       50
102
RTVSPost2010PropOp48
 70
     1
102
RTVSPost2010Prop49
280
     0
102
RTVSPost2010PropOp49
 70
     1
102
RTVSPost2010Prop50
 90
       50
102
RTVSPost2010PropOp50
 70
     1
102
RTVSPost2010Prop51ColorIndex
 90
      256
102
RTVSPost2010Prop51ColorRGB
 90
-16777216
102
RTVSPost2010PropOp51
 70
     0
102
RTVSPost2010Prop52
140
1.0
102
RTVSPost2010PropOp52
 70
     0
102
RTVSPost2010Prop53
 90
        2
102
RTVSPost2010PropOp53
 70
     1
102
RTVSPost2010Prop54
  1
strokes_ogs.tif
102
RTVSPost2010PropOp54
 70
     1
102
RTVSPost2010Prop55
280
     0
102
RTVSPost2010PropOp55
 70
     1
102
RTVSPost2010Prop56
140
1.0
102
RTVSPost2010PropOp56
 70
     1
102
RTVSPost2010Prop57
140
1.0
102
RTVSPost2010PropOp57
 70
     1
  0
XRECORD
  5
121
102
{ACAD_REACTORS
330
120
102
}
330
120
100
AcDbXrecord
280
     1
102
RTVSPost2010Prop28
280
     0
102
RTVSPost2010PropOp28
 70
     1
102
RTVSPost2010Prop29
280
     1
102
RTVSPost2010PropOp29
 70
     1
102
RTVSPost2010Prop30
280
     1
102
RTVSPost2010PropOp30
 70
     1
102
RTVSPost2010Prop31
280
     0
102
RTVSPost2010PropOp31
 70
     1
102
RTVSPost2010Prop32
280
     0
102
RTVSPost2010PropOp32
 70
     1
102
RTVSPost2010Prop33
280
     0
102
RTVSPost2010PropOp33
 70
     1
102
RTVSPost2010Prop34
280
     0
102
RTVSPost2010PropOp34
 70
     1
102
RTVSPost2010Prop35
280
     0
102
RTVSPost2010PropOp35
 70
     1
102
RTVSPost2010Prop36
280
     0
102
RTVSPost2010PropOp36
 70
     1
102
RTVSPost2010Prop37
 90
       50
102
RTVSPost2010PropOp37
 70
     1
102
RTVSPost2010Prop38
140
0.0
102
RTVSPost2010PropOp38
 70
     1
102
RTVSPost2010Prop39
140
1.0
102
RTVSPost2010PropOp39
 70
     1
102
RTVSPost2010Prop40
 90
        0
102
RTVSPost2010PropOp40
 70
     1
102
RTVSPost2010Prop41ColorIndex
 90
       18
102
RTVSPost2010Prop41ColorRGB
 90
        0
102
RTVSPost2010PropOp41
 70
     1
102
RTVSPost2010Prop42
 90
       50
102
RTVSPost2010PropOp42
 70
     1
102
RTVSPost2010Prop43
 90
        3
102
RTVSPost2010PropOp43
 70
     1
102
RTVSPost2010Prop44ColorIndex
 90
        5
102
RTVSPost2010Prop44ColorRGB
 90
      255
102
RTVSPost2010PropOp44
 70
     1
102
RTVSPost2010Prop45
280
     0
102
RTVSPost2010PropOp45
 70
     1
102
RTVSPost2010Prop46
 90
       50
102
RTVSPost2010PropOp46
 70
     1
102
RTVSPost2010Prop47
 90
       50
102
RTVSPost2010PropOp47
 70
     1
102
RTVSPost2010Prop48
 90
       50
102
RTVSPost2010PropOp48
 70
     1
102
RTVSPost2010Prop49
280
     0
102
RTVSPost2010PropOp49
 70
     1
102
RTVSPost2010Prop50
 90
       50
102
RTVSPost2010PropOp50
 70
     1
102
RTVSPost2010Prop51ColorIndex
 90
      256
102
RTVSPost2010Prop51ColorRGB
 90
-16777216
102
RTVSPost2010PropOp51
 70
     0
102
RTVSPost2010Prop52
140
1.0
102
RTVSPost2010PropOp52
 70
     0
102
RTVSPost2010Prop53
 90
        2
102
RTVSPost2010PropOp53
 70
     1
102
RTVSPost2010Prop54
  1
strokes_ogs.tif
102
RTVSPost2010PropOp54
 70
     1
102
RTVSPost2010Prop55
280
     0
102
RTVSPost2010PropOp55
 70
     1
102
RTVSPost2010Prop56
140
1.0
102
RTVSPost2010PropOp56
 70
     1
102
RTVSPost2010Prop57
140
1.0
102
RTVSPost2010PropOp57
 70
     1
  0
XRECORD
  5
129
102
{ACAD_REACTORS
330
128
102
}
330
128
100
AcDbXrecord
280
     1
102
RTVSPost2010Prop28
280
     0
102
RTVSPost2010PropOp28
 70
     1
102
RTVSPost2010Prop29
280
     1
102
RTVSPost2010PropOp29
 70
     1
102
RTVSPost2010Prop30
280
     1
102
RTVSPost2010PropOp30
 70
     1
102
RTVSPost2010Prop31
280
     0
102
RTVSPost2010PropOp31
 70
     1
102
RTVSPost2010Prop32
280
     0
102
RTVSPost2010PropOp32
 70
     1
102
RTVSPost2010Prop33
280
     0
102
RTVSPost2010PropOp33
 70
     1
102
RTVSPost2010Prop34
280
     0
102
RTVSPost2010PropOp34
 70
     1
102
RTVSPost2010Prop35
280
     0
102
RTVSPost2010PropOp35
 70
     1
102
RTVSPost2010Prop36
280
     0
102
RTVSPost2010PropOp36
 70
     1
102
RTVSPost2010Prop37
 90
       50
102
RTVSPost2010PropOp37
 70
     1
102
RTVSPost2010Prop38
140
0.0
102
RTVSPost2010PropOp38
 70
     1
102
RTVSPost2010Prop39
140
1.0
102
RTVSPost2010PropOp39
 70
     1
102
RTVSPost2010Prop40
 90
        0
102
RTVSPost2010PropOp40
 70
     1
102
RTVSPost2010Prop41ColorIndex
 90
       18
102
RTVSPost2010Prop41ColorRGB
 90
        0
102
RTVSPost2010PropOp41
 70
     1
102
RTVSPost2010Prop42
 90
       50
102
RTVSPost2010PropOp42
 70
     1
102
RTVSPost2010Prop43
 90
        3
102
RTVSPost2010PropOp43
 70
     1
102
RTVSPost2010Prop44ColorIndex
 90
        5
102
RTVSPost2010Prop44ColorRGB
 90
      255
102
RTVSPost2010PropOp44
 70
     1
102
RTVSPost2010Prop45
280
     0
102
RTVSPost2010PropOp45
 70
     1
102
RTVSPost2010Prop46
 90
       50
102
RTVSPost2010PropOp46
 70
     1
102
RTVSPost2010Prop47
 90
       50
102
RTVSPost2010PropOp47
 70
     1
102
RTVSPost2010Prop48
 90
       50
102
RTVSPost2010PropOp48
 70
     1
102
RTVSPost2010Prop49
280
     0
102
RTVSPost2010PropOp49
 70
     1
102
RTVSPost2010Prop50
 90
       50
102
RTVSPost2010PropOp50
 70
     1
102
RTVSPost2010Prop51ColorIndex
 90
      256
102
RTVSPost2010Prop51ColorRGB
 90
-16777216
102
RTVSPost2010PropOp51
 70
     0
102
RTVSPost2010Prop52
140
1.0
102
RTVSPost2010PropOp52
 70
     0
102
RTVSPost2010Prop53
 90
        2
102
RTVSPost2010PropOp53
 70
     1
102
RTVSPost2010Prop54
  1
strokes_ogs.tif
102
RTVSPost2010PropOp54
 70
     1
102
RTVSPost2010Prop55
280
     0
102
RTVSPost2010PropOp55
 70
     1
102
RTVSPost2010Prop56
140
1.0
102
RTVSPost2010PropOp56
 70
     1
102
RTVSPost2010Prop57
140
1.0
102
RTVSPost2010PropOp57
 70
     1
  0
XRECORD
  5
11B
102
{ACAD_REACTORS
330
11A
102
}
330
11A
100
AcDbXrecord
280
     1
102
RTVSPost2010Prop28
280
     0
102
RTVSPost2010PropOp28
 70
     1
102
RTVSPost2010Prop29
280
     1
102
RTVSPost2010PropOp29
 70
     1
102
RTVSPost2010Prop30
280
     1
102
RTVSPost2010PropOp30
 70
     1
102
RTVSPost2010Prop31
280
     0
102
RTVSPost2010PropOp31
 70
     1
102
RTVSPost2010Prop32
280
     0
102
RTVSPost2010PropOp32
 70
     1
102
RTVSPost2010Prop33
280
     0
102
RTVSPost2010PropOp33
 70
     1
102
RTVSPost2010Prop34
280
     0
102
RTVSPost2010PropOp34
 70
     1
102
RTVSPost2010Prop35
280
     0
102
RTVSPost2010PropOp35
 70
     1
102
RTVSPost2010Prop36
280
     0
102
RTVSPost2010PropOp36
 70
     1
102
RTVSPost2010Prop37
 90
       50
102
RTVSPost2010PropOp37
 70
     1
102
RTVSPost2010Prop38
140
0.0
102
RTVSPost2010PropOp38
 70
     1
102
RTVSPost2010Prop39
140
1.0
102
RTVSPost2010PropOp39
 70
     1
102
RTVSPost2010Prop40
 90
        0
102
RTVSPost2010PropOp40
 70
     1
102
RTVSPost2010Prop41ColorIndex
 90
       18
102
RTVSPost2010Prop41ColorRGB
 90
        0
102
RTVSPost2010PropOp41
 70
     1
102
RTVSPost2010Prop42
 90
       50
102
RTVSPost2010PropOp42
 70
     1
102
RTVSPost2010Prop43
 90
        3
102
RTVSPost2010PropOp43
 70
     1
102
RTVSPost2010Prop44ColorIndex
 90
        5
102
RTVSPost2010Prop44ColorRGB
 90
      255
102
RTVSPost2010PropOp44
 70
     1
102
RTVSPost2010Prop45
280
     0
102
RTVSPost2010PropOp45
 70
     1
102
RTVSPost2010Prop46
 90
       50
102
RTVSPost2010PropOp46
 70
     1
102
RTVSPost2010Prop47
 90
       50
102
RTVSPost2010PropOp47
 70
     1
102
RTVSPost2010Prop48
 90
       50
102
RTVSPost2010PropOp48
 70
     1
102
RTVSPost2010Prop49
280
     0
102
RTVSPost2010PropOp49
 70
     1
102
RTVSPost2010Prop50
 90
       50
102
RTVSPost2010PropOp50
 70
     1
102
RTVSPost2010Prop51ColorIndex
 90
      256
102
RTVSPost2010Prop51ColorRGB
 90
-16777216
102
RTVSPost2010PropOp51
 70
     0
102
RTVSPost2010Prop52
140
1.0
102
RTVSPost2010PropOp52
 70
     0
102
RTVSPost2010Prop53
 90
        2
102
RTVSPost2010PropOp53
 70
     1
102
RTVSPost2010Prop54
  1
strokes_ogs.tif
102
RTVSPost2010PropOp54
 70
     1
102
RTVSPost2010Prop55
280
     0
102
RTVSPost2010PropOp55
 70
     1
102
RTVSPost2010Prop56
140
1.0
102
RTVSPost2010PropOp56
 70
     1
102
RTVSPost2010Prop57
140
1.0
102
RTVSPost2010PropOp57
 70
     1
  0
XRECORD
  5
11F
102
{ACAD_REACTORS
330
11E
102
}
330
11E
100
AcDbXrecord
280
     1
102
RTVSPost2010Prop28
280
     0
102
RTVSPost2010PropOp28
 70
     1
102
RTVSPost2010Prop29
280
     1
102
RTVSPost2010PropOp29
 70
     1
102
RTVSPost2010Prop30
280
     1
102
RTVSPost2010PropOp30
 70
     1
102
RTVSPost2010Prop31
280
     0
102
RTVSPost2010PropOp31
 70
     1
102
RTVSPost2010Prop32
280
     0
102
RTVSPost2010PropOp32
 70
     1
102
RTVSPost2010Prop33
280
     0
102
RTVSPost2010PropOp33
 70
     1
102
RTVSPost2010Prop34
280
     0
102
RTVSPost2010PropOp34
 70
     1
102
RTVSPost2010Prop35
280
     0
102
RTVSPost2010PropOp35
 70
     1
102
RTVSPost2010Prop36
280
     0
102
RTVSPost2010PropOp36
 70
     1
102
RTVSPost2010Prop37
 90
       50
102
RTVSPost2010PropOp37
 70
     1
102
RTVSPost2010Prop38
140
0.0
102
RTVSPost2010PropOp38
 70
     1
102
RTVSPost2010Prop39
140
1.0
102
RTVSPost2010PropOp39
 70
     1
102
RTVSPost2010Prop40
 90
        0
102
RTVSPost2010PropOp40
 70
     1
102
RTVSPost2010Prop41ColorIndex
 90
       18
102
RTVSPost2010Prop41ColorRGB
 90
        0
102
RTVSPost2010PropOp41
 70
     1
102
RTVSPost2010Prop42
 90
       50
102
RTVSPost2010PropOp42
 70
     1
102
RTVSPost2010Prop43
 90
        3
102
RTVSPost2010PropOp43
 70
     1
102
RTVSPost2010Prop44ColorIndex
 90
        5
102
RTVSPost2010Prop44ColorRGB
 90
      255
102
RTVSPost2010PropOp44
 70
     1
102
RTVSPost2010Prop45
280
     0
102
RTVSPost2010PropOp45
 70
     1
102
RTVSPost2010Prop46
 90
       50
102
RTVSPost2010PropOp46
 70
     1
102
RTVSPost2010Prop47
 90
       50
102
RTVSPost2010PropOp47
 70
     1
102
RTVSPost2010Prop48
 90
       50
102
RTVSPost2010PropOp48
 70
     1
102
RTVSPost2010Prop49
280
     0
102
RTVSPost2010PropOp49
 70
     1
102
RTVSPost2010Prop50
 90
       50
102
RTVSPost2010PropOp50
 70
     1
102
RTVSPost2010Prop51ColorIndex
 90
      256
102
RTVSPost2010Prop51ColorRGB
 90
-16777216
102
RTVSPost2010PropOp51
 70
     0
102
RTVSPost2010Prop52
140
1.0
102
RTVSPost2010PropOp52
 70
     0
102
RTVSPost2010Prop53
 90
        2
102
RTVSPost2010PropOp53
 70
     1
102
RTVSPost2010Prop54
  1
strokes_ogs.tif
102
RTVSPost2010PropOp54
 70
     1
102
RTVSPost2010Prop55
280
     0
102
RTVSPost2010PropOp55
 70
     1
102
RTVSPost2010Prop56
140
1.0
102
RTVSPost2010PropOp56
 70
     1
102
RTVSPost2010Prop57
140
1.0
102
RTVSPost2010PropOp57
 70
     1
  0
XRECORD
  5
139
102
{ACAD_REACTORS
330
138
102
}
330
138
100
AcDbXrecord
280
     1
102
RTVSPost2010Prop28
280
     0
102
RTVSPost2010PropOp28
 70
     0
102
RTVSPost2010Prop29
280
     1
102
RTVSPost2010PropOp29
 70
     0
102
RTVSPost2010Prop30
280
     1
102
RTVSPost2010PropOp30
 70
     0
102
RTVSPost2010Prop31
280
     0
102
RTVSPost2010PropOp31
 70
     0
102
RTVSPost2010Prop32
280
     0
102
RTVSPost2010PropOp32
 70
     0
102
RTVSPost2010Prop33
280
     0
102
RTVSPost2010PropOp33
 70
     0
102
RTVSPost2010Prop34
280
     0
102
RTVSPost2010PropOp34
 70
     0
102
RTVSPost2010Prop35
280
     0
102
RTVSPost2010PropOp35
 70
     0
102
RTVSPost2010Prop36
280
     0
102
RTVSPost2010PropOp36
 70
     0
102
RTVSPost2010Prop37
 90
       50
102
RTVSPost2010PropOp37
 70
     0
102
RTVSPost2010Prop38
140
0.0
102
RTVSPost2010PropOp38
 70
     0
102
RTVSPost2010Prop39
140
1.0
102
RTVSPost2010PropOp39
 70
     0
102
RTVSPost2010Prop40
 90
        0
102
RTVSPost2010PropOp40
 70
     0
102
RTVSPost2010Prop41ColorIndex
 90
       18
102
RTVSPost2010Prop41ColorRGB
 90
        0
102
RTVSPost2010PropOp41
 70
     0
102
RTVSPost2010Prop42
 90
       50
102
RTVSPost2010PropOp42
 70
     0
102
RTVSPost2010Prop43
 90
        3
102
RTVSPost2010PropOp43
 70
     0
102
RTVSPost2010Prop44ColorIndex
 90
        5
102
RTVSPost2010Prop44ColorRGB
 90
      255
102
RTVSPost2010PropOp44
 70
     0
102
RTVSPost2010Prop45
280
     0
102
RTVSPost2010PropOp45
 70
     0
102
RTVSPost2010Prop46
 90
       50
102
RTVSPost2010PropOp46
 70
     0
102
RTVSPost2010Prop47
 90
       50
102
RTVSPost2010PropOp47
 70
     0
102
RTVSPost2010Prop48
 90
       50
102
RTVSPost2010PropOp48
 70
     0
102
RTVSPost2010Prop49
280
     0
102
RTVSPost2010PropOp49
 70
     0
102
RTVSPost2010Prop50
 90
       50
102
RTVSPost2010PropOp50
 70
     0
102
RTVSPost2010Prop51ColorIndex
 90
      256
102
RTVSPost2010Prop51ColorRGB
 90
-16777216
102
RTVSPost2010PropOp51
 70
     0
102
RTVSPost2010Prop52
140
1.0
102
RTVSPost2010PropOp52
 70
     0
102
RTVSPost2010Prop53
 90
        2
102
RTVSPost2010PropOp53
 70
     0
102
RTVSPost2010Prop54
  1
strokes_ogs.tif
102
RTVSPost2010PropOp54
 70
     0
102
RTVSPost2010Prop55
280
     0
102
RTVSPost2010PropOp55
 70
     0
102
RTVSPost2010Prop56
140
1.0
102
RTVSPost2010PropOp56
 70
     0
102
RTVSPost2010Prop57
140
1.0
102
RTVSPost2010PropOp57
 70
     0
  0
XRECORD
  5
127
102
{ACAD_REACTORS
330
126
102
}
330
126
100
AcDbXrecord
280
     1
102
RTVSPost2010Prop28
280
     0
102
RTVSPost2010PropOp28
 70
     1
102
RTVSPost2010Prop29
280
     1
102
RTVSPost2010PropOp29
 70
     1
102
RTVSPost2010Prop30
280
     1
102
RTVSPost2010PropOp30
 70
     1
102
RTVSPost2010Prop31
280
     0
102
RTVSPost2010PropOp31
 70
     1
102
RTVSPost2010Prop32
280
     0
102
RTVSPost2010PropOp32
 70
     1
102
RTVSPost2010Prop33
280
     0
102
RTVSPost2010PropOp33
 70
     1
102
RTVSPost2010Prop34
280
     0
102
RTVSPost2010PropOp34
 70
     1
102
RTVSPost2010Prop35
280
     0
102
RTVSPost2010PropOp35
 70
     1
102
RTVSPost2010Prop36
280
     0
102
RTVSPost2010PropOp36
 70
     1
102
RTVSPost2010Prop37
 90
       50
102
RTVSPost2010PropOp37
 70
     1
102
RTVSPost2010Prop38
140
0.0
102
RTVSPost2010PropOp38
 70
     1
102
RTVSPost2010Prop39
140
1.0
102
RTVSPost2010PropOp39
 70
     1
102
RTVSPost2010Prop40
 90
        0
102
RTVSPost2010PropOp40
 70
     1
102
RTVSPost2010Prop41ColorIndex
 90
       18
102
RTVSPost2010Prop41ColorRGB
 90
        0
102
RTVSPost2010PropOp41
 70
     1
102
RTVSPost2010Prop42
 90
       50
102
RTVSPost2010PropOp42
 70
     1
102
RTVSPost2010Prop43
 90
        3
102
RTVSPost2010PropOp43
 70
     1
102
RTVSPost2010Prop44ColorIndex
 90
        5
102
RTVSPost2010Prop44ColorRGB
 90
      255
102
RTVSPost2010PropOp44
 70
     1
102
RTVSPost2010Prop45
280
     0
102
RTVSPost2010PropOp45
 70
     1
102
RTVSPost2010Prop46
 90
       50
102
RTVSPost2010PropOp46
 70
     1
102
RTVSPost2010Prop47
 90
       50
102
RTVSPost2010PropOp47
 70
     1
102
RTVSPost2010Prop48
 90
       50
102
RTVSPost2010PropOp48
 70
     1
102
RTVSPost2010Prop49
280
     0
102
RTVSPost2010PropOp49
 70
     1
102
RTVSPost2010Prop50
 90
       50
102
RTVSPost2010PropOp50
 70
     1
102
RTVSPost2010Prop51ColorIndex
 90
      256
102
RTVSPost2010Prop51ColorRGB
 90
-16777216
102
RTVSPost2010PropOp51
 70
     0
102
RTVSPost2010Prop52
140
1.0
102
RTVSPost2010PropOp52
 70
     0
102
RTVSPost2010Prop53
 90
        2
102
RTVSPost2010PropOp53
 70
     1
102
RTVSPost2010Prop54
  1
strokes_ogs.tif
102
RTVSPost2010PropOp54
 70
     1
102
RTVSPost2010Prop55
280
     0
102
RTVSPost2010PropOp55
 70
     1
102
RTVSPost2010Prop56
140
1.0
102
RTVSPost2010PropOp56
 70
     1
102
RTVSPost2010Prop57
140
1.0
102
RTVSPost2010PropOp57
 70
     1
  0
XRECORD
  5
10B
102
{ACAD_REACTORS
330
10A
102
}
330
10A
100
AcDbXrecord
280
     1
102
RTVSPost2010Prop28
280
     0
102
RTVSPost2010PropOp28
 70
     1
102
RTVSPost2010Prop29
280
     1
102
RTVSPost2010PropOp29
 70
     1
102
RTVSPost2010Prop30
280
     1
102
RTVSPost2010PropOp30
 70
     1
102
RTVSPost2010Prop31
280
     0
102
RTVSPost2010PropOp31
 70
     1
102
RTVSPost2010Prop32
280
     0
102
RTVSPost2010PropOp32
 70
     1
102
RTVSPost2010Prop33
280
     0
102
RTVSPost2010PropOp33
 70
     1
102
RTVSPost2010Prop34
280
     0
102
RTVSPost2010PropOp34
 70
     1
102
RTVSPost2010Prop35
280
     0
102
RTVSPost2010PropOp35
 70
     1
102
RTVSPost2010Prop36
280
     0
102
RTVSPost2010PropOp36
 70
     1
102
RTVSPost2010Prop37
 90
       50
102
RTVSPost2010PropOp37
 70
     1
102
RTVSPost2010Prop38
140
0.0
102
RTVSPost2010PropOp38
 70
     1
102
RTVSPost2010Prop39
140
1.0
102
RTVSPost2010PropOp39
 70
     1
102
RTVSPost2010Prop40
 90
        0
102
RTVSPost2010PropOp40
 70
     1
102
RTVSPost2010Prop41ColorIndex
 90
       18
102
RTVSPost2010Prop41ColorRGB
 90
        0
102
RTVSPost2010PropOp41
 70
     1
102
RTVSPost2010Prop42
 90
       50
102
RTVSPost2010PropOp42
 70
     1
102
RTVSPost2010Prop43
 90
        3
102
RTVSPost2010PropOp43
 70
     1
102
RTVSPost2010Prop44ColorIndex
 90
        5
102
RTVSPost2010Prop44ColorRGB
 90
      255
102
RTVSPost2010PropOp44
 70
     1
102
RTVSPost2010Prop45
280
     0
102
RTVSPost2010PropOp45
 70
     1
102
RTVSPost2010Prop46
 90
       50
102
RTVSPost2010PropOp46
 70
     1
102
RTVSPost2010Prop47
 90
       50
102
RTVSPost2010PropOp47
 70
     1
102
RTVSPost2010Prop48
 90
       50
102
RTVSPost2010PropOp48
 70
     1
102
RTVSPost2010Prop49
280
     0
102
RTVSPost2010PropOp49
 70
     1
102
RTVSPost2010Prop50
 90
       50
102
RTVSPost2010PropOp50
 70
     1
102
RTVSPost2010Prop51ColorIndex
 90
      256
102
RTVSPost2010Prop51ColorRGB
 90
-16777216
102
RTVSPost2010PropOp51
 70
     0
102
RTVSPost2010Prop52
140
1.0
102
RTVSPost2010PropOp52
 70
     0
102
RTVSPost2010Prop53
 90
        2
102
RTVSPost2010PropOp53
 70
     1
102
RTVSPost2010Prop54
  1
strokes_ogs.tif
102
RTVSPost2010PropOp54
 70
     1
102
RTVSPost2010Prop55
280
     0
102
RTVSPost2010PropOp55
 70
     1
102
RTVSPost2010Prop56
140
1.0
102
RTVSPost2010PropOp56
 70
     1
102
RTVSPost2010Prop57
140
1.0
102
RTVSPost2010PropOp57
 70
     1
  0
XRECORD
  5
10D
102
{ACAD_REACTORS
330
10C
102
}
330
10C
100
AcDbXrecord
280
     1
102
RTVSPost2010Prop28
280
     0
102
RTVSPost2010PropOp28
 70
     1
102
RTVSPost2010Prop29
280
     1
102
RTVSPost2010PropOp29
 70
     1
102
RTVSPost2010Prop30
280
     1
102
RTVSPost2010PropOp30
 70
     1
102
RTVSPost2010Prop31
280
     0
102
RTVSPost2010PropOp31
 70
     1
102
RTVSPost2010Prop32
280
     0
102
RTVSPost2010PropOp32
 70
     1
102
RTVSPost2010Prop33
280
     0
102
RTVSPost2010PropOp33
 70
     1
102
RTVSPost2010Prop34
280
     0
102
RTVSPost2010PropOp34
 70
     1
102
RTVSPost2010Prop35
280
     0
102
RTVSPost2010PropOp35
 70
     1
102
RTVSPost2010Prop36
280
     0
102
RTVSPost2010PropOp36
 70
     1
102
RTVSPost2010Prop37
 90
       50
102
RTVSPost2010PropOp37
 70
     1
102
RTVSPost2010Prop38
140
0.0
102
RTVSPost2010PropOp38
 70
     1
102
RTVSPost2010Prop39
140
1.0
102
RTVSPost2010PropOp39
 70
     1
102
RTVSPost2010Prop40
 90
        0
102
RTVSPost2010PropOp40
 70
     1
102
RTVSPost2010Prop41ColorIndex
 90
       18
102
RTVSPost2010Prop41ColorRGB
 90
        0
102
RTVSPost2010PropOp41
 70
     1
102
RTVSPost2010Prop42
 90
       50
102
RTVSPost2010PropOp42
 70
     1
102
RTVSPost2010Prop43
 90
        3
102
RTVSPost2010PropOp43
 70
     1
102
RTVSPost2010Prop44ColorIndex
 90
        5
102
RTVSPost2010Prop44ColorRGB
 90
      255
102
RTVSPost2010PropOp44
 70
     1
102
RTVSPost2010Prop45
280
     0
102
RTVSPost2010PropOp45
 70
     1
102
RTVSPost2010Prop46
 90
       50
102
RTVSPost2010PropOp46
 70
     1
102
RTVSPost2010Prop47
 90
       50
102
RTVSPost2010PropOp47
 70
     1
102
RTVSPost2010Prop48
 90
       50
102
RTVSPost2010PropOp48
 70
     1
102
RTVSPost2010Prop49
280
     0
102
RTVSPost2010PropOp49
 70
     1
102
RTVSPost2010Prop50
 90
       50
102
RTVSPost2010PropOp50
 70
     1
102
RTVSPost2010Prop51ColorIndex
 90
      256
102
RTVSPost2010Prop51ColorRGB
 90
-16777216
102
RTVSPost2010PropOp51
 70
     0
102
RTVSPost2010Prop52
140
1.0
102
RTVSPost2010PropOp52
 70
     0
102
RTVSPost2010Prop53
 90
        2
102
RTVSPost2010PropOp53
 70
     1
102
RTVSPost2010Prop54
  1
strokes_ogs.tif
102
RTVSPost2010PropOp54
 70
     1
102
RTVSPost2010Prop55
280
     0
102
RTVSPost2010PropOp55
 70
     1
102
RTVSPost2010Prop56
140
1.0
102
RTVSPost2010PropOp56
 70
     1
102
RTVSPost2010Prop57
140
1.0
102
RTVSPost2010PropOp57
 70
     1
  0
XRECORD
  5
10F
102
{ACAD_REACTORS
330
10E
102
}
330
10E
100
AcDbXrecord
280
     1
102
RTVSPost2010Prop28
280
     0
102
RTVSPost2010PropOp28
 70
     1
102
RTVSPost2010Prop29
280
     1
102
RTVSPost2010PropOp29
 70
     1
102
RTVSPost2010Prop30
280
     1
102
RTVSPost2010PropOp30
 70
     1
102
RTVSPost2010Prop31
280
     0
102
RTVSPost2010PropOp31
 70
     1
102
RTVSPost2010Prop32
280
     0
102
RTVSPost2010PropOp32
 70
     1
102
RTVSPost2010Prop33
280
     0
102
RTVSPost2010PropOp33
 70
     1
102
RTVSPost2010Prop34
280
     0
102
RTVSPost2010PropOp34
 70
     1
102
RTVSPost2010Prop35
280
     0
102
RTVSPost2010PropOp35
 70
     1
102
RTVSPost2010Prop36
280
     0
102
RTVSPost2010PropOp36
 70
     1
102
RTVSPost2010Prop37
 90
       50
102
RTVSPost2010PropOp37
 70
     1
102
RTVSPost2010Prop38
140
0.0
102
RTVSPost2010PropOp38
 70
     1
102
RTVSPost2010Prop39
140
1.0
102
RTVSPost2010PropOp39
 70
     1
102
RTVSPost2010Prop40
 90
        0
102
RTVSPost2010PropOp40
 70
     1
102
RTVSPost2010Prop41ColorIndex
 90
       18
102
RTVSPost2010Prop41ColorRGB
 90
        0
102
RTVSPost2010PropOp41
 70
     1
102
RTVSPost2010Prop42
 90
       50
102
RTVSPost2010PropOp42
 70
     1
102
RTVSPost2010Prop43
 90
        3
102
RTVSPost2010PropOp43
 70
     1
102
RTVSPost2010Prop44ColorIndex
 90
        5
102
RTVSPost2010Prop44ColorRGB
 90
      255
102
RTVSPost2010PropOp44
 70
     1
102
RTVSPost2010Prop45
280
     0
102
RTVSPost2010PropOp45
 70
     1
102
RTVSPost2010Prop46
 90
       50
102
RTVSPost2010PropOp46
 70
     1
102
RTVSPost2010Prop47
 90
       50
102
RTVSPost2010PropOp47
 70
     1
102
RTVSPost2010Prop48
 90
       50
102
RTVSPost2010PropOp48
 70
     1
102
RTVSPost2010Prop49
280
     0
102
RTVSPost2010PropOp49
 70
     1
102
RTVSPost2010Prop50
 90
       50
102
RTVSPost2010PropOp50
 70
     1
102
RTVSPost2010Prop51ColorIndex
 90
      256
102
RTVSPost2010Prop51ColorRGB
 90
-16777216
102
RTVSPost2010PropOp51
 70
     0
102
RTVSPost2010Prop52
140
1.0
102
RTVSPost2010PropOp52
 70
     0
102
RTVSPost2010Prop53
 90
        2
102
RTVSPost2010PropOp53
 70
     1
102
RTVSPost2010Prop54
  1
strokes_ogs.tif
102
RTVSPost2010PropOp54
 70
     1
102
RTVSPost2010Prop55
280
     0
102
RTVSPost2010PropOp55
 70
     1
102
RTVSPost2010Prop56
140
1.0
102
RTVSPost2010PropOp56
 70
     1
102
RTVSPost2010Prop57
140
1.0
102
RTVSPost2010PropOp57
 70
     1
  0
XRECORD
  5
111
102
{ACAD_REACTORS
330
110
102
}
330
110
100
AcDbXrecord
280
     1
102
RTVSPost2010Prop28
280
     0
102
RTVSPost2010PropOp28
 70
     1
102
RTVSPost2010Prop29
280
     1
102
RTVSPost2010PropOp29
 70
     1
102
RTVSPost2010Prop30
280
     1
102
RTVSPost2010PropOp30
 70
     1
102
RTVSPost2010Prop31
280
     0
102
RTVSPost2010PropOp31
 70
     1
102
RTVSPost2010Prop32
280
     0
102
RTVSPost2010PropOp32
 70
     1
102
RTVSPost2010Prop33
280
     0
102
RTVSPost2010PropOp33
 70
     1
102
RTVSPost2010Prop34
280
     0
102
RTVSPost2010PropOp34
 70
     1
102
RTVSPost2010Prop35
280
     0
102
RTVSPost2010PropOp35
 70
     1
102
RTVSPost2010Prop36
280
     0
102
RTVSPost2010PropOp36
 70
     1
102
RTVSPost2010Prop37
 90
       50
102
RTVSPost2010PropOp37
 70
     1
102
RTVSPost2010Prop38
140
0.0
102
RTVSPost2010PropOp38
 70
     1
102
RTVSPost2010Prop39
140
1.0
102
RTVSPost2010PropOp39
 70
     1
102
RTVSPost2010Prop40
 90
        0
102
RTVSPost2010PropOp40
 70
     1
102
RTVSPost2010Prop41ColorIndex
 90
       18
102
RTVSPost2010Prop41ColorRGB
 90
        0
102
RTVSPost2010PropOp41
 70
     1
102
RTVSPost2010Prop42
 90
       50
102
RTVSPost2010PropOp42
 70
     1
102
RTVSPost2010Prop43
 90
        3
102
RTVSPost2010PropOp43
 70
     1
102
RTVSPost2010Prop44ColorIndex
 90
        5
102
RTVSPost2010Prop44ColorRGB
 90
      255
102
RTVSPost2010PropOp44
 70
     1
102
RTVSPost2010Prop45
280
     0
102
RTVSPost2010PropOp45
 70
     1
102
RTVSPost2010Prop46
 90
       50
102
RTVSPost2010PropOp46
 70
     1
102
RTVSPost2010Prop47
 90
       50
102
RTVSPost2010PropOp47
 70
     1
102
RTVSPost2010Prop48
 90
       50
102
RTVSPost2010PropOp48
 70
     1
102
RTVSPost2010Prop49
280
     0
102
RTVSPost2010PropOp49
 70
     1
102
RTVSPost2010Prop50
 90
       50
102
RTVSPost2010PropOp50
 70
     1
102
RTVSPost2010Prop51ColorIndex
 90
      256
102
RTVSPost2010Prop51ColorRGB
 90
-16777216
102
RTVSPost2010PropOp51
 70
     0
102
RTVSPost2010Prop52
140
1.0
102
RTVSPost2010PropOp52
 70
     0
102
RTVSPost2010Prop53
 90
        2
102
RTVSPost2010PropOp53
 70
     1
102
RTVSPost2010Prop54
  1
strokes_ogs.tif
102
RTVSPost2010PropOp54
 70
     1
102
RTVSPost2010Prop55
280
     0
102
RTVSPost2010PropOp55
 70
     1
102
RTVSPost2010Prop56
140
1.0
102
RTVSPost2010PropOp56
 70
     1
102
RTVSPost2010Prop57
140
1.0
102
RTVSPost2010PropOp57
 70
     1
  0
XRECORD
  5
119
102
{ACAD_REACTORS
330
118
102
}
330
118
100
AcDbXrecord
280
     1
102
RTVSPost2010Prop28
280
     0
102
RTVSPost2010PropOp28
 70
     1
102
RTVSPost2010Prop29
280
     1
102
RTVSPost2010PropOp29
 70
     1
102
RTVSPost2010Prop30
280
     1
102
RTVSPost2010PropOp30
 70
     1
102
RTVSPost2010Prop31
280
     0
102
RTVSPost2010PropOp31
 70
     1
102
RTVSPost2010Prop32
280
     0
102
RTVSPost2010PropOp32
 70
     1
102
RTVSPost2010Prop33
280
     0
102
RTVSPost2010PropOp33
 70
     1
102
RTVSPost2010Prop34
280
     0
102
RTVSPost2010PropOp34
 70
     1
102
RTVSPost2010Prop35
280
     0
102
RTVSPost2010PropOp35
 70
     1
102
RTVSPost2010Prop36
280
     0
102
RTVSPost2010PropOp36
 70
     1
102
RTVSPost2010Prop37
 90
       50
102
RTVSPost2010PropOp37
 70
     1
102
RTVSPost2010Prop38
140
0.0
102
RTVSPost2010PropOp38
 70
     1
102
RTVSPost2010Prop39
140
1.0
102
RTVSPost2010PropOp39
 70
     1
102
RTVSPost2010Prop40
 90
        0
102
RTVSPost2010PropOp40
 70
     1
102
RTVSPost2010Prop41ColorIndex
 90
       18
102
RTVSPost2010Prop41ColorRGB
 90
        0
102
RTVSPost2010PropOp41
 70
     1
102
RTVSPost2010Prop42
 90
       50
102
RTVSPost2010PropOp42
 70
     1
102
RTVSPost2010Prop43
 90
        3
102
RTVSPost2010PropOp43
 70
     1
102
RTVSPost2010Prop44ColorIndex
 90
        5
102
RTVSPost2010Prop44ColorRGB
 90
      255
102
RTVSPost2010PropOp44
 70
     1
102
RTVSPost2010Prop45
280
     0
102
RTVSPost2010PropOp45
 70
     1
102
RTVSPost2010Prop46
 90
       50
102
RTVSPost2010PropOp46
 70
     1
102
RTVSPost2010Prop47
 90
       50
102
RTVSPost2010PropOp47
 70
     1
102
RTVSPost2010Prop48
 90
       50
102
RTVSPost2010PropOp48
 70
     1
102
RTVSPost2010Prop49
280
     0
102
RTVSPost2010PropOp49
 70
     1
102
RTVSPost2010Prop50
 90
       50
102
RTVSPost2010PropOp50
 70
     1
102
RTVSPost2010Prop51ColorIndex
 90
      256
102
RTVSPost2010Prop51ColorRGB
 90
-16777216
102
RTVSPost2010PropOp51
 70
     0
102
RTVSPost2010Prop52
140
1.0
102
RTVSPost2010PropOp52
 70
     0
102
RTVSPost2010Prop53
 90
        2
102
RTVSPost2010PropOp53
 70
     1
102
RTVSPost2010Prop54
  1
strokes_ogs.tif
102
RTVSPost2010PropOp54
 70
     1
102
RTVSPost2010Prop55
280
     0
102
RTVSPost2010PropOp55
 70
     1
102
RTVSPost2010Prop56
140
1.0
102
RTVSPost2010PropOp56
 70
     1
102
RTVSPost2010Prop57
140
1.0
102
RTVSPost2010PropOp57
 70
     1
  0
XRECORD
  5
135
102
{ACAD_REACTORS
330
134
102
}
330
134
100
AcDbXrecord
280
     1
102
RTVSPost2010Prop28
280
     0
102
RTVSPost2010PropOp28
 70
     0
102
RTVSPost2010Prop29
280
     1
102
RTVSPost2010PropOp29
 70
     0
102
RTVSPost2010Prop30
280
     1
102
RTVSPost2010PropOp30
 70
     0
102
RTVSPost2010Prop31
280
     0
102
RTVSPost2010PropOp31
 70
     0
102
RTVSPost2010Prop32
280
     0
102
RTVSPost2010PropOp32
 70
     0
102
RTVSPost2010Prop33
280
     0
102
RTVSPost2010PropOp33
 70
     0
102
RTVSPost2010Prop34
280
     0
102
RTVSPost2010PropOp34
 70
     0
102
RTVSPost2010Prop35
280
     0
102
RTVSPost2010PropOp35
 70
     0
102
RTVSPost2010Prop36
280
     0
102
RTVSPost2010PropOp36
 70
     0
102
RTVSPost2010Prop37
 90
       50
102
RTVSPost2010PropOp37
 70
     0
102
RTVSPost2010Prop38
140
0.0
102
RTVSPost2010PropOp38
 70
     0
102
RTVSPost2010Prop39
140
1.0
102
RTVSPost2010PropOp39
 70
     0
102
RTVSPost2010Prop40
 90
        0
102
RTVSPost2010PropOp40
 70
     0
102
RTVSPost2010Prop41ColorIndex
 90
       18
102
RTVSPost2010Prop41ColorRGB
 90
        0
102
RTVSPost2010PropOp41
 70
     0
102
RTVSPost2010Prop42
 90
       50
102
RTVSPost2010PropOp42
 70
     0
102
RTVSPost2010Prop43
 90
        3
102
RTVSPost2010PropOp43
 70
     0
102
RTVSPost2010Prop44ColorIndex
 90
        5
102
RTVSPost2010Prop44ColorRGB
 90
      255
102
RTVSPost2010PropOp44
 70
     0
102
RTVSPost2010Prop45
280
     0
102
RTVSPost2010PropOp45
 70
     0
102
RTVSPost2010Prop46
 90
       50
102
RTVSPost2010PropOp46
 70
     0
102
RTVSPost2010Prop47
 90
       50
102
RTVSPost2010PropOp47
 70
     0
102
RTVSPost2010Prop48
 90
       50
102
RTVSPost2010PropOp48
 70
     0
102
RTVSPost2010Prop49
280
     0
102
RTVSPost2010PropOp49
 70
     0
102
RTVSPost2010Prop50
 90
       50
102
RTVSPost2010PropOp50
 70
     0
102
RTVSPost2010Prop51ColorIndex
 90
      256
102
RTVSPost2010Prop51ColorRGB
 90
-16777216
102
RTVSPost2010PropOp51
 70
     0
102
RTVSPost2010Prop52
140
1.0
102
RTVSPost2010PropOp52
 70
     0
102
RTVSPost2010Prop53
 90
        2
102
RTVSPost2010PropOp53
 70
     0
102
RTVSPost2010Prop54
  1
strokes_ogs.tif
102
RTVSPost2010PropOp54
 70
     0
102
RTVSPost2010Prop55
280
     0
102
RTVSPost2010PropOp55
 70
     0
102
RTVSPost2010Prop56
140
1.0
102
RTVSPost2010PropOp56
 70
     0
102
RTVSPost2010Prop57
140
1.0
102
RTVSPost2010PropOp57
 70
     0
  0
XRECORD
  5
125
102
{ACAD_REACTORS
330
124
102
}
330
124
100
AcDbXrecord
280
     1
102
RTVSPost2010Prop28
280
     0
102
RTVSPost2010PropOp28
 70
     1
102
RTVSPost2010Prop29
280
     1
102
RTVSPost2010PropOp29
 70
     1
102
RTVSPost2010Prop30
280
     1
102
RTVSPost2010PropOp30
 70
     1
102
RTVSPost2010Prop31
280
     0
102
RTVSPost2010PropOp31
 70
     1
102
RTVSPost2010Prop32
280
     0
102
RTVSPost2010PropOp32
 70
     1
102
RTVSPost2010Prop33
280
     0
102
RTVSPost2010PropOp33
 70
     1
102
RTVSPost2010Prop34
280
     0
102
RTVSPost2010PropOp34
 70
     1
102
RTVSPost2010Prop35
280
     0
102
RTVSPost2010PropOp35
 70
     1
102
RTVSPost2010Prop36
280
     0
102
RTVSPost2010PropOp36
 70
     1
102
RTVSPost2010Prop37
 90
       50
102
RTVSPost2010PropOp37
 70
     1
102
RTVSPost2010Prop38
140
0.0
102
RTVSPost2010PropOp38
 70
     1
102
RTVSPost2010Prop39
140
1.0
102
RTVSPost2010PropOp39
 70
     1
102
RTVSPost2010Prop40
 90
        0
102
RTVSPost2010PropOp40
 70
     1
102
RTVSPost2010Prop41ColorIndex
 90
       18
102
RTVSPost2010Prop41ColorRGB
 90
        0
102
RTVSPost2010PropOp41
 70
     1
102
RTVSPost2010Prop42
 90
       50
102
RTVSPost2010PropOp42
 70
     1
102
RTVSPost2010Prop43
 90
        3
102
RTVSPost2010PropOp43
 70
     1
102
RTVSPost2010Prop44ColorIndex
 90
        5
102
RTVSPost2010Prop44ColorRGB
 90
      255
102
RTVSPost2010PropOp44
 70
     1
102
RTVSPost2010Prop45
280
     0
102
RTVSPost2010PropOp45
 70
     1
102
RTVSPost2010Prop46
 90
       50
102
RTVSPost2010PropOp46
 70
     1
102
RTVSPost2010Prop47
 90
       50
102
RTVSPost2010PropOp47
 70
     1
102
RTVSPost2010Prop48
 90
       50
102
RTVSPost2010PropOp48
 70
     1
102
RTVSPost2010Prop49
280
     0
102
RTVSPost2010PropOp49
 70
     1
102
RTVSPost2010Prop50
 90
       50
102
RTVSPost2010PropOp50
 70
     1
102
RTVSPost2010Prop51ColorIndex
 90
      256
102
RTVSPost2010Prop51ColorRGB
 90
-16777216
102
RTVSPost2010PropOp51
 70
     0
102
RTVSPost2010Prop52
140
1.0
102
RTVSPost2010PropOp52
 70
     0
102
RTVSPost2010Prop53
 90
        2
102
RTVSPost2010PropOp53
 70
     1
102
RTVSPost2010Prop54
  1
strokes_ogs.tif
102
RTVSPost2010PropOp54
 70
     1
102
RTVSPost2010Prop55
280
     0
102
RTVSPost2010PropOp55
 70
     1
102
RTVSPost2010Prop56
140
1.0
102
RTVSPost2010PropOp56
 70
     1
102
RTVSPost2010Prop57
140
1.0
102
RTVSPost2010PropOp57
 70
     1
  0
XRECORD
  5
137
102
{ACAD_REACTORS
330
136
102
}
330
136
100
AcDbXrecord
280
     1
102
RTVSPost2010Prop28
280
     0
102
RTVSPost2010PropOp28
 70
     0
102
RTVSPost2010Prop29
280
     1
102
RTVSPost2010PropOp29
 70
     0
102
RTVSPost2010Prop30
280
     1
102
RTVSPost2010PropOp30
 70
     0
102
RTVSPost2010Prop31
280
     0
102
RTVSPost2010PropOp31
 70
     0
102
RTVSPost2010Prop32
280
     0
102
RTVSPost2010PropOp32
 70
     0
102
RTVSPost2010Prop33
280
     0
102
RTVSPost2010PropOp33
 70
     0
102
RTVSPost2010Prop34
280
     0
102
RTVSPost2010PropOp34
 70
     0
102
RTVSPost2010Prop35
280
     0
102
RTVSPost2010PropOp35
 70
     0
102
RTVSPost2010Prop36
280
     0
102
RTVSPost2010PropOp36
 70
     0
102
RTVSPost2010Prop37
 90
       50
102
RTVSPost2010PropOp37
 70
     0
102
RTVSPost2010Prop38
140
0.0
102
RTVSPost2010PropOp38
 70
     0
102
RTVSPost2010Prop39
140
1.0
102
RTVSPost2010PropOp39
 70
     0
102
RTVSPost2010Prop40
 90
        0
102
RTVSPost2010PropOp40
 70
     0
102
RTVSPost2010Prop41ColorIndex
 90
       18
102
RTVSPost2010Prop41ColorRGB
 90
        0
102
RTVSPost2010PropOp41
 70
     0
102
RTVSPost2010Prop42
 90
       50
102
RTVSPost2010PropOp42
 70
     0
102
RTVSPost2010Prop43
 90
        3
102
RTVSPost2010PropOp43
 70
     0
102
RTVSPost2010Prop44ColorIndex
 90
        5
102
RTVSPost2010Prop44ColorRGB
 90
      255
102
RTVSPost2010PropOp44
 70
     0
102
RTVSPost2010Prop45
280
     0
102
RTVSPost2010PropOp45
 70
     0
102
RTVSPost2010Prop46
 90
       50
102
RTVSPost2010PropOp46
 70
     0
102
RTVSPost2010Prop47
 90
       50
102
RTVSPost2010PropOp47
 70
     0
102
RTVSPost2010Prop48
 90
       50
102
RTVSPost2010PropOp48
 70
     0
102
RTVSPost2010Prop49
280
     0
102
RTVSPost2010PropOp49
 70
     0
102
RTVSPost2010Prop50
 90
       50
102
RTVSPost2010PropOp50
 70
     0
102
RTVSPost2010Prop51ColorIndex
 90
      256
102
RTVSPost2010Prop51ColorRGB
 90
-16777216
102
RTVSPost2010PropOp51
 70
     0
102
RTVSPost2010Prop52
140
1.0
102
RTVSPost2010PropOp52
 70
     0
102
RTVSPost2010Prop53
 90
        2
102
RTVSPost2010PropOp53
 70
     0
102
RTVSPost2010Prop54
  1
strokes_ogs.tif
102
RTVSPost2010PropOp54
 70
     0
102
RTVSPost2010Prop55
280
     0
102
RTVSPost2010PropOp55
 70
     0
102
RTVSPost2010Prop56
140
1.0
102
RTVSPost2010PropOp56
 70
     0
102
RTVSPost2010Prop57
140
1.0
102
RTVSPost2010PropOp57
 70
     0
  0
XRECORD
  5
11D
102
{ACAD_REACTORS
330
11C
102
}
330
11C
100
AcDbXrecord
280
     1
102
RTVSPost2010Prop28
280
     0
102
RTVSPost2010PropOp28
 70
     1
102
RTVSPost2010Prop29
280
     1
102
RTVSPost2010PropOp29
 70
     1
102
RTVSPost2010Prop30
280
     1
102
RTVSPost2010PropOp30
 70
     1
102
RTVSPost2010Prop31
280
     0
102
RTVSPost2010PropOp31
 70
     1
102
RTVSPost2010Prop32
280
     0
102
RTVSPost2010PropOp32
 70
     1
102
RTVSPost2010Prop33
280
     0
102
RTVSPost2010PropOp33
 70
     1
102
RTVSPost2010Prop34
280
     0
102
RTVSPost2010PropOp34
 70
     1
102
RTVSPost2010Prop35
280
     0
102
RTVSPost2010PropOp35
 70
     1
102
RTVSPost2010Prop36
280
     0
102
RTVSPost2010PropOp36
 70
     1
102
RTVSPost2010Prop37
 90
       50
102
RTVSPost2010PropOp37
 70
     1
102
RTVSPost2010Prop38
140
0.0
102
RTVSPost2010PropOp38
 70
     1
102
RTVSPost2010Prop39
140
1.0
102
RTVSPost2010PropOp39
 70
     1
102
RTVSPost2010Prop40
 90
        0
102
RTVSPost2010PropOp40
 70
     1
102
RTVSPost2010Prop41ColorIndex
 90
       18
102
RTVSPost2010Prop41ColorRGB
 90
        0
102
RTVSPost2010PropOp41
 70
     1
102
RTVSPost2010Prop42
 90
       50
102
RTVSPost2010PropOp42
 70
     1
102
RTVSPost2010Prop43
 90
        3
102
RTVSPost2010PropOp43
 70
     1
102
RTVSPost2010Prop44ColorIndex
 90
        5
102
RTVSPost2010Prop44ColorRGB
 90
      255
102
RTVSPost2010PropOp44
 70
     1
102
RTVSPost2010Prop45
280
     0
102
RTVSPost2010PropOp45
 70
     1
102
RTVSPost2010Prop46
 90
       50
102
RTVSPost2010PropOp46
 70
     1
102
RTVSPost2010Prop47
 90
       50
102
RTVSPost2010PropOp47
 70
     1
102
RTVSPost2010Prop48
 90
       50
102
RTVSPost2010PropOp48
 70
     1
102
RTVSPost2010Prop49
280
     0
102
RTVSPost2010PropOp49
 70
     1
102
RTVSPost2010Prop50
 90
       50
102
RTVSPost2010PropOp50
 70
     1
102
RTVSPost2010Prop51ColorIndex
 90
      256
102
RTVSPost2010Prop51ColorRGB
 90
-16777216
102
RTVSPost2010PropOp51
 70
     0
102
RTVSPost2010Prop52
140
1.0
102
RTVSPost2010PropOp52
 70
     0
102
RTVSPost2010Prop53
 90
        2
102
RTVSPost2010PropOp53
 70
     1
102
RTVSPost2010Prop54
  1
strokes_ogs.tif
102
RTVSPost2010PropOp54
 70
     1
102
RTVSPost2010Prop55
280
     0
102
RTVSPost2010PropOp55
 70
     1
102
RTVSPost2010Prop56
140
1.0
102
RTVSPost2010PropOp56
 70
     1
102
RTVSPost2010Prop57
140
1.0
102
RTVSPost2010PropOp57
 70
     1
  0
XRECORD
  5
133
102
{ACAD_REACTORS
330
132
102
}
330
132
100
AcDbXrecord
280
     1
102
RTVSPost2010Prop28
280
     0
102
RTVSPost2010PropOp28
 70
     1
102
RTVSPost2010Prop29
280
     1
102
RTVSPost2010PropOp29
 70
     1
102
RTVSPost2010Prop30
280
     1
102
RTVSPost2010PropOp30
 70
     1
102
RTVSPost2010Prop31
280
     0
102
RTVSPost2010PropOp31
 70
     1
102
RTVSPost2010Prop32
280
     0
102
RTVSPost2010PropOp32
 70
     1
102
RTVSPost2010Prop33
280
     0
102
RTVSPost2010PropOp33
 70
     1
102
RTVSPost2010Prop34
280
     0
102
RTVSPost2010PropOp34
 70
     1
102
RTVSPost2010Prop35
280
     0
102
RTVSPost2010PropOp35
 70
     1
102
RTVSPost2010Prop36
280
     0
102
RTVSPost2010PropOp36
 70
     1
102
RTVSPost2010Prop37
 90
       50
102
RTVSPost2010PropOp37
 70
     1
102
RTVSPost2010Prop38
140
0.0
102
RTVSPost2010PropOp38
 70
     1
102
RTVSPost2010Prop39
140
1.0
102
RTVSPost2010PropOp39
 70
     1
102
RTVSPost2010Prop40
 90
        0
102
RTVSPost2010PropOp40
 70
     1
102
RTVSPost2010Prop41ColorIndex
 90
       18
102
RTVSPost2010Prop41ColorRGB
 90
        0
102
RTVSPost2010PropOp41
 70
     1
102
RTVSPost2010Prop42
 90
       50
102
RTVSPost2010PropOp42
 70
     1
102
RTVSPost2010Prop43
 90
        3
102
RTVSPost2010PropOp43
 70
     1
102
RTVSPost2010Prop44ColorIndex
 90
        5
102
RTVSPost2010Prop44ColorRGB
 90
      255
102
RTVSPost2010PropOp44
 70
     1
102
RTVSPost2010Prop45
280
     0
102
RTVSPost2010PropOp45
 70
     1
102
RTVSPost2010Prop46
 90
       50
102
RTVSPost2010PropOp46
 70
     1
102
RTVSPost2010Prop47
 90
       50
102
RTVSPost2010PropOp47
 70
     1
102
RTVSPost2010Prop48
 90
       50
102
RTVSPost2010PropOp48
 70
     1
102
RTVSPost2010Prop49
280
     0
102
RTVSPost2010PropOp49
 70
     1
102
RTVSPost2010Prop50
 90
       50
102
RTVSPost2010PropOp50
 70
     1
102
RTVSPost2010Prop51ColorIndex
 90
      256
102
RTVSPost2010Prop51ColorRGB
 90
-16777216
102
RTVSPost2010PropOp51
 70
     0
102
RTVSPost2010Prop52
140
1.0
102
RTVSPost2010PropOp52
 70
     0
102
RTVSPost2010Prop53
 90
        2
102
RTVSPost2010PropOp53
 70
     1
102
RTVSPost2010Prop54
  1
strokes_ogs.tif
102
RTVSPost2010PropOp54
 70
     1
102
RTVSPost2010Prop55
280
     0
102
RTVSPost2010PropOp55
 70
     1
102
RTVSPost2010Prop56
140
1.0
102
RTVSPost2010PropOp56
 70
     1
102
RTVSPost2010Prop57
140
1.0
102
RTVSPost2010PropOp57
 70
     1
  0
XRECORD
  5
131
102
{ACAD_REACTORS
330
130
102
}
330
130
100
AcDbXrecord
280
     1
102
RTVSPost2010Prop28
280
     0
102
RTVSPost2010PropOp28
 70
     1
102
RTVSPost2010Prop29
280
     1
102
RTVSPost2010PropOp29
 70
     1
102
RTVSPost2010Prop30
280
     1
102
RTVSPost2010PropOp30
 70
     1
102
RTVSPost2010Prop31
280
     0
102
RTVSPost2010PropOp31
 70
     1
102
RTVSPost2010Prop32
280
     0
102
RTVSPost2010PropOp32
 70
     1
102
RTVSPost2010Prop33
280
     0
102
RTVSPost2010PropOp33
 70
     1
102
RTVSPost2010Prop34
280
     0
102
RTVSPost2010PropOp34
 70
     1
102
RTVSPost2010Prop35
280
     0
102
RTVSPost2010PropOp35
 70
     1
102
RTVSPost2010Prop36
280
     0
102
RTVSPost2010PropOp36
 70
     1
102
RTVSPost2010Prop37
 90
       50
102
RTVSPost2010PropOp37
 70
     1
102
RTVSPost2010Prop38
140
0.0
102
RTVSPost2010PropOp38
 70
     1
102
RTVSPost2010Prop39
140
1.0
102
RTVSPost2010PropOp39
 70
     1
102
RTVSPost2010Prop40
 90
        0
102
RTVSPost2010PropOp40
 70
     1
102
RTVSPost2010Prop41ColorIndex
 90
       18
102
RTVSPost2010Prop41ColorRGB
 90
        0
102
RTVSPost2010PropOp41
 70
     1
102
RTVSPost2010Prop42
 90
       50
102
RTVSPost2010PropOp42
 70
     1
102
RTVSPost2010Prop43
 90
        3
102
RTVSPost2010PropOp43
 70
     1
102
RTVSPost2010Prop44ColorIndex
 90
        5
102
RTVSPost2010Prop44ColorRGB
 90
      255
102
RTVSPost2010PropOp44
 70
     1
102
RTVSPost2010Prop45
280
     0
102
RTVSPost2010PropOp45
 70
     1
102
RTVSPost2010Prop46
 90
       50
102
RTVSPost2010PropOp46
 70
     1
102
RTVSPost2010Prop47
 90
       50
102
RTVSPost2010PropOp47
 70
     1
102
RTVSPost2010Prop48
 90
       50
102
RTVSPost2010PropOp48
 70
     1
102
RTVSPost2010Prop49
280
     0
102
RTVSPost2010PropOp49
 70
     1
102
RTVSPost2010Prop50
 90
       50
102
RTVSPost2010PropOp50
 70
     1
102
RTVSPost2010Prop51ColorIndex
 90
      256
102
RTVSPost2010Prop51ColorRGB
 90
-16777216
102
RTVSPost2010PropOp51
 70
     0
102
RTVSPost2010Prop52
140
1.0
102
RTVSPost2010PropOp52
 70
     0
102
RTVSPost2010Prop53
 90
        2
102
RTVSPost2010PropOp53
 70
     1
102
RTVSPost2010Prop54
  1
strokes_ogs.tif
102
RTVSPost2010PropOp54
 70
     1
102
RTVSPost2010Prop55
280
     0
102
RTVSPost2010PropOp55
 70
     1
102
RTVSPost2010Prop56
140
1.0
102
RTVSPost2010PropOp56
 70
     1
102
RTVSPost2010Prop57
140
1.0
102
RTVSPost2010PropOp57
 70
     1
  0
XRECORD
  5
12B
102
{ACAD_REACTORS
330
12A
102
}
330
12A
100
AcDbXrecord
280
     1
102
RTVSPost2010Prop28
280
     0
102
RTVSPost2010PropOp28
 70
     1
102
RTVSPost2010Prop29
280
     1
102
RTVSPost2010PropOp29
 70
     1
102
RTVSPost2010Prop30
280
     1
102
RTVSPost2010PropOp30
 70
     1
102
RTVSPost2010Prop31
280
     0
102
RTVSPost2010PropOp31
 70
     1
102
RTVSPost2010Prop32
280
     0
102
RTVSPost2010PropOp32
 70
     1
102
RTVSPost2010Prop33
280
     0
102
RTVSPost2010PropOp33
 70
     1
102
RTVSPost2010Prop34
280
     0
102
RTVSPost2010PropOp34
 70
     1
102
RTVSPost2010Prop35
280
     0
102
RTVSPost2010PropOp35
 70
     1
102
RTVSPost2010Prop36
280
     0
102
RTVSPost2010PropOp36
 70
     1
102
RTVSPost2010Prop37
 90
       50
102
RTVSPost2010PropOp37
 70
     1
102
RTVSPost2010Prop38
140
0.0
102
RTVSPost2010PropOp38
 70
     1
102
RTVSPost2010Prop39
140
1.0
102
RTVSPost2010PropOp39
 70
     1
102
RTVSPost2010Prop40
 90
        0
102
RTVSPost2010PropOp40
 70
     1
102
RTVSPost2010Prop41ColorIndex
 90
       18
102
RTVSPost2010Prop41ColorRGB
 90
        0
102
RTVSPost2010PropOp41
 70
     1
102
RTVSPost2010Prop42
 90
       50
102
RTVSPost2010PropOp42
 70
     1
102
RTVSPost2010Prop43
 90
        3
102
RTVSPost2010PropOp43
 70
     1
102
RTVSPost2010Prop44ColorIndex
 90
        5
102
RTVSPost2010Prop44ColorRGB
 90
      255
102
RTVSPost2010PropOp44
 70
     1
102
RTVSPost2010Prop45
280
     0
102
RTVSPost2010PropOp45
 70
     1
102
RTVSPost2010Prop46
 90
       50
102
RTVSPost2010PropOp46
 70
     1
102
RTVSPost2010Prop47
 90
       50
102
RTVSPost2010PropOp47
 70
     1
102
RTVSPost2010Prop48
 90
       50
102
RTVSPost2010PropOp48
 70
     1
102
RTVSPost2010Prop49
280
     0
102
RTVSPost2010PropOp49
 70
     1
102
RTVSPost2010Prop50
 90
       50
102
RTVSPost2010PropOp50
 70
     1
102
RTVSPost2010Prop51ColorIndex
 90
      256
102
RTVSPost2010Prop51ColorRGB
 90
-16777216
102
RTVSPost2010PropOp51
 70
     0
102
RTVSPost2010Prop52
140
1.0
102
RTVSPost2010PropOp52
 70
     0
102
RTVSPost2010Prop53
 90
        2
102
RTVSPost2010PropOp53
 70
     1
102
RTVSPost2010Prop54
  1
strokes_ogs.tif
102
RTVSPost2010PropOp54
 70
     1
102
RTVSPost2010Prop55
280
     0
102
RTVSPost2010PropOp55
 70
     1
102
RTVSPost2010Prop56
140
1.0
102
RTVSPost2010PropOp56
 70
     1
102
RTVSPost2010Prop57
140
1.0
102
RTVSPost2010PropOp57
 70
     1
  0
XRECORD
  5
12D
102
{ACAD_REACTORS
330
12C
102
}
330
12C
100
AcDbXrecord
280
     1
102
RTVSPost2010Prop28
280
     0
102
RTVSPost2010PropOp28
 70
     1
102
RTVSPost2010Prop29
280
     1
102
RTVSPost2010PropOp29
 70
     1
102
RTVSPost2010Prop30
280
     1
102
RTVSPost2010PropOp30
 70
     1
102
RTVSPost2010Prop31
280
     0
102
RTVSPost2010PropOp31
 70
     1
102
RTVSPost2010Prop32
280
     0
102
RTVSPost2010PropOp32
 70
     1
102
RTVSPost2010Prop33
280
     0
102
RTVSPost2010PropOp33
 70
     1
102
RTVSPost2010Prop34
280
     0
102
RTVSPost2010PropOp34
 70
     1
102
RTVSPost2010Prop35
280
     0
102
RTVSPost2010PropOp35
 70
     1
102
RTVSPost2010Prop36
280
     0
102
RTVSPost2010PropOp36
 70
     1
102
RTVSPost2010Prop37
 90
       50
102
RTVSPost2010PropOp37
 70
     1
102
RTVSPost2010Prop38
140
0.0
102
RTVSPost2010PropOp38
 70
     1
102
RTVSPost2010Prop39
140
1.0
102
RTVSPost2010PropOp39
 70
     1
102
RTVSPost2010Prop40
 90
        0
102
RTVSPost2010PropOp40
 70
     1
102
RTVSPost2010Prop41ColorIndex
 90
       18
102
RTVSPost2010Prop41ColorRGB
 90
        0
102
RTVSPost2010PropOp41
 70
     1
102
RTVSPost2010Prop42
 90
       50
102
RTVSPost2010PropOp42
 70
     1
102
RTVSPost2010Prop43
 90
        3
102
RTVSPost2010PropOp43
 70
     1
102
RTVSPost2010Prop44ColorIndex
 90
        5
102
RTVSPost2010Prop44ColorRGB
 90
      255
102
RTVSPost2010PropOp44
 70
     1
102
RTVSPost2010Prop45
280
     0
102
RTVSPost2010PropOp45
 70
     1
102
RTVSPost2010Prop46
 90
       50
102
RTVSPost2010PropOp46
 70
     1
102
RTVSPost2010Prop47
 90
       50
102
RTVSPost2010PropOp47
 70
     1
102
RTVSPost2010Prop48
 90
       50
102
RTVSPost2010PropOp48
 70
     1
102
RTVSPost2010Prop49
280
     0
102
RTVSPost2010PropOp49
 70
     1
102
RTVSPost2010Prop50
 90
       50
102
RTVSPost2010PropOp50
 70
     1
102
RTVSPost2010Prop51ColorIndex
 90
      256
102
RTVSPost2010Prop51ColorRGB
 90
-16777216
102
RTVSPost2010PropOp51
 70
     0
102
RTVSPost2010Prop52
140
1.0
102
RTVSPost2010PropOp52
 70
     0
102
RTVSPost2010Prop53
 90
        2
102
RTVSPost2010PropOp53
 70
     1
102
RTVSPost2010Prop54
  1
strokes_ogs.tif
102
RTVSPost2010PropOp54
 70
     1
102
RTVSPost2010Prop55
280
     0
102
RTVSPost2010PropOp55
 70
     1
102
RTVSPost2010Prop56
140
1.0
102
RTVSPost2010PropOp56
 70
     1
102
RTVSPost2010Prop57
140
1.0
102
RTVSPost2010PropOp57
 70
     1
  0
XRECORD
  5
123
102
{ACAD_REACTORS
330
122
102
}
330
122
100
AcDbXrecord
280
     1
102
RTVSPost2010Prop28
280
     0
102
RTVSPost2010PropOp28
 70
     1
102
RTVSPost2010Prop29
280
     1
102
RTVSPost2010PropOp29
 70
     1
102
RTVSPost2010Prop30
280
     1
102
RTVSPost2010PropOp30
 70
     1
102
RTVSPost2010Prop31
280
     0
102
RTVSPost2010PropOp31
 70
     1
102
RTVSPost2010Prop32
280
     0
102
RTVSPost2010PropOp32
 70
     1
102
RTVSPost2010Prop33
280
     0
102
RTVSPost2010PropOp33
 70
     1
102
RTVSPost2010Prop34
280
     0
102
RTVSPost2010PropOp34
 70
     1
102
RTVSPost2010Prop35
280
     0
102
RTVSPost2010PropOp35
 70
     1
102
RTVSPost2010Prop36
280
     0
102
RTVSPost2010PropOp36
 70
     1
102
RTVSPost2010Prop37
 90
       50
102
RTVSPost2010PropOp37
 70
     1
102
RTVSPost2010Prop38
140
0.0
102
RTVSPost2010PropOp38
 70
     1
102
RTVSPost2010Prop39
140
1.0
102
RTVSPost2010PropOp39
 70
     1
102
RTVSPost2010Prop40
 90
        0
102
RTVSPost2010PropOp40
 70
     1
102
RTVSPost2010Prop41ColorIndex
 90
       18
102
RTVSPost2010Prop41ColorRGB
 90
        0
102
RTVSPost2010PropOp41
 70
     1
102
RTVSPost2010Prop42
 90
       50
102
RTVSPost2010PropOp42
 70
     1
102
RTVSPost2010Prop43
 90
        3
102
RTVSPost2010PropOp43
 70
     1
102
RTVSPost2010Prop44ColorIndex
 90
        5
102
RTVSPost2010Prop44ColorRGB
 90
      255
102
RTVSPost2010PropOp44
 70
     1
102
RTVSPost2010Prop45
280
     0
102
RTVSPost2010PropOp45
 70
     1
102
RTVSPost2010Prop46
 90
       50
102
RTVSPost2010PropOp46
 70
     1
102
RTVSPost2010Prop47
 90
       50
102
RTVSPost2010PropOp47
 70
     1
102
RTVSPost2010Prop48
 90
       50
102
RTVSPost2010PropOp48
 70
     1
102
RTVSPost2010Prop49
280
     0
102
RTVSPost2010PropOp49
 70
     1
102
RTVSPost2010Prop50
 90
       50
102
RTVSPost2010PropOp50
 70
     1
102
RTVSPost2010Prop51ColorIndex
 90
      256
102
RTVSPost2010Prop51ColorRGB
 90
-16777216
102
RTVSPost2010PropOp51
 70
     0
102
RTVSPost2010Prop52
140
1.0
102
RTVSPost2010PropOp52
 70
     0
102
RTVSPost2010Prop53
 90
        2
102
RTVSPost2010PropOp53
 70
     1
102
RTVSPost2010Prop54
  1
strokes_ogs.tif
102
RTVSPost2010PropOp54
 70
     1
102
RTVSPost2010Prop55
280
     0
102
RTVSPost2010PropOp55
 70
     1
102
RTVSPost2010Prop56
140
1.0
102
RTVSPost2010PropOp56
 70
     1
102
RTVSPost2010Prop57
140
1.0
102
RTVSPost2010PropOp57
 70
     1
  0
XRECORD
  5
117
102
{ACAD_REACTORS
330
116
102
}
330
116
100
AcDbXrecord
280
     1
102
RTVSPost2010Prop28
280
     0
102
RTVSPost2010PropOp28
 70
     1
102
RTVSPost2010Prop29
280
     1
102
RTVSPost2010PropOp29
 70
     1
102
RTVSPost2010Prop30
280
     1
102
RTVSPost2010PropOp30
 70
     1
102
RTVSPost2010Prop31
280
     0
102
RTVSPost2010PropOp31
 70
     1
102
RTVSPost2010Prop32
280
     0
102
RTVSPost2010PropOp32
 70
     1
102
RTVSPost2010Prop33
280
     0
102
RTVSPost2010PropOp33
 70
     1
102
RTVSPost2010Prop34
280
     0
102
RTVSPost2010PropOp34
 70
     1
102
RTVSPost2010Prop35
280
     0
102
RTVSPost2010PropOp35
 70
     1
102
RTVSPost2010Prop36
280
     0
102
RTVSPost2010PropOp36
 70
     1
102
RTVSPost2010Prop37
 90
       50
102
RTVSPost2010PropOp37
 70
     1
102
RTVSPost2010Prop38
140
0.0
102
RTVSPost2010PropOp38
 70
     1
102
RTVSPost2010Prop39
140
1.0
102
RTVSPost2010PropOp39
 70
     1
102
RTVSPost2010Prop40
 90
        0
102
RTVSPost2010PropOp40
 70
     1
102
RTVSPost2010Prop41ColorIndex
 90
       18
102
RTVSPost2010Prop41ColorRGB
 90
        0
102
RTVSPost2010PropOp41
 70
     1
102
RTVSPost2010Prop42
 90
       50
102
RTVSPost2010PropOp42
 70
     1
102
RTVSPost2010Prop43
 90
        3
102
RTVSPost2010PropOp43
 70
     1
102
RTVSPost2010Prop44ColorIndex
 90
        5
102
RTVSPost2010Prop44ColorRGB
 90
      255
102
RTVSPost2010PropOp44
 70
     1
102
RTVSPost2010Prop45
280
     0
102
RTVSPost2010PropOp45
 70
     1
102
RTVSPost2010Prop46
 90
       50
102
RTVSPost2010PropOp46
 70
     1
102
RTVSPost2010Prop47
 90
       50
102
RTVSPost2010PropOp47
 70
     1
102
RTVSPost2010Prop48
 90
       50
102
RTVSPost2010PropOp48
 70
     1
102
RTVSPost2010Prop49
280
     0
102
RTVSPost2010PropOp49
 70
     1
102
RTVSPost2010Prop50
 90
       50
102
RTVSPost2010PropOp50
 70
     1
102
RTVSPost2010Prop51ColorIndex
 90
      256
102
RTVSPost2010Prop51ColorRGB
 90
-16777216
102
RTVSPost2010PropOp51
 70
     0
102
RTVSPost2010Prop52
140
1.0
102
RTVSPost2010PropOp52
 70
     0
102
RTVSPost2010Prop53
 90
        2
102
RTVSPost2010PropOp53
 70
     1
102
RTVSPost2010Prop54
  1
strokes_ogs.tif
102
RTVSPost2010PropOp54
 70
     1
102
RTVSPost2010Prop55
280
     0
102
RTVSPost2010PropOp55
 70
     1
102
RTVSPost2010Prop56
140
1.0
102
RTVSPost2010PropOp56
 70
     1
102
RTVSPost2010Prop57
140
1.0
102
RTVSPost2010PropOp57
 70
     1
  0
XRECORD
  5
12F
102
{ACAD_REACTORS
330
12E
102
}
330
12E
100
AcDbXrecord
280
     1
102
RTVSPost2010Prop28
280
     0
102
RTVSPost2010PropOp28
 70
     1
102
RTVSPost2010Prop29
280
     1
102
RTVSPost2010PropOp29
 70
     1
102
RTVSPost2010Prop30
280
     1
102
RTVSPost2010PropOp30
 70
     1
102
RTVSPost2010Prop31
280
     0
102
RTVSPost2010PropOp31
 70
     1
102
RTVSPost2010Prop32
280
     0
102
RTVSPost2010PropOp32
 70
     1
102
RTVSPost2010Prop33
280
     0
102
RTVSPost2010PropOp33
 70
     1
102
RTVSPost2010Prop34
280
     0
102
RTVSPost2010PropOp34
 70
     1
102
RTVSPost2010Prop35
280
     0
102
RTVSPost2010PropOp35
 70
     1
102
RTVSPost2010Prop36
280
     0
102
RTVSPost2010PropOp36
 70
     1
102
RTVSPost2010Prop37
 90
       50
102
RTVSPost2010PropOp37
 70
     1
102
RTVSPost2010Prop38
140
0.0
102
RTVSPost2010PropOp38
 70
     1
102
RTVSPost2010Prop39
140
1.0
102
RTVSPost2010PropOp39
 70
     1
102
RTVSPost2010Prop40
 90
        0
102
RTVSPost2010PropOp40
 70
     1
102
RTVSPost2010Prop41ColorIndex
 90
       18
102
RTVSPost2010Prop41ColorRGB
 90
        0
102
RTVSPost2010PropOp41
 70
     1
102
RTVSPost2010Prop42
 90
       50
102
RTVSPost2010PropOp42
 70
     1
102
RTVSPost2010Prop43
 90
        3
102
RTVSPost2010PropOp43
 70
     1
102
RTVSPost2010Prop44ColorIndex
 90
        5
102
RTVSPost2010Prop44ColorRGB
 90
      255
102
RTVSPost2010PropOp44
 70
     1
102
RTVSPost2010Prop45
280
     0
102
RTVSPost2010PropOp45
 70
     1
102
RTVSPost2010Prop46
 90
       50
102
RTVSPost2010PropOp46
 70
     1
102
RTVSPost2010Prop47
 90
       50
102
RTVSPost2010PropOp47
 70
     1
102
RTVSPost2010Prop48
 90
       50
102
RTVSPost2010PropOp48
 70
     1
102
RTVSPost2010Prop49
280
     0
102
RTVSPost2010PropOp49
 70
     1
102
RTVSPost2010Prop50
 90
       50
102
RTVSPost2010PropOp50
 70
     1
102
RTVSPost2010Prop51ColorIndex
 90
      256
102
RTVSPost2010Prop51ColorRGB
 90
-16777216
102
RTVSPost2010PropOp51
 70
     0
102
RTVSPost2010Prop52
140
1.0
102
RTVSPost2010PropOp52
 70
     0
102
RTVSPost2010Prop53
 90
        2
102
RTVSPost2010PropOp53
 70
     1
102
RTVSPost2010Prop54
  1
strokes_ogs.tif
102
RTVSPost2010PropOp54
 70
     1
102
RTVSPost2010Prop55
280
     0
102
RTVSPost2010PropOp55
 70
     1
102
RTVSPost2010Prop56
140
1.0
102
RTVSPost2010PropOp56
 70
     1
102
RTVSPost2010Prop57
140
1.0
102
RTVSPost2010PropOp57
 70
     1
  0
ENDSEC
  0
EOF
