  0
SECTION
  2
HEADER
  9
$ACADVER
  1
AC1024
  9
$ACADMAINTVER
 70
   226
  9
$DWGCODEPAGE
  3
ANSI_1252
  9
$INSBASE
 10
0.0
 20
0.0
 30
0.0
  9
$EXTMIN
 10
1.000000000000000E+20
 20
1.000000000000000E+20
 30
1.000000000000000E+20
  9
$EXTMAX
 10
-1.000000000000000E+20
 20
-1.000000000000000E+20
 30
-1.000000000000000E+20
  9
$LIMMIN
 10
0.0
 20
0.0
  9
$LIMMAX
 10
12.0
 20
9.0
  9
$ORTHOMODE
 70
     0
  9
$REGENMODE
 70
     1
  9
$FILLMODE
 70
     1
  9
$QTEXTMODE
 70
     0
  9
$MIRRTEXT
 70
     1
  9
$LTSCALE
 40
1.0
  9
$ATTMODE
 70
     1
  9
$TEXTSIZE
 40
0.2
  9
$TRACEWID
 40
0.05
  9
$TEXTSTYLE
  7
Standard
  9
$CLAYER
  8
0
  9
$CELTYPE
  6
ByLayer
  9
$CECOLOR
 62
   256
  9
$CELTSCALE
 40
1.0
  9
$DISPSILH
 70
     0
  9
$DIMSCALE
 40
1.0
  9
$DIMASZ
 40
0.18
  9
$DIMEXO
 40
0.0625
  9
$DIMDLI
 40
0.38
  9
$DIMRND
 40
0.0
  9
$DIMDLE
 40
0.0
  9
$DIMEXE
 40
0.18
  9
$DIMTP
 40
0.0
  9
$DIMTM
 40
0.0
  9
$DIMTXT
 40
0.18
  9
$DIMCEN
 40
0.09
  9
$DIMTSZ
 40
0.0
  9
$DIMTOL
 70
     0
  9
$DIMLIM
 70
     0
  9
$DIMTIH
 70
     1
  9
$DIMTOH
 70
     1
  9
$DIMSE1
 70
     0
  9
$DIMSE2
 70
     0
  9
$DIMTAD
 70
     0
  9
$DIMZIN
 70
     0
  9
$DIMBLK
  1

  9
$DIMASO
 70
     1
  9
$DIMSHO
 70
     1
  9
$DIMPOST
  1

  9
$DIMAPOST
  1

  9
$DIMALT
 70
     0
  9
$DIMALTD
 70
     2
  9
$DIMALTF
 40
25.4
  9
$DIMLFAC
 40
1.0
  9
$DIMTOFL
 70
     0
  9
$DIMTVP
 40
0.0
  9
$DIMTIX
 70
     0
  9
$DIMSOXD
 70
     0
  9
$DIMSAH
 70
     0
  9
$DIMBLK1
  1

  9
$DIMBLK2
  1

  9
$DIMSTYLE
  2
Standard
  9
$DIMCLRD
 70
     0
  9
$DIMCLRE
 70
     0
  9
$DIMCLRT
 70
     0
  9
$DIMTFAC
 40
1.0
  9
$DIMGAP
 40
0.09
  9
$DIMJUST
 70
     0
  9
$DIMSD1
 70
     0
  9
$DIMSD2
 70
     0
  9
$DIMTOLJ
 70
     1
  9
$DIMTZIN
 70
     0
  9
$DIMALTZ
 70
     0
  9
$DIMALTTZ
 70
     0
  9
$DIMUPT
 70
     0
  9
$DIMDEC
 70
     4
  9
$DIMTDEC
 70
     4
  9
$DIMALTU
 70
     2
  9
$DIMALTTD
 70
     2
  9
$DIMTXSTY
  7
Standard
  9
$DIMAUNIT
 70
     0
  9
$DIMADEC
 70
     0
  9
$DIMALTRND
 40
0.0
  9
$DIMAZIN
 70
     0
  9
$DIMDSEP
 70
    46
  9
$DIMATFIT
 70
     3
  9
$DIMFRAC
 70
     0
  9
$DIMLDRBLK
  1

  9
$DIMLUNIT
 70
     2
  9
$DIMLWD
 70
    -2
  9
$DIMLWE
 70
    -2
  9
$DIMTMOVE
 70
     0
  9
$DIMFXL
 40
1.0
  9
$DIMFXLON
 70
     0
  9
$DIMJOGANG
 40
0.7853981633974483
  9
$DIMTFILL
 70
     0
  9
$DIMTFILLCLR
 70
     0
  9
$DIMARCSYM
 70
     0
  9
$DIMLTYPE
  6

  9
$DIMLTEX1
  6

  9
$DIMLTEX2
  6

  9
$DIMTXTDIRECTION
 70
     0
  9
$LUNITS
 70
     2
  9
$LUPREC
 70
     4
  9
$SKETCHINC
 40
0.1
  9
$FILLETRAD
 40
0.5
  9
$AUNITS
 70
     0
  9
$AUPREC
 70
     0
  9
$MENU
  1
.
  9
$ELEVATION
 40
0.0
  9
$PELEVATION
 40
0.0
  9
$THICKNESS
 40
0.0
  9
$LIMCHECK
 70
     0
  9
$CHAMFERA
 40
0.5
  9
$CHAMFERB
 40
0.5
  9
$CHAMFERC
 40
1.0
  9
$CHAMFERD
 40
0.0
  9
$SKPOLY
 70
     0
  9
$TDCREATE
 40
2451380.888761574
  9
$TDUCREATE
 40
2451380.805432396
  9
$TDUPDATE
 40
2451380.924513889
  9
$TDUUPDATE
 40
2451380.841180556
  9
$TDINDWG
 40
0.0075602199
  9
$TDUSRTIMER
 40
0.0075511806
  9
$USRTIMER
 70
     1
  9
$ANGBASE
 50
0.0
  9
$ANGDIR
 70
     0
  9
$PDMODE
 70
     0
  9
$PDSIZE
 40
0.0
  9
$PLINEWID
 40
0.0
  9
$SPLFRAME
 70
     0
  9
$SPLINETYPE
 70
     6
  9
$SPLINESEGS
 70
     8
  9
$HANDSEED
  5
149
  9
$SURFTAB1
 70
     6
  9
$SURFTAB2
 70
     6
  9
$SURFTYPE
 70
     6
  9
$SURFU
 70
     6
  9
$SURFV
 70
     6
  9
$UCSBASE
  2

  9
$UCSNAME
  2

  9
$UCSORG
 10
0.0
 20
0.0
 30
0.0
  9
$UCSXDIR
 10
1.0
 20
0.0
 30
0.0
  9
$UCSYDIR
 10
0.0
 20
1.0
 30
0.0
  9
$UCSORTHOREF
  2

  9
$UCSORTHOVIEW
 70
     0
  9
$UCSORGTOP
 10
0.0
 20
0.0
 30
0.0
  9
$UCSORGBOTTOM
 10
0.0
 20
0.0
 30
0.0
  9
$UCSORGLEFT
 10
0.0
 20
0.0
 30
0.0
  9
$UCSORGRIGHT
 10
0.0
 20
0.0
 30
0.0
  9
$UCSORGFRONT
 10
0.0
 20
0.0
 30
0.0
  9
$UCSORGBACK
 10
0.0
 20
0.0
 30
0.0
  9
$PUCSBASE
  2

  9
$PUCSNAME
  2

  9
$PUCSORG
 10
0.0
 20
0.0
 30
0.0
  9
$PUCSXDIR
 10
1.0
 20
0.0
 30
0.0
  9
$PUCSYDIR
 10
0.0
 20
1.0
 30
0.0
  9
$PUCSORTHOREF
  2

  9
$PUCSORTHOVIEW
 70
     0
  9
$PUCSORGTOP
 10
0.0
 20
0.0
 30
0.0
  9
$PUCSORGBOTTOM
 10
0.0
 20
0.0
 30
0.0
  9
$PUCSORGLEFT
 10
0.0
 20
0.0
 30
0.0
  9
$PUCSORGRIGHT
 10
0.0
 20
0.0
 30
0.0
  9
$PUCSORGFRONT
 10
0.0
 20
0.0
 30
0.0
  9
$PUCSORGBACK
 10
0.0
 20
0.0
 30
0.0
  9
$USERI1
 70
     0
  9
$USERI2
 70
     0
  9
$USERI3
 70
     0
  9
$USERI4
 70
     0
  9
$USERI5
 70
     0
  9
$USERR1
 40
0.0
  9
$USERR2
 40
0.0
  9
$USERR3
 40
0.0
  9
$USERR4
 40
0.0
  9
$USERR5
 40
0.0
  9
$WORLDVIEW
 70
     1
  9
$SHADEDGE
 70
     3
  9
$SHADEDIF
 70
    70
  9
$TILEMODE
 70
     1
  9
$MAXACTVP
 70
    64
  9
$PINSBASE
 10
0.0
 20
0.0
 30
0.0
  9
$PLIMCHECK
 70
     0
  9
$PEXTMIN
 10
1.000000000000000E+20
 20
1.000000000000000E+20
 30
1.000000000000000E+20
  9
$PEXTMAX
 10
-1.000000000000000E+20
 20
-1.000000000000000E+20
 30
-1.000000000000000E+20
  9
$PLIMMIN
 10
0.0
 20
0.0
  9
$PLIMMAX
 10
12.0
 20
9.0
  9
$UNITMODE
 70
     0
  9
$VISRETAIN
 70
     1
  9
$PLINEGEN
 70
     0
  9
$PSLTSCALE
 70
     1
  9
$TREEDEPTH
 70
  3020
  9
$CMLSTYLE
  2
Standard
  9
$CMLJUST
 70
     0
  9
$CMLSCALE
 40
1.0
  9
$PROXYGRAPHICS
 70
     1
  9
$MEASUREMENT
 70
     0
  9
$CELWEIGHT
370
    -1
  9
$ENDCAPS
280
     0
  9
$JOINSTYLE
280
     0
  9
$LWDISPLAY
290
     0
  9
$INSUNITS
 70
     1
  9
$HYPERLINKBASE
  1

  9
$STYLESHEET
  1

  9
$XEDIT
290
     1
  9
$CEPSNTYPE
380
     0
  9
$PSTYLEMODE
290
     1
  9
$FINGERPRINTGUID
  2
{12F50282-3ED8-11D3-A8B7-0060B0F84BC6}
  9
$VERSIONGUID
  2
{12F50293-3ED8-11D3-A8B7-0060B0F84BC6}
  9
$EXTNAMES
290
     1
  9
$PSVPSCALE
 40
0.0
  9
$OLESTARTUP
290
     0
  9
$SORTENTS
280
   127
  9
$INDEXCTL
280
     0
  9
$HIDETEXT
280
     0
  9
$XCLIPFRAME
280
     2
  9
$HALOGAP
280
     0
  9
$OBSCOLOR
 70
   257
  9
$OBSLTYPE
280
     0
  9
$INTERSECTIONDISPLAY
280
     0
  9
$INTERSECTIONCOLOR
 70
   257
  9
$DIMASSOC
280
     1
  9
$PROJECTNAME
  1

  9
$CAMERADISPLAY
290
     0
  9
$LENSLENGTH
 40
50.0
  9
$CAMERAHEIGHT
 40
0.0
  9
$STEPSPERSEC
 40
2.0
  9
$STEPSIZE
 40
6.0
  9
$3DDWFPREC
 40
2.0
  9
$PSOLWIDTH
 40
0.25
  9
$PSOLHEIGHT
 40
4.0
  9
$LOFTANG1
 40
1.570796326794896
  9
$LOFTANG2
 40
1.570796326794896
  9
$LOFTMAG1
 40
0.0
  9
$LOFTMAG2
 40
0.0
  9
$LOFTPARAM
 70
     7
  9
$LOFTNORMALS
280
     1
  9
$LATITUDE
 40
37.795
  9
$LONGITUDE
 40
-122.394
  9
$NORTHDIRECTION
 40
0.0
  9
$TIMEZONE
 70
 -8000
  9
$LIGHTGLYPHDISPLAY
280
     1
  9
$TILEMODELIGHTSYNCH
280
     1
  9
$CMATERIAL
347
AB
  9
$SOLIDHIST
280
     0
  9
$SHOWHIST
280
     1
  9
$DWFFRAME
280
     2
  9
$DGNFRAME
280
     0
  9
$REALWORLDSCALE
290
     1
  9
$INTERFERECOLOR
 62
     1
  9
$INTERFEREOBJVS
345
CD
  9
$INTERFEREVPVS
346
CA
  9
$CSHADOW
280
     0
  9
$SHADOWPLANELOCATION
 40
0.0
  0
ENDSEC
  0
SECTION
  2
CLASSES
  0
CLASS
  1
ACDBDICTIONARYWDFLT
  2
AcDbDictionaryWithDefault
  3
ObjectDBX Classes
 90
        0
 91
        1
280
     0
281
     0
  0
CLASS
  1
ACDBPLACEHOLDER
  2
AcDbPlaceHolder
  3
ObjectDBX Classes
 90
        0
 91
        2
280
     0
281
     0
  0
CLASS
  1
LAYOUT
  2
AcDbLayout
  3
ObjectDBX Classes
 90
        0
 91
        3
280
     0
281
     0
  0
CLASS
  1
MATERIAL
  2
AcDbMaterial
  3
ObjectDBX Classes
 90
     1153
 91
        3
280
     0
281
     0
  0
CLASS
  1
VISUALSTYLE
  2
AcDbVisualStyle
  3
ObjectDBX Classes
 90
     4095
 91
       24
280
     0
281
     0
  0
CLASS
  1
TABLESTYLE
  2
AcDbTableStyle
  3
ObjectDBX Classes
 90
     4095
 91
        1
280
     0
281
     0
  0
CLASS
  1
SCALE
  2
AcDbScale
  3
ObjectDBX Classes
 90
     1153
 91
       17
280
     0
281
     0
  0
CLASS
  1
MLEADERSTYLE
  2
AcDbMLeaderStyle
  3
ACDB_MLEADERSTYLE_CLASS
 90
     4095
 91
        1
280
     0
281
     0
  0
CLASS
  1
ACDBSECTIONVIEWSTYLE
  2
AcDbSectionViewStyle
  3
ObjectDBX Classes
 90
     1025
 91
        1
280
     0
281
     0
  0
CLASS
  1
ACDBDETAILVIEWSTYLE
  2
AcDbDetailViewStyle
  3
ObjectDBX Classes
 90
     1025
 91
        1
280
     0
281
     0
  0
CLASS
  1
MESH
  2
AcDbSubDMesh
  3
ObjectDBX Classes
 90
        0
 91
        2
280
     0
281
     1
  0
CLASS
  1
DICTIONARYVAR
  2
AcDbDictionaryVar
  3
ObjectDBX Classes
 90
        0
 91
        9
280
     0
281
     0
  0
CLASS
  1
CELLSTYLEMAP
  2
AcDbCellStyleMap
  3
ObjectDBX Classes
 90
     1152
 91
        1
280
     0
281
     0
  0
ENDSEC
  0
SECTION
  2
TABLES
  0
TABLE
  2
VPORT
  5
8
330
0
100
AcDbSymbolTable
 70
     1
  0
VPORT
  5
A8
330
8
100
AcDbSymbolTableRecord
100
AcDbViewportTableRecord
  2
*Active
 70
     0
 10
0.0
 20
0.0
 11
1.0
 21
1.0
 12
12.8285961151123
 22
206.2833251953125
 13
0.0
 23
0.0
 14
0.5
 24
0.5
 15
0.5
 25
0.5
 16
-1.0
 26
-1.0
 36
1.0
 17
0.0
 27
0.0
 37
0.0
 40
567.857484407381
 41
0.2069755440327972
 42
50.0
 43
0.0
 44
0.0
 50
0.0
 51
0.0
 71
     0
 72
   100
 73
     1
 74
     3
 75
     0
 76
     0
 77
     0
 78
     0
281
     0
 65
     1
110
0.0
120
0.0
130
0.0
111
1.0
121
0.0
131
0.0
112
0.0
122
1.0
132
0.0
 79
     0
146
0.0
348
C9
 60
     3
 61
     5
292
     1
282
     1
141
0.0
142
0.0
 63
   250
421
  3355443
  0
ENDTAB
  0
TABLE
  2
LTYPE
  5
5
330
0
100
AcDbSymbolTable
 70
     1
  0
LTYPE
  5
14
330
5
100
AcDbSymbolTableRecord
100
AcDbLinetypeTableRecord
  2
ByBlock
 70
     0
  3

 72
    65
 73
     0
 40
0.0
  0
LTYPE
  5
15
330
5
100
AcDbSymbolTableRecord
100
AcDbLinetypeTableRecord
  2
ByLayer
 70
     0
  3

 72
    65
 73
     0
 40
0.0
  0
LTYPE
  5
16
330
5
100
AcDbSymbolTableRecord
100
AcDbLinetypeTableRecord
  2
Continuous
 70
     0
  3
Solid line
 72
    65
 73
     0
 40
0.0
  0
ENDTAB
  0
TABLE
  2
LAYER
  5
2
330
0
100
AcDbSymbolTable
 70
     3
  0
LAYER
  5
10
330
2
100
AcDbSymbolTableRecord
100
AcDbLayerTableRecord
  2
0
 70
     0
 62
   153
420
  7507413
  6
Continuous
370
    -3
390
F
347
BB
  0
LAYER
  5
2B
330
2
100
AcDbSymbolTableRecord
100
AcDbLayerTableRecord
  2
ASHADE
 70
     4
 62
     7
  6
Continuous
370
    -3
390
2D
347
BB
  0
LAYER
  5
100
330
2
100
AcDbSymbolTableRecord
100
AcDbLayerTableRecord
  2
WandStützen_01
 70
     0
 62
     7
420
 16777215
  6
Continuous
370
    -3
390
F
347
BB
  0
ENDTAB
  0
TABLE
  2
STYLE
  5
3
330
0
100
AcDbSymbolTable
 70
     2
  0
STYLE
  5
11
330
3
100
AcDbSymbolTableRecord
100
AcDbTextStyleTableRecord
  2
Standard
 70
     0
 40
0.0
 41
1.0
 50
0.0
 71
     0
 42
0.2
  3
txt
  4

  0
STYLE
  5
2C
330
3
100
AcDbSymbolTableRecord
100
AcDbTextStyleTableRecord
  2
ASHADE
 70
     0
 40
0.2
 41
1.0
 50
0.0
 71
     0
 42
0.2
  3
simplex
  4

  0
ENDTAB
  0
TABLE
  2
VIEW
  5
6
330
0
100
AcDbSymbolTable
 70
     0
  0
ENDTAB
  0
TABLE
  2
UCS
  5
7
330
0
100
AcDbSymbolTable
 70
     0
  0
ENDTAB
  0
TABLE
  2
APPID
  5
9
330
0
100
AcDbSymbolTable
 70
     6
  0
APPID
  5
12
330
9
100
AcDbSymbolTableRecord
100
AcDbRegAppTableRecord
  2
ACAD
 70
     0
  0
APPID
  5
8F
330
9
100
AcDbSymbolTableRecord
100
AcDbRegAppTableRecord
  2
AVE_RENDER
 70
     0
  0
APPID
  5
90
330
9
100
AcDbSymbolTableRecord
100
AcDbRegAppTableRecord
  2
AVE_ENTITY_MATERIAL
 70
     0
  0
APPID
  5
9C
330
9
100
AcDbSymbolTableRecord
100
AcDbRegAppTableRecord
  2
AVE_FINISH
 70
     0
  0
APPID
  5
9D
330
9
100
AcDbSymbolTableRecord
100
AcDbRegAppTableRecord
  2
AVE_MATERIAL
 70
     0
  0
APPID
  5
9E
330
9
100
AcDbSymbolTableRecord
100
AcDbRegAppTableRecord
  2
AVE_GLOBAL
 70
     0
  0
ENDTAB
  0
TABLE
  2
DIMSTYLE
  5
A
330
0
100
AcDbSymbolTable
 70
     1
100
AcDbDimStyleTable
 71
     0
  0
DIMSTYLE
105
27
330
A
100
AcDbSymbolTableRecord
100
AcDbDimStyleTableRecord
  2
Standard
 70
     0
340
11
  0
ENDTAB
  0
TABLE
  2
BLOCK_RECORD
  5
1
330
0
100
AcDbSymbolTable
 70
     8
  0
BLOCK_RECORD
  5
1F
330
1
100
AcDbSymbolTableRecord
100
AcDbBlockTableRecord
  2
*Model_Space
340
22
 70
     0
280
     1
281
     0
  0
BLOCK_RECORD
  5
1B
330
1
100
AcDbSymbolTableRecord
100
AcDbBlockTableRecord
  2
*Paper_Space
340
1E
 70
     0
280
     1
281
     0
  0
BLOCK_RECORD
  5
23
330
1
100
AcDbSymbolTableRecord
100
AcDbBlockTableRecord
  2
*Paper_Space0
340
26
 70
     0
280
     1
281
     0
  0
BLOCK_RECORD
  5
2E
330
1
100
AcDbSymbolTableRecord
100
AcDbBlockTableRecord
  2
direct
340
0
 70
     0
280
     1
281
     0
  0
BLOCK_RECORD
  5
42
330
1
100
AcDbSymbolTableRecord
100
AcDbBlockTableRecord
  2
overhead
340
0
 70
     0
280
     1
281
     0
  0
BLOCK_RECORD
  5
5F
330
1
100
AcDbSymbolTableRecord
100
AcDbBlockTableRecord
  2
sh_spot
340
0
 70
     0
280
     1
281
     0
  0
BLOCK_RECORD
  5
91
330
1
100
AcDbSymbolTableRecord
100
AcDbBlockTableRecord
  2
AVE_RENDER
340
0
102
{BLKREFS
331
94
331
95
331
96
331
97
331
98
331
99
331
9A
331
9B
102
}
 70
     0
280
     1
281
     0
  0
BLOCK_RECORD
  5
9F
330
1
100
AcDbSymbolTableRecord
100
AcDbBlockTableRecord
  2
AVE_GLOBAL
340
0
102
{BLKREFS
331
A2
102
}
 70
     0
280
     1
281
     0
  0
BLOCK_RECORD
  5
F9
330
1
100
AcDbSymbolTableRecord
100
AcDbBlockTableRecord
  2
Block_WP_80-9_$_cbdd8691-28ab-42
340
0
102
{BLKREFS
331
102
331
104
102
}
 70
     0
280
     1
281
     0
  0
BLOCK_RECORD
  5
FC
330
1
100
AcDbSymbolTableRecord
100
AcDbBlockTableRecord
  2
Layer_0
340
0
102
{BLKREFS
331
103
331
105
102
}
 70
     0
280
     1
281
     0
  0
ENDTAB
  0
ENDSEC
  0
SECTION
  2
BLOCKS
  0
BLOCK
  5
20
330
1F
100
AcDbEntity
  8
0
100
AcDbBlockBegin
  2
*Model_Space
 70
     0
 10
0.0
 20
0.0
 30
0.0
  3
*Model_Space
  1

  0
ENDBLK
  5
21
330
1F
100
AcDbEntity
  8
0
100
AcDbBlockEnd
  0
BLOCK
  5
1C
330
1B
100
AcDbEntity
 67
     1
  8
0
100
AcDbBlockBegin
  2
*Paper_Space
 70
     0
 10
0.0
 20
0.0
 30
0.0
  3
*Paper_Space
  1

  0
ENDBLK
  5
1D
330
1B
100
AcDbEntity
 67
     1
  8
0
100
AcDbBlockEnd
  0
BLOCK
  5
24
330
23
100
AcDbEntity
 67
     1
  8
0
100
AcDbBlockBegin
  2
*Paper_Space0
 70
     0
 10
0.0
 20
0.0
 30
0.0
  3
*Paper_Space0
  1

  0
ENDBLK
  5
25
330
23
100
AcDbEntity
 67
     1
  8
0
100
AcDbBlockEnd
  0
BLOCK
  5
40
330
2E
100
AcDbEntity
  8
0
100
AcDbBlockBegin
  2
direct
 70
     2
 10
0.0
 20
0.0
 30
0.0
  3
direct
  1

  0
ATTDEF
  5
2F
330
2E
100
AcDbEntity
  8
ASHADE
  6
Continuous
 62
     1
100
AcDbText
 10
0.0
 20
-0.1
 30
0.0
 40
0.2
  1

  7
ASHADE
 72
     1
 11
0.0
 21
-0.1
 31
0.0
100
AcDbAttributeDefinition
280
     0
  3
Light Name
  2
SNAME
 70
     0
280
     0
  0
ARC
  5
30
330
2E
100
AcDbEntity
  8
ASHADE
  6
Continuous
 62
     7
100
AcDbCircle
 10
0.0
 20
0.0
 30
0.0
 40
0.3
100
AcDbArc
 50
205.6792886194569
 51
334.3207113805431
  0
ARC
  5
31
330
2E
100
AcDbEntity
  8
ASHADE
  6
Continuous
 62
     7
100
AcDbCircle
 10
0.0
 20
0.0
 30
0.0
 40
0.3
100
AcDbArc
 50
25.67928861945685
 51
154.3207113805431
  0
LINE
  5
32
330
2E
100
AcDbEntity
  8
ASHADE
  6
Continuous
 62
     7
100
AcDbLine
 10
-0.21
 20
0.2142428528562855
 30
0.0
 11
-0.21
 21
0.5
 31
0.0
  0
LINE
  5
33
330
2E
100
AcDbEntity
  8
ASHADE
  6
Continuous
 62
     7
100
AcDbLine
 10
-0.11
 20
0.2791057147390572
 30
0.0
 11
-0.11
 21
0.5
 31
0.0
  0
LINE
  5
34
330
2E
100
AcDbEntity
  8
ASHADE
  6
Continuous
 62
     7
100
AcDbLine
 10
0.21
 20
0.2142428528562855
 30
0.0
 11
0.21
 21
0.5
 31
0.0
  0
ATTDEF
  5
35
330
2E
100
AcDbEntity
  8
ASHADE
  6
Continuous
 62
     7
100
AcDbText
 10
0.0
 20
0.25
 30
0.0
 40
0.01
  1

100
AcDbAttributeDefinition
280
     0
  3
Look-at Y
  2
LAY
 70
     1
280
     0
  0
ATTDEF
  5
36
330
2E
100
AcDbEntity
  8
ASHADE
  6
Continuous
 62
     7
100
AcDbText
 10
0.0
 20
0.22
 30
0.0
 40
0.01
  1
1
100
AcDbAttributeDefinition
280
     0
  3
Light Intensity
  2
INTENSITY
 70
     1
280
     0
  0
ATTDEF
  5
37
330
2E
100
AcDbEntity
  8
ASHADE
  6
Continuous
 62
     7
100
AcDbText
 10
0.0
 20
0.16
 30
0.0
 40
0.01
  1
-1
100
AcDbAttributeDefinition
280
     0
  3
*not used*
  2
BEAMD
 70
     1
280
     0
  0
ATTDEF
  5
38
330
2E
100
AcDbEntity
  8
ASHADE
  6
Continuous
 62
     7
100
AcDbText
 10
0.0
 20
0.175
 30
0.0
 40
0.01
  1
-1
100
AcDbAttributeDefinition
280
     0
  3
*not used*
  2
CONED
 70
     1
280
     0
  0
ATTDEF
  5
39
330
2E
100
AcDbEntity
  8
ASHADE
  6
Continuous
 62
     7
100
AcDbText
 10
0.0
 20
0.19
 30
0.0
 40
0.01
  1
0
100
AcDbAttributeDefinition
280
     0
  3
Depth Map Size
  2
CONEA
 70
     1
280
     0
  0
ATTDEF
  5
3A
330
2E
100
AcDbEntity
  8
ASHADE
  6
Continuous
 62
     7
100
AcDbText
 10
0.0
 20
0.2050000000000001
 30
0.0
 40
0.01
  1
1,1,1
100
AcDbAttributeDefinition
280
     0
  3
Light Color (RGB)
  2
COLOR
 70
     1
280
     0
  0
ATTDEF
  5
3B
330
2E
100
AcDbEntity
  8
ASHADE
  6
Continuous
 62
     7
100
AcDbText
 10
0.0
 20
0.235
 30
0.0
 40
0.01
  1

100
AcDbAttributeDefinition
280
     0
  3
Look-at Z
  2
LAZ
 70
     1
280
     0
  0
LINE
  5
3C
330
2E
100
AcDbEntity
  8
ASHADE
  6
Continuous
 62
     7
100
AcDbLine
 10
0.0
 20
0.3
 30
0.0
 11
0.0
 21
0.5
 31
0.0
  0
LINE
  5
3D
330
2E
100
AcDbEntity
  8
ASHADE
  6
Continuous
 62
     7
100
AcDbLine
 10
0.11
 20
0.2791057147390572
 30
0.0
 11
0.11
 21
0.5
 31
0.0
  0
ATTDEF
  5
3E
330
2E
100
AcDbEntity
  8
ASHADE
  6
Continuous
 62
     7
100
AcDbText
 10
0.0
 20
0.265
 30
0.0
 40
0.01
  1

100
AcDbAttributeDefinition
280
     0
  3
Look-at X
  2
LAX
 70
     1
280
     0
  0
ATTDEF
  5
3F
330
2E
100
AcDbEntity
  8
ASHADE
  6
Continuous
 62
     7
100
AcDbText
 10
0.0
 20
0.28
 30
0.0
 40
0.01
  1

100
AcDbAttributeDefinition
280
     0
  3

  2
GNAME
 70
     1
280
     0
  0
ENDBLK
  5
41
330
2E
100
AcDbEntity
  8
0
100
AcDbBlockEnd
  0
BLOCK
  5
5D
330
42
100
AcDbEntity
  8
0
100
AcDbBlockBegin
  2
overhead
 70
     2
 10
0.0
 20
0.0
 30
0.0
  3
overhead
  1

  0
ATTDEF
  5
43
330
42
100
AcDbEntity
  8
ASHADE
  6
Continuous
 62
     1
100
AcDbText
 10
0.0
 20
-0.1
 30
0.0
 40
0.2
  1

  7
ASHADE
 72
     1
 11
0.0
 21
-0.1
 31
0.0
100
AcDbAttributeDefinition
280
     0
  3
Light Name
  2
SNAME
 70
     0
280
     0
  0
ARC
  5
44
330
42
100
AcDbEntity
  8
ASHADE
  6
Continuous
 62
     7
100
AcDbCircle
 10
0.0
 20
0.0
 30
0.0
 40
0.3
100
AcDbArc
 50
205.6792886194569
 51
334.3207113805431
  0
LINE
  5
45
330
42
100
AcDbEntity
  8
ASHADE
  6
Continuous
 62
     7
100
AcDbLine
 10
-0.2041413561583015
 20
-0.2198324514393848
 30
0.0
 11
-0.2721884748777353
 21
-0.2931099352525131
 31
0.0
  0
LINE
  5
46
330
42
100
AcDbEntity
  8
ASHADE
  6
Continuous
 62
     7
100
AcDbLine
 10
-0.1096591641591904
 20
-0.2792398032442862
 30
0.0
 11
-0.1279356915190555
 21
-0.3257797704516673
 31
0.0
  0
LINE
  5
47
330
42
100
AcDbEntity
  8
ASHADE
  6
Continuous
 62
     7
100
AcDbLine
 10
0.0
 20
-0.2999999999999999
 30
0.0
 11
0.0
 21
-0.4
 31
0.0
  0
LINE
  5
48
330
42
100
AcDbEntity
  8
ASHADE
  6
Continuous
 62
     7
100
AcDbLine
 10
0.1096591641591904
 20
-0.2792398032442862
 30
0.0
 11
0.1279356915190555
 21
-0.3257797704516673
 31
0.0
  0
LINE
  5
49
330
42
100
AcDbEntity
  8
ASHADE
  6
Continuous
 62
     7
100
AcDbLine
 10
0.2041413561583015
 20
-0.2198324514393848
 30
0.0
 11
0.2721884748777353
 21
-0.2931099352525131
 31
0.0
  0
ARC
  5
4A
330
42
100
AcDbEntity
  8
ASHADE
  6
Continuous
 62
     7
100
AcDbCircle
 10
0.0
 20
0.0
 30
0.0
 40
0.3
100
AcDbArc
 50
25.67928861945685
 51
154.3207113805431
  0
LINE
  5
4B
330
42
100
AcDbEntity
  8
ASHADE
  6
Continuous
 62
     7
100
AcDbLine
 10
-0.2703701166919155
 20
0.13
 30
0.0
 11
-0.3154318028072347
 21
0.1516666666666666
 31
0.0
  0
LINE
  5
4C
330
42
100
AcDbEntity
  8
ASHADE
  6
Continuous
 62
     7
100
AcDbLine
 10
-0.2703701166919155
 20
-0.13
 30
0.0
 11
-0.3154318028072347
 21
-0.1516666666666666
 31
0.0
  0
LINE
  5
4D
330
42
100
AcDbEntity
  8
ASHADE
  6
Continuous
 62
     7
100
AcDbLine
 10
-0.2041413561583015
 20
0.2198324514393849
 30
0.0
 11
-0.2721884748777353
 21
0.2931099352525131
 31
0.0
  0
LINE
  5
4E
330
42
100
AcDbEntity
  8
ASHADE
  6
Continuous
 62
     7
100
AcDbLine
 10
-0.1096591641591904
 20
0.2792398032442862
 30
0.0
 11
-0.1279356915190555
 21
0.3257797704516674
 31
0.0
  0
LINE
  5
4F
330
42
100
AcDbEntity
  8
ASHADE
  6
Continuous
 62
     7
100
AcDbLine
 10
0.2703701166919155
 20
-0.13
 30
0.0
 11
0.3154318028072347
 21
-0.1516666666666666
 31
0.0
  0
LINE
  5
50
330
42
100
AcDbEntity
  8
ASHADE
  6
Continuous
 62
     7
100
AcDbLine
 10
0.2703701166919155
 20
0.13
 30
0.0
 11
0.3154318028072347
 21
0.1516666666666666
 31
0.0
  0
LINE
  5
51
330
42
100
AcDbEntity
  8
ASHADE
  6
Continuous
 62
     7
100
AcDbLine
 10
0.0
 20
0.3
 30
0.0
 11
0.0
 21
0.4
 31
0.0
  0
ATTDEF
  5
52
330
42
100
AcDbEntity
  8
ASHADE
  6
Continuous
 62
     7
100
AcDbText
 10
0.0
 20
0.22
 30
0.0
 40
0.01
  1
1
100
AcDbAttributeDefinition
280
     0
  3
Light Intensity
  2
INTENSITY
 70
     1
280
     0
  0
ATTDEF
  5
53
330
42
100
AcDbEntity
  8
ASHADE
  6
Continuous
 62
     7
100
AcDbText
 10
0.0
 20
0.16
 30
0.0
 40
0.01
  1
-1
100
AcDbAttributeDefinition
280
     0
  3
*not used*
  2
BEAMD
 70
     1
280
     0
  0
ATTDEF
  5
54
330
42
100
AcDbEntity
  8
ASHADE
  6
Continuous
 62
     7
100
AcDbText
 10
0.0
 20
0.175
 30
0.0
 40
0.01
  1
-1
100
AcDbAttributeDefinition
280
     0
  3
*not used*
  2
CONED
 70
     1
280
     0
  0
ATTDEF
  5
55
330
42
100
AcDbEntity
  8
ASHADE
  6
Continuous
 62
     7
100
AcDbText
 10
0.0
 20
0.19
 30
0.0
 40
0.01
  1
0
100
AcDbAttributeDefinition
280
     0
  3
Depth Map Size
  2
CONEA
 70
     1
280
     0
  0
ATTDEF
  5
56
330
42
100
AcDbEntity
  8
ASHADE
  6
Continuous
 62
     7
100
AcDbText
 10
0.0
 20
0.2050000000000001
 30
0.0
 40
0.01
  1
1,1,1
100
AcDbAttributeDefinition
280
     0
  3
Light Color (RGB)
  2
COLOR
 70
     1
280
     0
  0
ATTDEF
  5
57
330
42
100
AcDbEntity
  8
ASHADE
  6
Continuous
 62
     7
100
AcDbText
 10
0.0
 20
0.235
 30
0.0
 40
0.01
  1

100
AcDbAttributeDefinition
280
     0
  3
Look-at Z
  2
LAZ
 70
     1
280
     0
  0
ATTDEF
  5
58
330
42
100
AcDbEntity
  8
ASHADE
  6
Continuous
 62
     7
100
AcDbText
 10
0.0
 20
0.25
 30
0.0
 40
0.01
  1

100
AcDbAttributeDefinition
280
     0
  3
Look-at Y
  2
LAY
 70
     1
280
     0
  0
ATTDEF
  5
59
330
42
100
AcDbEntity
  8
ASHADE
  6
Continuous
 62
     7
100
AcDbText
 10
0.0
 20
0.265
 30
0.0
 40
0.01
  1

100
AcDbAttributeDefinition
280
     0
  3
Look-at X
  2
LAX
 70
     1
280
     0
  0
ATTDEF
  5
5A
330
42
100
AcDbEntity
  8
ASHADE
  6
Continuous
 62
     7
100
AcDbText
 10
0.0
 20
0.28
 30
0.0
 40
0.01
  1

100
AcDbAttributeDefinition
280
     0
  3

  2
GNAME
 70
     1
280
     0
  0
LINE
  5
5B
330
42
100
AcDbEntity
  8
ASHADE
  6
Continuous
 62
     7
100
AcDbLine
 10
0.1096591641591904
 20
0.2792398032442862
 30
0.0
 11
0.1279356915190555
 21
0.3257797704516674
 31
0.0
  0
LINE
  5
5C
330
42
100
AcDbEntity
  8
ASHADE
  6
Continuous
 62
     7
100
AcDbLine
 10
0.2041413561583015
 20
0.2198324514393849
 30
0.0
 11
0.2721884748777353
 21
0.2931099352525131
 31
0.0
  0
ENDBLK
  5
5E
330
42
100
AcDbEntity
  8
0
100
AcDbBlockEnd
  0
BLOCK
  5
85
330
5F
100
AcDbEntity
  8
0
100
AcDbBlockBegin
  2
sh_spot
 70
     2
 10
0.0
 20
0.0
 30
0.0
  3
sh_spot
  1

  0
LINE
  5
60
330
5F
100
AcDbEntity
  8
ASHADE
  6
Continuous
 62
     7
100
AcDbLine
 10
0.25
 20
0.26
 30
0.0
 11
-0.25
 21
0.26
 31
0.0
  0
LINE
  5
61
330
5F
100
AcDbEntity
  8
ASHADE
  6
Continuous
 62
     7
100
AcDbLine
 10
-0.25
 20
-0.3399999999999999
 30
0.0
 11
0.25
 21
-0.3399999999999999
 31
0.0
  0
ATTDEF
  5
62
330
5F
100
AcDbEntity
  8
ASHADE
  6
Continuous
 62
     1
100
AcDbText
 10
0.0
 20
-0.1
 30
0.0
 40
0.2
  1

  7
ASHADE
 72
     1
 11
0.0
 21
-0.1
 31
0.0
100
AcDbAttributeDefinition
280
     0
  3
Light Name
  2
SNAME
 70
     0
280
     0
  0
LINE
  5
63
330
5F
100
AcDbEntity
  8
ASHADE
  6
Continuous
 62
     7
100
AcDbLine
 10
-0.25
 20
-0.13
 30
0.0
 11
-0.25
 21
-0.3399999999999999
 31
0.0
  0
LINE
  5
64
330
5F
100
AcDbEntity
  8
ASHADE
  6
Continuous
 62
     7
100
AcDbLine
 10
-0.25
 20
-0.18
 30
0.0
 11
-0.29
 21
-0.18
 31
0.0
  0
LINE
  5
65
330
5F
100
AcDbEntity
  8
ASHADE
  6
Continuous
 62
     7
100
AcDbLine
 10
-0.29
 20
-0.22
 30
0.0
 11
-0.25
 21
-0.22
 31
0.0
  0
LINE
  5
66
330
5F
100
AcDbEntity
  8
ASHADE
  6
Continuous
 62
     7
100
AcDbLine
 10
-0.29
 20
-0.18
 30
0.0
 11
-0.29
 21
-0.22
 31
0.0
  0
LINE
  5
67
330
5F
100
AcDbEntity
  8
ASHADE
  6
Continuous
 62
     7
100
AcDbLine
 10
-0.1045454545454545
 20
0.26
 30
0.0
 11
-0.15
 21
0.46
 31
0.0
  0
LINE
  5
68
330
5F
100
AcDbEntity
  8
ASHADE
  6
Continuous
 62
     7
100
AcDbLine
 10
-0.21
 20
0.26
 30
0.0
 11
-0.301304347826087
 21
0.46
 31
0.0
  0
LINE
  5
69
330
5F
100
AcDbEntity
  8
ASHADE
  6
Continuous
 62
     7
100
AcDbLine
 10
-0.25
 20
0.26
 30
0.0
 11
-0.25
 21
0.13
 31
0.0
  0
LINE
  5
6A
330
5F
100
AcDbEntity
  8
ASHADE
  6
Continuous
 62
     7
100
AcDbLine
 10
-0.25
 20
0.22
 30
0.0
 11
-0.29
 21
0.22
 31
0.0
  0
LINE
  5
6B
330
5F
100
AcDbEntity
  8
ASHADE
  6
Continuous
 62
     7
100
AcDbLine
 10
-0.29
 20
0.1799999999999999
 30
0.0
 11
-0.25
 21
0.1799999999999999
 31
0.0
  0
LINE
  5
6C
330
5F
100
AcDbEntity
  8
ASHADE
  6
Continuous
 62
     7
100
AcDbLine
 10
-0.29
 20
0.22
 30
0.0
 11
-0.29
 21
0.1799999999999999
 31
0.0
  0
ATTDEF
  5
6D
330
5F
100
AcDbEntity
  8
ASHADE
  6
Continuous
 62
     7
100
AcDbText
 10
0.0
 20
-0.24
 30
0.0
 40
0.01
  1
0
100
AcDbAttributeDefinition
280
     0
  3
Depth Map Size
  2
ZSIZE
 70
     1
280
     0
  0
ATTDEF
  5
6E
330
5F
100
AcDbEntity
  8
ASHADE
  6
Continuous
 62
     7
100
AcDbText
 10
0.0
 20
-0.3300000000000001
 30
0.0
 40
0.01
  1
0,0,0
100
AcDbAttributeDefinition
280
     0
  3
Look-from XYZ
  2
LFXYZ
 70
     1
280
     0
  0
ATTDEF
  5
6F
330
5F
100
AcDbEntity
  8
ASHADE
  6
Continuous
 62
     7
100
AcDbText
 10
0.0
 20
-0.315
 30
0.0
 40
0.01
  1
0.0
100
AcDbAttributeDefinition
280
     0
  3
Beam Distribution
  2
BEAMDI
 70
     1
280
     0
  0
ATTDEF
  5
70
330
5F
100
AcDbEntity
  8
ASHADE
  6
Continuous
 62
     7
100
AcDbText
 10
0.0
 20
-0.3
 30
0.0
 40
0.01
  1
0.0
100
AcDbAttributeDefinition
280
     0
  3
Cone Delta
  2
CONEDE
 70
     1
280
     0
  0
ATTDEF
  5
71
330
5F
100
AcDbEntity
  8
ASHADE
  6
Continuous
 62
     7
100
AcDbText
 10
0.0
 20
-0.2850000000000001
 30
0.0
 40
0.01
  1
10.0
100
AcDbAttributeDefinition
280
     0
  3
Cone Angle
  2
CONEAN
 70
     1
280
     0
  0
ATTDEF
  5
72
330
5F
100
AcDbEntity
  8
ASHADE
  6
Continuous
 62
     7
100
AcDbText
 10
0.0
 20
-0.27
 30
0.0
 40
0.01
  1
-1
100
AcDbAttributeDefinition
280
     0
  3
*not used*
  2
BIASMAX
 70
     1
280
     0
  0
ATTDEF
  5
73
330
5F
100
AcDbEntity
  8
ASHADE
  6
Continuous
 62
     7
100
AcDbText
 10
0.0
 20
-0.255
 30
0.0
 40
0.01
  1
-1
100
AcDbAttributeDefinition
280
     0
  3
*not used*
  2
BIASMIN
 70
     1
280
     0
  0
ATTDEF
  5
74
330
5F
100
AcDbEntity
  8
ASHADE
  6
Continuous
 62
     7
100
AcDbText
 10
0.0
 20
-0.225
 30
0.0
 40
0.01
  1
1,1,1
100
AcDbAttributeDefinition
280
     0
  3
Light Color (RGB)
  2
COLOR
 70
     1
280
     0
  0
ATTDEF
  5
75
330
5F
100
AcDbEntity
  8
ASHADE
  6
Continuous
 62
     7
100
AcDbText
 10
0.0
 20
-0.21
 30
0.0
 40
0.01
  1
1
100
AcDbAttributeDefinition
280
     0
  3
Light Intensity
  2
INTENSITY
 70
     1
280
     0
  0
ATTDEF
  5
76
330
5F
100
AcDbEntity
  8
ASHADE
  6
Continuous
 62
     7
100
AcDbText
 10
0.0
 20
-0.15
 30
0.0
 40
0.01
  1

100
AcDbAttributeDefinition
280
     0
  3

  2
GNAME
 70
     1
280
     0
  0
ATTDEF
  5
77
330
5F
100
AcDbEntity
  8
ASHADE
  6
Continuous
 62
     7
100
AcDbText
 10
0.0
 20
-0.195
 30
0.0
 40
0.01
  1

100
AcDbAttributeDefinition
280
     0
  3
Look-at Z
  2
LAZ
 70
     1
280
     0
  0
ATTDEF
  5
78
330
5F
100
AcDbEntity
  8
ASHADE
  6
Continuous
 62
     7
100
AcDbText
 10
0.0
 20
-0.18
 30
0.0
 40
0.01
  1

100
AcDbAttributeDefinition
280
     0
  3
Look-at Y
  2
LAY
 70
     1
280
     0
  0
ATTDEF
  5
79
330
5F
100
AcDbEntity
  8
ASHADE
  6
Continuous
 62
     7
100
AcDbText
 10
0.0
 20
-0.165
 30
0.0
 40
0.01
  1

100
AcDbAttributeDefinition
280
     0
  3
Look-at X
  2
LAX
 70
     1
280
     0
  0
LINE
  5
7A
330
5F
100
AcDbEntity
  8
ASHADE
  6
Continuous
 62
     7
100
AcDbLine
 10
0.25
 20
-0.3399999999999999
 30
0.0
 11
0.25
 21
-0.13
 31
0.0
  0
LINE
  5
7B
330
5F
100
AcDbEntity
  8
ASHADE
  6
Continuous
 62
     7
100
AcDbLine
 10
0.25
 20
-0.18
 30
0.0
 11
0.29
 21
-0.18
 31
0.0
  0
LINE
  5
7C
330
5F
100
AcDbEntity
  8
ASHADE
  6
Continuous
 62
     7
100
AcDbLine
 10
0.29
 20
-0.22
 30
0.0
 11
0.25
 21
-0.22
 31
0.0
  0
LINE
  5
7D
330
5F
100
AcDbEntity
  8
ASHADE
  6
Continuous
 62
     7
100
AcDbLine
 10
0.29
 20
-0.18
 30
0.0
 11
0.29
 21
-0.22
 31
0.0
  0
LINE
  5
7E
330
5F
100
AcDbEntity
  8
ASHADE
  6
Continuous
 62
     7
100
AcDbLine
 10
0.21
 20
0.26
 30
0.0
 11
0.301304347826087
 21
0.46
 31
0.0
  0
LINE
  5
7F
330
5F
100
AcDbEntity
  8
ASHADE
  6
Continuous
 62
     7
100
AcDbLine
 10
0.1045454545454545
 20
0.26
 30
0.0
 11
0.15
 21
0.46
 31
0.0
  0
LINE
  5
80
330
5F
100
AcDbEntity
  8
ASHADE
  6
Continuous
 62
     7
100
AcDbLine
 10
0.0
 20
0.26
 30
0.0
 11
0.0
 21
0.46
 31
0.0
  0
LINE
  5
81
330
5F
100
AcDbEntity
  8
ASHADE
  6
Continuous
 62
     7
100
AcDbLine
 10
0.25
 20
0.13
 30
0.0
 11
0.25
 21
0.26
 31
0.0
  0
LINE
  5
82
330
5F
100
AcDbEntity
  8
ASHADE
  6
Continuous
 62
     7
100
AcDbLine
 10
0.25
 20
0.22
 30
0.0
 11
0.29
 21
0.22
 31
0.0
  0
LINE
  5
83
330
5F
100
AcDbEntity
  8
ASHADE
  6
Continuous
 62
     7
100
AcDbLine
 10
0.29
 20
0.1799999999999999
 30
0.0
 11
0.25
 21
0.1799999999999999
 31
0.0
  0
LINE
  5
84
330
5F
100
AcDbEntity
  8
ASHADE
  6
Continuous
 62
     7
100
AcDbLine
 10
0.29
 20
0.22
 30
0.0
 11
0.29
 21
0.1799999999999999
 31
0.0
  0
ENDBLK
  5
86
330
5F
100
AcDbEntity
  8
0
100
AcDbBlockEnd
  0
BLOCK
  5
92
330
91
100
AcDbEntity
  8
ASHADE
100
AcDbBlockBegin
  2
AVE_RENDER
 70
     0
 10
0.0
 20
0.0
 30
0.0
  3
AVE_RENDER
  1
AVE_RENDER
  0
ENDBLK
  5
93
330
91
100
AcDbEntity
  8
0
100
AcDbBlockEnd
  0
BLOCK
  5
A0
330
9F
100
AcDbEntity
  8
ASHADE
100
AcDbBlockBegin
  2
AVE_GLOBAL
 70
     0
 10
0.0
 20
0.0
 30
0.0
  3
AVE_GLOBAL
  1
AVE_GLOBAL
  0
ENDBLK
  5
A1
330
9F
100
AcDbEntity
  8
0
100
AcDbBlockEnd
  0
BLOCK
  5
FA
330
F9
100
AcDbEntity
  8
0
100
AcDbBlockBegin
  2
Block_WP_80-9_$_cbdd8691-28ab-42
 70
     0
 10
0.0
 20
0.0
 30
0.0
  3
Block_WP_80-9_$_cbdd8691-28ab-42
  1

  0
ENDBLK
  5
FB
330
F9
100
AcDbEntity
  8
0
100
AcDbBlockEnd
  0
BLOCK
  5
FD
330
FC
100
AcDbEntity
  8
0
100
AcDbBlockBegin
  2
Layer_0
 70
     0
 10
0.0
 20
0.0
 30
0.0
  3
Layer_0
  1

  0
MESH
  5
FF
330
FC
100
AcDbEntity
  8
0
 62
     0
160
             11672
310
982D0000440100000C00000013000000020000003C0000000600000002000000000000C0DA38344000000000BB2C1AC000000000000008C0000000C0DA38344000000000BB2C1AC0000000000000F03F0C000000130000000A0000003C0000000600000002000000000000C0DA38344000000000BB2C1AC0000000000000F0
310
3F0000008028F81140000000E0084636C000000000000008C00C00000013000000120000003C0000000600000002000000000000C0DA38344000000000BB2C1AC000000000000008C00000008028F81140000000E0084636C000000000000008C00C000000130000001A0000003C0000000600000002000000000000C0DA38
310
344000000000BB2C1AC0000000000000F03F0000008028F81140000000E0084636C0000000000000F03F0C00000013000000220000003C00000006000000020000000000008028F81140000000E0084636C0000000000000F03F0000008028F81140000000E0084636C000000000000008C00C000000130000002A0000003C
310
0000000600000002000000000000C0DA38344000000000BB2C1AC0000000000000F03F00000040063F304000000000120A25C0000000000000F03F0C00000013000000320000003C00000006000000020000000000008028F81140000000E0084636C0000000000000F03F00000040063F304000000000120A25C000000000
310
0000F03F0C000000130000003A0000003C000000060000000200000000000040063F304000000000120A25C0000000000000F03F000000001184144000000040880236C0000000000000F03F0C00000013000000420000003C00000006000000020000000000008028F81140000000E0084636C0000000000000F03F000000
310
001184144000000040880236C0000000000000F03F0C000000130000004A0000003C000000060000000200000000000040063F304000000000120A25C0000000000000F03F00000080F8A225400000000080DF41C0000000000000F03F0C00000013000000520000003C000000060000000200000000000080F8A225400000
310
000080DF41C0000000000000F03F000000001184144000000040880236C0000000000000F03F0C000000130000005A0000003C000000060000000200000000000040063F304000000000120A25C0000000000000F03F0000004044253A4000000020386B34C0000000000000F03F0C00000013000000620000003C00000006
310
000000020000000000004044253A4000000020386B34C0000000000000F03F00000080F8A225400000000080DF41C0000000000000F03F0C000000130000006A0000003C00000006000000020000000000000062CB0BC000000000C09239C0000000000000F03F00000080137110C0000000C032D639C0000000000000F03F
310
0C00000013000000720000003C000000060000000200000000000080137110C0000000C032D639C0000000000000F03F00000040841834C000000000C09239C0000000000000F03F0C000000130000007A0000003C00000006000000020000000000000062CB0BC000000000C09239C0000000000000F03F00000040841834
310
C000000000C09239C0000000000000F03F0C00000013000000820000003C000000060000000200000000000080137110C0000000C032D639C0000000000000F03F00000040841834C00000000060C943C0000000000000F03F0C000000130000008A0000003C000000060000000200000000000040841834C00000000060C9
310
43C0000000000000F03F00000040841834C000000000C09239C0000000000000F03F0C00000013000000920000003C000000060000000200000000000080137110C0000000C032D639C0000000000000F03F00000000C043F93F0000000060C943C0000000000000F03F0C000000130000009A0000003C0000000600000002
310
00000000000000C043F93F0000000060C943C0000000000000F03F00000040841834C00000000060C943C0000000000000F03F0C00000013000000A20000003C000000060000000200000000000040841834C000000000C09239C000000000000008400000004044253AC000000000C09239C000000000000008400C000000
310
13000000AA0000003C000000060000000200000000000040841834C000000000C09239C0000000000000F03F0000004044253AC000000000C09239C000000000000008400C00000013000000B20000003C000000060000000200000000000040841834C000000000C09239C0000000000000F03F00000040841834C0000000
310
00C09239C000000000000008400C00000013000000BA0000003C00000006000000020000000000004044253AC000000000C09239C000000000000008400000004044253AC000000000C09239C000000000000008C00C00000013000000C20000003C000000060000000200000000000040841834C000000000C09239C00000
310
00000000F03F0000004044253AC000000000C09239C000000000000008C00C00000013000000CA0000003C00000006000000020000000000004044253AC000000000C09239C000000000000008C00000000062CB0BC000000000C09239C000000000000008C00C00000013000000D20000003C000000060000000200000000
310
000040841834C000000000C09239C0000000000000F03F0000000062CB0BC000000000C09239C000000000000008C00C00000013000000DA0000003C00000006000000020000000000000062CB0BC000000000C09239C0000000000000F03F0000000062CB0BC000000000C09239C000000000000008C00C00000013000000
310
E20000003C00000006000000020000000000004044253AC000000000C09239C000000000000008C0000000808CF727C000000000E074DF3F00000000000008C00C00000013000000EA0000003C00000006000000020000000000000062CB0BC000000000C09239C000000000000008C0000000808CF727C000000000E074DF
310
3F00000000000008C00C00000013000000F20000003C0000000600000002000000000000808CF727C000000000E074DF3F00000000000008C0000000809AE422C0000000002C0FF03F00000000000008C00C00000013000000FA0000003C00000006000000020000000000000062CB0BC000000000C09239C0000000000000
310
08C0000000809AE422C0000000002C0FF03F00000000000008C00C00000013000000020100003C0000000600000002000000000000809AE422C0000000002C0FF03F00000000000008C0000000009C051EC000000000ECB9054000000000000008C00C000000130000000A0100003C00000006000000020000000000000062
310
CB0BC000000000C09239C000000000000008C0000000009C051EC000000000ECB9054000000000000008C00C00000013000000120100003C00000006000000020000000000004044253AC000000000209C434000000000000008C0000000C035A930C000000000832D174000000000000008C00C000000130000001A010000
310
3C00000006000000020000000000004044253AC000000000C09239C000000000000008C0000000C035A930C000000000832D174000000000000008C00C00000013000000220100003C00000006000000020000000000004044253AC000000000C09239C000000000000008C00000004044253AC000000000209C4340000000
310
00000008C00C000000130000002A0100003C0000000600000002000000000000C035A930C000000000832D174000000000000008C000000060162630C0000000003E0F0A4000000000000008C00C00000013000000320100003C00000006000000020000000000004044253AC000000000C09239C000000000000008C00000
310
0060162630C0000000003E0F0A4000000000000008C00C000000130000003A0100003C000000060000000200000000000060162630C0000000003E0F0A4000000000000008C00000002097DF2CC0000000001C10F53F00000000000008C00C00000013000000420100003C00000006000000020000000000004044253AC000
310
000000C09239C000000000000008C00000002097DF2CC0000000001C10F53F00000000000008C00C000000130000004A0100003C00000006000000020000000000004044253AC000000000209C434000000000000008C0000000C00EAC2FC000000000CD7E204000000000000008C00C00000013000000520100003C000000
310
0600000002000000000000C00EAC2FC000000000CD7E204000000000000008C0000000C035A930C000000000832D174000000000000008C00C000000130000005A0100003C00000006000000020000000000004044253AC000000000209C434000000000000008C000000040C44A39C00000000060C9434000000000000008
310
C00C00000013000000620100003C000000060000000200000000000040C44A39C00000000060C9434000000000000008C0000000C00EAC2FC000000000CD7E204000000000000008C00C000000130000006A0100003C000000060000000200000000000040C44A39C00000000060C9434000000000000008C0000000C042CA
310
2BC00000000062EB234000000000000008C00C00000013000000720100003C0000000600000002000000000000C042CA2BC00000000062EB234000000000000008C0000000C00EAC2FC000000000CD7E204000000000000008C00C000000130000007A0100003C000000060000000200000000000040C44A39C00000000060
310
C9434000000000000008C0000000C050B726C000000000A1F1244000000000000008C00C00000013000000820100003C0000000600000002000000000000C050B726C000000000A1F1244000000000000008C0000000C042CA2BC00000000062EB234000000000000008C00C000000130000008A0100003C00000006000000
310
0200000000000040C44A39C00000000060C9434000000000000008C00000000046CF21C000000000444B234000000000000008C00C00000013000000920100003C00000006000000020000000000000046CF21C000000000444B234000000000000008C0000000C050B726C000000000A1F1244000000000000008C00C0000
310
00130000009A0100003C000000060000000200000000000040C44A39C00000000060C9434000000000000008C00000008002863440000000001BF818C000000000000008C00C00000013000000A20100003C00000006000000020000000000008002863440000000001BF818C000000000000008C00000000046CF21C00000
310
0000444B234000000000000008C00C00000013000000AA0100003C00000006000000020000000000008002863440000000001BF818C000000000000008C00000000061C51CC000000000F0D21E4000000000000008C00C00000013000000B20100003C00000006000000020000000000000061C51CC000000000F0D21E4000
310
000000000008C00000000046CF21C000000000444B234000000000000008C00C00000013000000BA0100003C0000000600000002000000000000C0DA38344000000000BB2C1AC000000000000008C00000008002863440000000001BF818C000000000000008C00C00000013000000C20100003C0000000600000002000000
310
000000C0DA38344000000000BB2C1AC000000000000008C00000000061C51CC000000000F0D21E4000000000000008C00C00000013000000CA0100003C0000000600000002000000000000C0DA38344000000000BB2C1AC000000000000008C000000080E3B81AC0000000000CAD144000000000000008C00C000000130000
310
00D20100003C000000060000000200000000000080E3B81AC0000000000CAD144000000000000008C00000000061C51CC000000000F0D21E4000000000000008C00C00000013000000DA0100003C00000006000000020000000000008028F81140000000E0084636C000000000000008C000000080E3B81AC0000000000CAD
310
144000000000000008C00C00000013000000E20100003C00000006000000020000000000008028F81140000000E0084636C000000000000008C0000000009C051EC000000000ECB9054000000000000008C00C00000013000000EA0100003C000000060000000200000000000080E3B81AC0000000000CAD14400000000000
310
0008C0000000009C051EC000000000ECB9054000000000000008C00C00000013000000F20100003C00000006000000020000000000008028F81140000000E0084636C000000000000008C00000000062CB0BC000000000C09239C000000000000008C00C00000013000000FA0100003C000000060000000200000000000020
310
97DF2CC0000000001C10F53F00000000000008C0000000808CF727C000000000E074DF3F00000000000008C00C00000013000000020200003C00000006000000020000000000000062CB0BC000000000C09239C0000000000000F03F00000080137110C0000000C032D639C000000000000008400C000000130000000A0200
310
003C000000060000000200000000000080137110C0000000C032D639C0000000000000F03F00000080137110C0000000C032D639C000000000000008400C00000013000000120200003C00000006000000020000000000008028F81140000000E0084636C0000000000000F03F0000000062CB0BC000000000C09239C00000
310
00000000F03F0C000000130000001A0200003C00000006000000020000000000008028F81140000000E0084636C0000000000000F03F00000080137110C0000000C032D639C000000000000008400C00000013000000220200003C00000006000000020000000000008028F81140000000E0084636C0000000000000F03F00
310
0000001184144000000040880236C000000000000008400C000000130000002A0200003C0000000600000002000000000000001184144000000040880236C0000000000000084000000080137110C0000000C032D639C000000000000008400C00000013000000320200003C00000006000000020000000000000011841440
310
00000040880236C0000000000000F03F000000001184144000000040880236C000000000000008400C000000130000003A0200003C00000006000000020000000000008028F81140000000E0084636C0000000000000F03F0000000062CB0BC000000000C09239C000000000000008C00C00000013000000420200003C0000
310
000600000002000000000000009C051EC000000000ECB9054000000000000008C0000000009C051EC000000000ECB9054000000000000008400C000000130000004A0200003C000000060000000200000000000080E3B81AC0000000000CAD144000000000000008C0000000009C051EC000000000ECB90540000000000000
310
08400C00000013000000520200003C000000060000000200000000000080E3B81AC0000000000CAD14400000000000000840000000009C051EC000000000ECB9054000000000000008400C000000130000005A0200003C000000060000000200000000000080E3B81AC0000000000CAD144000000000000008C000000080E3
310
B81AC0000000000CAD144000000000000008400C00000013000000620200003C00000006000000020000000000000061C51CC000000000F0D21E4000000000000008C000000080E3B81AC0000000000CAD144000000000000008400C000000130000006A0200003C000000060000000200000000000080E3B81AC000000000
310
0CAD144000000000000008400000000061C51CC000000000F0D21E4000000000000008400C00000013000000720200003C00000006000000020000000000000061C51CC000000000F0D21E4000000000000008C00000000061C51CC000000000F0D21E4000000000000008400C000000130000007A0200003C000000060000
310
00020000000000000046CF21C000000000444B234000000000000008C00000000061C51CC000000000F0D21E4000000000000008400C00000013000000820200003C00000006000000020000000000000061C51CC000000000F0D21E4000000000000008400000000046CF21C000000000444B234000000000000008400C00
310
0000130000008A0200003C00000006000000020000000000000046CF21C000000000444B234000000000000008C00000000046CF21C000000000444B234000000000000008400C00000013000000920200003C0000000600000002000000000000C050B726C000000000A1F1244000000000000008C00000000046CF21C000
310
000000444B234000000000000008400C000000130000009A0200003C00000006000000020000000000000046CF21C000000000444B23400000000000000840000000C050B726C000000000A1F1244000000000000008400C00000013000000A20200003C0000000600000002000000000000C050B726C000000000A1F12440
310
00000000000008C0000000C050B726C000000000A1F1244000000000000008400C00000013000000AA0200003C0000000600000002000000000000C042CA2BC00000000062EB234000000000000008C0000000C050B726C000000000A1F1244000000000000008400C00000013000000B20200003C00000006000000020000
310
00000000C050B726C000000000A1F124400000000000000840000000C042CA2BC00000000062EB234000000000000008400C00000013000000BA0200003C0000000600000002000000000000C042CA2BC00000000062EB234000000000000008C0000000C042CA2BC00000000062EB234000000000000008400C0000001300
310
0000C20200003C0000000600000002000000000000C00EAC2FC000000000CD7E204000000000000008C0000000C042CA2BC00000000062EB234000000000000008400C00000013000000CA0200003C0000000600000002000000000000C042CA2BC00000000062EB23400000000000000840000000C00EAC2FC000000000CD
310
7E204000000000000008400C00000013000000D20200003C0000000600000002000000000000C00EAC2FC000000000CD7E204000000000000008C0000000C00EAC2FC000000000CD7E204000000000000008400C00000013000000DA0200003C0000000600000002000000000000C035A930C000000000832D174000000000
310
000008C0000000C00EAC2FC000000000CD7E204000000000000008400C00000013000000E20200003C0000000600000002000000000000C00EAC2FC000000000CD7E20400000000000000840000000C035A930C000000000832D174000000000000008400C00000013000000EA0200003C0000000600000002000000000000
310
C035A930C000000000832D174000000000000008C0000000C035A930C000000000832D174000000000000008400C00000013000000F20200003C000000060000000200000000000060162630C0000000003E0F0A4000000000000008C0000000C035A930C000000000832D174000000000000008400C00000013000000FA02
310
00003C0000000600000002000000000000C035A930C000000000832D1740000000000000084000000060162630C0000000003E0F0A4000000000000008400C00000013000000020300003C000000060000000200000000000060162630C0000000003E0F0A4000000000000008C000000060162630C0000000003E0F0A4000
310
000000000008400C000000130000000A0300003C00000006000000020000000000002097DF2CC0000000001C10F53F00000000000008C000000060162630C0000000003E0F0A4000000000000008400C00000013000000120300003C000000060000000200000000000060162630C0000000003E0F0A400000000000000840
310
0000002097DF2CC0000000001C10F53F00000000000008400C000000130000001A0300003C00000006000000020000000000002097DF2CC0000000001C10F53F00000000000008C00000002097DF2CC0000000001C10F53F00000000000008400C00000013000000220300003C0000000600000002000000000000808CF727
310
C000000000E074DF3F00000000000008C00000002097DF2CC0000000001C10F53F00000000000008400C000000130000002A0300003C00000006000000020000000000002097DF2CC0000000001C10F53F0000000000000840000000808CF727C000000000E074DF3F00000000000008400C00000013000000320300003C00
310
00000600000002000000000000808CF727C000000000E074DF3F00000000000008C0000000808CF727C000000000E074DF3F00000000000008400C000000130000003A0300003C0000000600000002000000000000809AE422C0000000002C0FF03F00000000000008C0000000808CF727C000000000E074DF3F0000000000
310
0008400C00000013000000420300003C0000000600000002000000000000808CF727C000000000E074DF3F0000000000000840000000809AE422C0000000002C0FF03F00000000000008400C000000130000004A0300003C0000000600000002000000000000809AE422C0000000002C0FF03F00000000000008C000000080
310
9AE422C0000000002C0FF03F00000000000008400C00000013000000520300003C0000000600000002000000000000009C051EC000000000ECB9054000000000000008C0000000809AE422C0000000002C0FF03F00000000000008400C000000130000005A0300003C0000000600000002000000000000809AE422C0000000
310
002C0FF03F0000000000000840000000009C051EC000000000ECB9054000000000000008400C00000013000000620300003C000000060000000200000000000080F8A225400000000080DF41C0000000000000F03F00000080F8A225400000000080DF41C000000000000008400C000000130000006A0300003C0000000600
310
000002000000000000001184144000000040880236C0000000000000F03F00000080F8A225400000000080DF41C000000000000008400C00000013000000720300003C0000000600000002000000000000001184144000000040880236C0000000000000084000000080F8A225400000000080DF41C000000000000008400C
310
000000130000007A0300003C000000060000000200000000000000C043F93F0000000060C943C0000000000000F03F00000080137110C0000000C032D639C000000000000008400C00000013000000820300003C000000060000000200000000000080137110C0000000C032D639C0000000000000084000000000C043F93F
310
0000000060C943C000000000000008400C000000130000008A0300003C000000060000000200000000000000C043F93F0000000060C943C0000000000000F03F00000000C043F93F0000000060C943C000000000000008400C00000013000000920300003C0000000600000002000000000000001184144000000040880236
310
C00000000000000840000000009C051EC000000000ECB9054000000000000008400C000000130000009A0300003C0000000600000002000000000000001184144000000040880236C0000000000000084000000080E3B81AC0000000000CAD144000000000000008400C00000013000000A20300003C000000060000000200
310
0000000000001184144000000040880236C0000000000000084000000040063F304000000000120A25C000000000000008400C00000013000000AA0300003C000000060000000200000000000080E3B81AC0000000000CAD1440000000000000084000000040063F304000000000120A25C000000000000008400C00000013
310
000000B20300003C000000060000000200000000000040063F304000000000120A25C000000000000008400000008002863440000000001BF818C000000000000008400C00000013000000BA0300003C000000060000000200000000000080E3B81AC0000000000CAD14400000000000000840000000800286344000000000
310
1BF818C000000000000008400C00000013000000C20300003C000000060000000200000000000080137110C0000000C032D639C00000000000000840000000009C051EC000000000ECB9054000000000000008400C00000013000000CA0300003C000000060000000200000000000080137110C0000000C032D639C0000000
310
0000000840000000809AE422C0000000002C0FF03F00000000000008400C00000013000000D20300003C000000060000000200000000000080137110C0000000C032D639C00000000000000840000000808CF727C000000000E074DF3F00000000000008400C00000013000000DA0300003C00000006000000020000000000
310
0040841834C000000000C09239C00000000000000840000000808CF727C000000000E074DF3F00000000000008400C00000013000000E20300003C000000060000000200000000000040841834C000000000C09239C0000000000000084000000080137110C0000000C032D639C000000000000008400C00000013000000EA
310
0300003C000000060000000200000000000040841834C000000000C09239C000000000000008400000002097DF2CC0000000001C10F53F00000000000008400C00000013000000F20300003C000000060000000200000000000040841834C000000000C09239C0000000000000084000000060162630C0000000003E0F0A40
310
00000000000008400C00000013000000FA0300003C00000006000000020000000000004044253AC000000000C09239C0000000000000084000000060162630C0000000003E0F0A4000000000000008400C00000013000000020400003C00000006000000020000000000004044253AC000000000C09239C000000000000008
310
40000000C035A930C000000000832D174000000000000008400C000000130000000A0400003C0000000600000002000000000000C035A930C000000000832D174000000000000008400000004044253AC000000000209C434000000000000008400C00000013000000120400003C0000000600000002000000000000404425
310
3AC000000000C09239C000000000000008400000004044253AC000000000209C434000000000000008400C000000130000001A0400003C0000000600000002000000000000C00EAC2FC000000000CD7E204000000000000008400000004044253AC000000000209C434000000000000008400C00000013000000220400003C
310
0000000600000002000000000000C00EAC2FC000000000CD7E2040000000000000084000000040C44A39C00000000060C9434000000000000008400C000000130000002A0400003C000000060000000200000000000040C44A39C00000000060C9434000000000000008400000004044253AC000000000209C434000000000
310
000008400C00000013000000320400003C0000000600000002000000000000C042CA2BC00000000062EB2340000000000000084000000040C44A39C00000000060C9434000000000000008400C000000130000003A0400003C0000000600000002000000000000C050B726C000000000A1F124400000000000000840000000
310
40C44A39C00000000060C9434000000000000008400C00000013000000420400003C00000006000000020000000000000046CF21C000000000444B2340000000000000084000000040C44A39C00000000060C9434000000000000008400C000000130000004A0400003C00000006000000020000000000000046CF21C00000
310
0000444B234000000000000008400000008002863440000000001BF818C000000000000008400C00000013000000520400003C00000006000000020000000000008002863440000000001BF818C0000000000000084000000040C44A39C00000000060C9434000000000000008400C000000130000005A0400003C00000006
310
000000020000000000000061C51CC000000000F0D21E4000000000000008400000008002863440000000001BF818C000000000000008400C00000013000000620400003C000000060000000200000000000080137110C0000000C032D639C0000000000000084000000040841834C00000000060C943C00000000000000840
310
0C000000130000006A0400003C000000060000000200000000000000C043F93F0000000060C943C0000000000000084000000040841834C00000000060C943C000000000000008400C00000013000000720400003C000000060000000200000000000040841834C000000000C09239C0000000000000084000000040841834
310
C00000000060C943C000000000000008400C000000130000007A0400003C000000060000000200000000000080F8A225400000000080DF41C0000000000000084000000040063F304000000000120A25C000000000000008400C00000013000000820400003C000000060000000200000000000080F8A225400000000080DF
310
41C000000000000008400000004044253A4000000020386B34C000000000000008400C000000130000008A0400003C00000006000000020000000000004044253A4000000020386B34C0000000000000084000000040063F304000000000120A25C000000000000008400C00000013000000920400003C0000000600000002
310
000000000000C0DA38344000000000BB2C1AC0000000000000F03F0000008002863440000000001BF818C000000000000008C00C000000130000009A0400003C00000006000000020000000000008002863440000000001BF818C000000000000008C00000008002863440000000001BF818C000000000000008400C000000
310
13000000A20400003C0000000600000002000000000000C0DA38344000000000BB2C1AC0000000000000F03F0000008002863440000000001BF818C000000000000008400C00000013000000AA0400003C0000000600000002000000000000C0DA38344000000000BB2C1AC0000000000000F03F00000040063F3040000000
310
00120A25C000000000000008400C00000013000000B20400003C000000060000000200000000000040063F304000000000120A25C0000000000000F03F00000040063F304000000000120A25C000000000000008400C00000013000000BA0400003C00000006000000020000000000004044253A4000000020386B34C00000
310
00000000F03F00000040063F304000000000120A25C000000000000008400C00000013000000C20400003C00000006000000020000000000004044253A4000000020386B34C0000000000000F03F0000004044253A4000000020386B34C000000000000008400C00000013000000CA0400003C000000060000000200000000
310
000040841834C00000000060C943C0000000000000F03F00000040841834C00000000060C943C000000000000008400C00000013000000D20400003C000000060000000200000000000040841834C000000000C09239C0000000000000F03F00000040841834C00000000060C943C000000000000008400C00000013000000
310
DA0400003C000000060000000200000000000040C44A39C00000000060C9434000000000000008C00000008002863440000000001BF818C000000000000008400C00000013000000E20400003C000000060000000200000000000040C44A39C00000000060C9434000000000000008C000000040C44A39C00000000060C943
310
4000000000000008400C00000013000000EA0400003C000000060000000200000000000040841834C00000000060C943C0000000000000F03F00000000C043F93F0000000060C943C000000000000008400C00000013000000F20400003C00000006000000020000000000004044253A4000000020386B34C0000000000000
310
F03F00000080F8A225400000000080DF41C000000000000008400C00000013000000FA0400003C00000006000000020000000000004044253AC000000000209C434000000000000008C000000040C44A39C00000000060C9434000000000000008400C00000013000000020500003C00000006000000020000000000004044
310
253AC000000000209C434000000000000008C00000004044253AC000000000209C434000000000000008400C000000130000000A0500003C00000006000000020000000000004044253AC000000000C09239C000000000000008400000004044253AC000000000209C434000000000000008C0
100
AcDbSubDMesh
 71
     2
 72
     0
 91
        0
 92
       54
 10
20.22208786010742
 20
-6.543682098388671
 30
-3.0
 10
20.22208786010742
 20
-6.543682098388671
 30
1.0
 10
4.492341995239257
 20
-22.27357292175293
 30
1.0
 10
4.492341995239257
 20
-22.27357292175293
 30
-3.0
 10
16.24618911743164
 20
-10.51966857910156
 30
1.0
 10
26.14557266235352
 20
-20.41882514953613
 30
1.0
 10
10.81830215454101
 20
-35.74609375
 30
1.0
 10
5.128971099853515
 20
-22.00989151000976
 30
1.0
 10
-3.474308013916015
 20
-25.5732421875
 30
1.0
 10
-4.110425949096679
 20
-25.83671188354492
 30
1.0
 10
1.57904052734375
 20
-39.5732421875
 30
1.0
 10
-20.09576797485352
 20
-39.5732421875
 30
1.0
 10
-20.09576797485352
 20
-25.5732421875
 30
1.0
 10
-20.09576797485352
 20
-25.5732421875
 30
3.0
 10
-26.14557266235352
 20
-25.5732421875
 30
3.0
 10
-26.14557266235352
 20
-25.5732421875
 30
-3.0
 10
-3.474308013916015
 20
-25.5732421875
 30
-3.0
 10
-26.14557266235352
 20
39.2197265625
 30
-3.0
 10
-25.29205703735352
 20
39.5732421875
 30
-3.0
 10
20.52347564697265
 20
-6.242290496826171
 30
-3.0
 10
-6.680555343627929
 20
5.168991088867187
 30
-3.0
 10
-7.192752838134765
 20
7.70599365234375
 30
-3.0
 10
-8.904830932617187
 20
9.647003173828125
 30
-3.0
 10
-11.3580379486084
 20
10.47193145751953
 30
-3.0
 10
-13.89504051208496
 20
9.959732055664062
 30
-3.0
 10
-15.83605003356933
 20
8.247657775878906
 30
-3.0
 10
-16.66097640991211
 20
5.794445037841796
 30
-3.0
 10
-16.14877891540527
 20
3.257442474365234
 30
-3.0
 10
-14.43669986724853
 20
1.316432952880859
 30
-3.0
 10
-11.98349380493164
 20
0.4915084838867188
 30
-3.0
 10
-9.446491241455078
 20
1.003704071044921
 30
-3.0
 10
-7.505477905273437
 20
2.715782165527343
 30
-3.0
 10
5.128971099853515
 20
-22.00989151000976
 30
3.0
 10
-4.110425949096679
 20
-25.83671188354492
 30
3.0
 10
-6.680555343627929
 20
5.168991088867187
 30
3.0
 10
-7.192752838134765
 20
7.70599365234375
 30
3.0
 10
-8.904830932617187
 20
9.647003173828125
 30
3.0
 10
-11.3580379486084
 20
10.47193145751953
 30
3.0
 10
-13.89504051208496
 20
9.959732055664062
 30
3.0
 10
-15.83605003356933
 20
8.247657775878906
 30
3.0
 10
-16.66097640991211
 20
5.794445037841796
 30
3.0
 10
-16.14877891540527
 20
3.257442474365234
 30
3.0
 10
-14.43669986724853
 20
1.316432952880859
 30
3.0
 10
-11.98349380493164
 20
0.4915084838867188
 30
3.0
 10
-9.446491241455078
 20
1.003704071044921
 30
3.0
 10
-7.505477905273437
 20
2.715782165527343
 30
3.0
 10
10.81830215454101
 20
-35.74609375
 30
3.0
 10
1.57904052734375
 20
-39.5732421875
 30
3.0
 10
26.14557266235352
 20
-20.41882514953613
 30
3.0
 10
16.24618911743164
 20
-10.51966857910156
 30
3.0
 10
20.52347564697265
 20
-6.242290496826171
 30
3.0
 10
-25.29205703735352
 20
39.5732421875
 30
3.0
 10
-26.14557266235352
 20
39.2197265625
 30
3.0
 10
-20.09576797485352
 20
-39.5732421875
 30
3.0
 93
      432
 90
        3
 90
        0
 90
        1
 90
        3
 90
        3
 90
        3
 90
        1
 90
        2
 90
        3
 90
        1
 90
        4
 90
        2
 90
        3
 90
        2
 90
        4
 90
        7
 90
        3
 90
        7
 90
        4
 90
        6
 90
        3
 90
        6
 90
        4
 90
        5
 90
        3
 90
        8
 90
        9
 90
       12
 90
        3
 90
       12
 90
        9
 90
       11
 90
        3
 90
       11
 90
        9
 90
       10
 90
        3
 90
       13
 90
       14
 90
       12
 90
        3
 90
       12
 90
       14
 90
       15
 90
        3
 90
       12
 90
       15
 90
       16
 90
        3
 90
       16
 90
        8
 90
       12
 90
        3
 90
       15
 90
       29
 90
       16
 90
        3
 90
       16
 90
       29
 90
       30
 90
        3
 90
       16
 90
       30
 90
       31
 90
        3
 90
       17
 90
       26
 90
       15
 90
        3
 90
       15
 90
       26
 90
       27
 90
        3
 90
       15
 90
       27
 90
       28
 90
        3
 90
       26
 90
       17
 90
       25
 90
        3
 90
       25
 90
       17
 90
       18
 90
        3
 90
       25
 90
       18
 90
       24
 90
        3
 90
       24
 90
       18
 90
       23
 90
        3
 90
       23
 90
       18
 90
       22
 90
        3
 90
       22
 90
       18
 90
       19
 90
        3
 90
       22
 90
       19
 90
       21
 90
        3
 90
       21
 90
       19
 90
        0
 90
        3
 90
       21
 90
        0
 90
       20
 90
        3
 90
       20
 90
        0
 90
        3
 90
        3
 90
       20
 90
        3
 90
       31
 90
        3
 90
       31
 90
        3
 90
       16
 90
        3
 90
       28
 90
       29
 90
       15
 90
        3
 90
        9
 90
        8
 90
       33
 90
        3
 90
       33
 90
        8
 90
        2
 90
        3
 90
       33
 90
        2
 90
       32
 90
        3
 90
       32
 90
        2
 90
        7
 90
        3
 90
        8
 90
       16
 90
        2
 90
        3
 90
        2
 90
       16
 90
        3
 90
        3
 90
       31
 90
       45
 90
       20
 90
        3
 90
       20
 90
       45
 90
       34
 90
        3
 90
       20
 90
       34
 90
       21
 90
        3
 90
       21
 90
       34
 90
       35
 90
        3
 90
       21
 90
       35
 90
       22
 90
        3
 90
       22
 90
       35
 90
       36
 90
        3
 90
       22
 90
       36
 90
       23
 90
        3
 90
       23
 90
       36
 90
       37
 90
        3
 90
       23
 90
       37
 90
       24
 90
        3
 90
       24
 90
       37
 90
       38
 90
        3
 90
       24
 90
       38
 90
       25
 90
        3
 90
       25
 90
       38
 90
       39
 90
        3
 90
       25
 90
       39
 90
       26
 90
        3
 90
       26
 90
       39
 90
       40
 90
        3
 90
       26
 90
       40
 90
       27
 90
        3
 90
       27
 90
       40
 90
       41
 90
        3
 90
       27
 90
       41
 90
       28
 90
        3
 90
       28
 90
       41
 90
       42
 90
        3
 90
       28
 90
       42
 90
       29
 90
        3
 90
       29
 90
       42
 90
       43
 90
        3
 90
       29
 90
       43
 90
       30
 90
        3
 90
       30
 90
       43
 90
       44
 90
        3
 90
       30
 90
       44
 90
       31
 90
        3
 90
       31
 90
       44
 90
       45
 90
        3
 90
        6
 90
       46
 90
        7
 90
        3
 90
        7
 90
       46
 90
       32
 90
        3
 90
        9
 90
       33
 90
       10
 90
        3
 90
       10
 90
       33
 90
       47
 90
        3
 90
       45
 90
       32
 90
       34
 90
        3
 90
       34
 90
       32
 90
       49
 90
        3
 90
       34
 90
       49
 90
       50
 90
        3
 90
       32
 90
       45
 90
       33
 90
        3
 90
       33
 90
       45
 90
       44
 90
        3
 90
       33
 90
       44
 90
       43
 90
        3
 90
       33
 90
       43
 90
       13
 90
        3
 90
       13
 90
       43
 90
       42
 90
        3
 90
       13
 90
       42
 90
       41
 90
        3
 90
       13
 90
       41
 90
       14
 90
        3
 90
       14
 90
       41
 90
       40
 90
        3
 90
       14
 90
       40
 90
       52
 90
        3
 90
       52
 90
       40
 90
       39
 90
        3
 90
       52
 90
       39
 90
       51
 90
        3
 90
       51
 90
       39
 90
       38
 90
        3
 90
       51
 90
       38
 90
       37
 90
        3
 90
       37
 90
       36
 90
       51
 90
        3
 90
       51
 90
       36
 90
       50
 90
        3
 90
       50
 90
       36
 90
       35
 90
        3
 90
       50
 90
       35
 90
       34
 90
        3
 90
       47
 90
       33
 90
       53
 90
        3
 90
       53
 90
       33
 90
       13
 90
        3
 90
       32
 90
       46
 90
       49
 90
        3
 90
       49
 90
       46
 90
       48
 90
        3
 90
        0
 90
       19
 90
        1
 90
        3
 90
        1
 90
       19
 90
       50
 90
        3
 90
        1
 90
       50
 90
       49
 90
        3
 90
       49
 90
        4
 90
        1
 90
        3
 90
        4
 90
       49
 90
        5
 90
        3
 90
        5
 90
       49
 90
       48
 90
        3
 90
       11
 90
       53
 90
       12
 90
        3
 90
       12
 90
       53
 90
       13
 90
        3
 90
       19
 90
       18
 90
       50
 90
        3
 90
       50
 90
       18
 90
       51
 90
        3
 90
       10
 90
       47
 90
       11
 90
        3
 90
       11
 90
       47
 90
       53
 90
        3
 90
        6
 90
        5
 90
       46
 90
        3
 90
       46
 90
        5
 90
       48
 90
        3
 90
       18
 90
       17
 90
       51
 90
        3
 90
       51
 90
       17
 90
       52
 90
        3
 90
       15
 90
       14
 90
       17
 90
        3
 90
       17
 90
       14
 90
       52
 94
      162
 90
        0
 90
        1
 90
        1
 90
        3
 90
        0
 90
        3
 90
        1
 90
        2
 90
        2
 90
        3
 90
        1
 90
        4
 90
        2
 90
        4
 90
        4
 90
        7
 90
        2
 90
        7
 90
        4
 90
        6
 90
        6
 90
        7
 90
        4
 90
        5
 90
        5
 90
        6
 90
        8
 90
        9
 90
        9
 90
       12
 90
        8
 90
       12
 90
        9
 90
       11
 90
       11
 90
       12
 90
        9
 90
       10
 90
       10
 90
       11
 90
       13
 90
       14
 90
       12
 90
       14
 90
       12
 90
       13
 90
       14
 90
       15
 90
       12
 90
       15
 90
       15
 90
       16
 90
       12
 90
       16
 90
        8
 90
       16
 90
       15
 90
       29
 90
       16
 90
       29
 90
       29
 90
       30
 90
       16
 90
       30
 90
       30
 90
       31
 90
       16
 90
       31
 90
       17
 90
       26
 90
       15
 90
       26
 90
       15
 90
       17
 90
       26
 90
       27
 90
       15
 90
       27
 90
       27
 90
       28
 90
       15
 90
       28
 90
       17
 90
       25
 90
       25
 90
       26
 90
       17
 90
       18
 90
       18
 90
       25
 90
       18
 90
       24
 90
       24
 90
       25
 90
       18
 90
       23
 90
       23
 90
       24
 90
       18
 90
       22
 90
       22
 90
       23
 90
       18
 90
       19
 90
       19
 90
       22
 90
       19
 90
       21
 90
       21
 90
       22
 90
        0
 90
       19
 90
        0
 90
       21
 90
        0
 90
       20
 90
       20
 90
       21
 90
        3
 90
       20
 90
        3
 90
       31
 90
       20
 90
       31
 90
        3
 90
       16
 90
       28
 90
       29
 90
        8
 90
       33
 90
        9
 90
       33
 90
        2
 90
        8
 90
        2
 90
       33
 90
        2
 90
       32
 90
       32
 90
       33
 90
        7
 90
       32
 90
        2
 90
       16
 90
       31
 90
       45
 90
       20
 90
       45
 90
       34
 90
       45
 90
       20
 90
       34
 90
       21
 90
       34
 90
       34
 90
       35
 90
       21
 90
       35
 90
       22
 90
       35
 90
       35
 90
       36
 90
       22
 90
       36
 90
       23
 90
       36
 90
       36
 90
       37
 90
       23
 90
       37
 90
       24
 90
       37
 90
       37
 90
       38
 90
       24
 90
       38
 90
       25
 90
       38
 90
       38
 90
       39
 90
       25
 90
       39
 90
       26
 90
       39
 90
       39
 90
       40
 90
       26
 90
       40
 90
       27
 90
       40
 90
       40
 90
       41
 90
       27
 90
       41
 90
       28
 90
       41
 90
       41
 90
       42
 90
       28
 90
       42
 90
       29
 90
       42
 90
       42
 90
       43
 90
       29
 90
       43
 90
       30
 90
       43
 90
       43
 90
       44
 90
       30
 90
       44
 90
       31
 90
       44
 90
       44
 90
       45
 90
        6
 90
       46
 90
        7
 90
       46
 90
       32
 90
       46
 90
       10
 90
       33
 90
       33
 90
       47
 90
       10
 90
       47
 90
       32
 90
       45
 90
       32
 90
       34
 90
       32
 90
       49
 90
       34
 90
       49
 90
       49
 90
       50
 90
       34
 90
       50
 90
       33
 90
       45
 90
       33
 90
       44
 90
       33
 90
       43
 90
       13
 90
       43
 90
       13
 90
       33
 90
       13
 90
       42
 90
       13
 90
       41
 90
       14
 90
       41
 90
       14
 90
       40
 90
       40
 90
       52
 90
       14
 90
       52
 90
       39
 90
       52
 90
       39
 90
       51
 90
       51
 90
       52
 90
       38
 90
       51
 90
       37
 90
       51
 90
       36
 90
       51
 90
       36
 90
       50
 90
       50
 90
       51
 90
       35
 90
       50
 90
       33
 90
       53
 90
       47
 90
       53
 90
       13
 90
       53
 90
       46
 90
       49
 90
       46
 90
       48
 90
       48
 90
       49
 90
        1
 90
       19
 90
       19
 90
       50
 90
        1
 90
       50
 90
        1
 90
       49
 90
        4
 90
       49
 90
        5
 90
       49
 90
        5
 90
       48
 90
       11
 90
       53
 90
       12
 90
       53
 90
       18
 90
       50
 90
       18
 90
       51
 90
       11
 90
       47
 90
        5
 90
       46
 90
       17
 90
       51
 90
       17
 90
       52
 90
       14
 90
       17
 95
      162
140
0.0
140
0.0
140
0.0
140
0.0
140
0.0
140
0.0
140
0.0
140
0.0
140
0.0
140
0.0
140
0.0
140
0.0
140
0.0
140
0.0
140
0.0
140
0.0
140
0.0
140
0.0
140
0.0
140
0.0
140
0.0
140
0.0
140
0.0
140
0.0
140
0.0
140
0.0
140
0.0
140
0.0
140
0.0
140
0.0
140
0.0
140
0.0
140
0.0
140
0.0
140
0.0
140
0.0
140
0.0
140
0.0
140
0.0
140
0.0
140
0.0
140
0.0
140
0.0
140
0.0
140
0.0
140
0.0
140
0.0
140
0.0
140
0.0
140
0.0
140
0.0
140
0.0
140
0.0
140
0.0
140
0.0
140
0.0
140
0.0
140
0.0
140
0.0
140
0.0
140
0.0
140
0.0
140
0.0
140
0.0
140
0.0
140
0.0
140
0.0
140
0.0
140
0.0
140
0.0
140
0.0
140
0.0
140
0.0
140
0.0
140
0.0
140
0.0
140
0.0
140
0.0
140
0.0
140
0.0
140
0.0
140
0.0
140
0.0
140
0.0
140
0.0
140
0.0
140
0.0
140
0.0
140
0.0
140
0.0
140
0.0
140
0.0
140
0.0
140
0.0
140
0.0
140
0.0
140
0.0
140
0.0
140
0.0
140
0.0
140
0.0
140
0.0
140
0.0
140
0.0
140
0.0
140
0.0
140
0.0
140
0.0
140
0.0
140
0.0
140
0.0
140
0.0
140
0.0
140
0.0
140
0.0
140
0.0
140
0.0
140
0.0
140
0.0
140
0.0
140
0.0
140
0.0
140
0.0
140
0.0
140
0.0
140
0.0
140
0.0
140
0.0
140
0.0
140
0.0
140
0.0
140
0.0
140
0.0
140
0.0
140
0.0
140
0.0
140
0.0
140
0.0
140
0.0
140
0.0
140
0.0
140
0.0
140
0.0
140
0.0
140
0.0
140
0.0
140
0.0
140
0.0
140
0.0
140
0.0
140
0.0
140
0.0
140
0.0
140
0.0
140
0.0
140
0.0
140
0.0
140
0.0
140
0.0
140
0.0
140
0.0
140
0.0
 90
        0
  0
ENDBLK
  5
FE
330
FC
100
AcDbEntity
  8
0
100
AcDbBlockEnd
  0
ENDSEC
  0
SECTION
  2
ENTITIES
  0
INSERT
  5
94
330
1F
100
AcDbEntity
  8
ASHADE
 62
     1
100
AcDbBlockReference
  2
AVE_RENDER
 10
0.0
 20
0.0
 30
0.0
1001
AVE_RENDER
1002
{
1070
     7
1000
Pref
1070
    30
1070
    20
1070
     1
1070
     0
1000

1070
    10
1070
     1
1070
    10
1040
1.0
1070
     1
1040
0.3
1040
0.7
1040
0.0
1040
10.0
1010
-1.0
1020
-1.0
1030
-1.0
1040
0.3
1070
    49
1070
     0
1070
     0
1010
1.0
1020
1.0
1030
1.0
1040
45.0
1070
     1
1070
     0
1000
WCS
1040
0.0
1070
     0
1040
10.0
1002
}
  0
INSERT
  5
95
330
1F
100
AcDbEntity
  8
ASHADE
 62
     3
100
AcDbBlockReference
  2
AVE_RENDER
 10
0.0
 20
0.0
 30
0.0
1001
AVE_RENDER
1002
{
1070
     0
1000
Full Opt
1070
     0
1070
     1
1070
     1
1070
     1
1070
     0
1070
     0
1070
     0
1070
     1
1070
     1
1040
0.0001
1040
0.0001
1002
}
  0
INSERT
  5
96
330
1F
100
AcDbEntity
  8
ASHADE
 62
     4
100
AcDbBlockReference
  2
AVE_RENDER
 10
0.0
 20
0.0
 30
0.0
1001
AVE_RENDER
1002
{
1070
     0
1000
Quick Opt
1070
     0
1070
     1
1070
     1
1070
     1
1070
     0
1070
     0
1070
     1
1002
}
  0
INSERT
  5
97
330
1F
100
AcDbEntity
  8
ASHADE
 62
     5
100
AcDbBlockReference
  2
AVE_RENDER
 10
0.0
 20
0.0
 30
0.0
1001
AVE_RENDER
1002
{
1070
     1
1000
Scanl Opt
1070
     2
1070
     0
1070
     2
1040
2.0
1040
4.0
1070
     0
1070
     1
1070
     0
1040
0.03
1002
}
  0
INSERT
  5
98
330
1F
100
AcDbEntity
  8
ASHADE
 62
     6
100
AcDbBlockReference
  2
AVE_RENDER
 10
0.0
 20
0.0
 30
0.0
1001
AVE_RENDER
1002
{
1070
     2
1000
Raytr Opt
1070
     2
1070
     0
1070
     2
1040
2.0
1040
4.0
1070
     0
1070
     1
1070
     1
1040
0.03
1070
     3
1040
0.03
1002
}
  0
INSERT
  5
99
330
1F
100
AcDbEntity
  8
ASHADE
 62
     7
100
AcDbBlockReference
  2
AVE_RENDER
 10
0.0
 20
0.0
 30
0.0
1001
AVE_RENDER
1002
{
1070
     0
1000
RFile Opt
1070
     1
1070
   640
1070
   480
1070
 10000
1070
     1
1070
     8
1070
     8
1070
     0
1070
     0
1070
     0
1070
     0
1070
     0
1070
     0
1070
     0
1002
}
  0
INSERT
  5
9A
330
1F
100
AcDbEntity
  8
ASHADE
 62
     8
100
AcDbBlockReference
  2
AVE_RENDER
 10
0.0
 20
0.0
 30
0.0
1001
AVE_RENDER
1002
{
1070
     0
1000
Fog Opt
1070
     0
1070
     0
1040
0.0
1040
1.0
1040
0.0
1040
1.0
1010
0.5
1020
0.5
1030
0.5
1002
}
  0
INSERT
  5
9B
330
1F
100
AcDbEntity
  8
ASHADE
 62
     9
100
AcDbBlockReference
  2
AVE_RENDER
 10
0.0
 20
0.0
 30
0.0
1001
AVE_RENDER
1002
{
1070
     0
1000
BG Opt
1070
     0
1070
     1
1010
0.0
1020
0.0
1030
0.0
1010
1.0
1020
0.0
1030
0.0
1010
0.0
1020
1.0
1030
0.0
1010
0.0
1020
0.0
1030
1.0
1040
0.5
1040
0.33
1040
0.0
1000

1070
     1
1000

1070
     1
1070
     1
1040
1.0
1040
1.0
1040
0.0
1040
0.0
1070
     0
1002
}
  0
INSERT
  5
A2
330
1F
100
AcDbEntity
  8
ASHADE
 62
     1
100
AcDbBlockReference
  2
AVE_GLOBAL
 10
0.0
 20
0.0
 30
0.0
1001
AVE_MATERIAL
1002
{
1000
*GLOBAL*
1000
2
1000
Global finish.
1002
{
1002
}
1002
{
1070
    63
1002
{
1002
{
1010
-1.0
1020
-1.0
1030
-1.0
1002
}
1040
0.1000000014901161
1000

1040
0.0
1002
{
1002
}
1040
0.0
1002
{
1002
}
1040
0.0
1002
}
1002
{
1002
{
1010
-1.0
1020
-1.0
1030
-1.0
1002
}
1040
0.6999999880790711
1000

1040
0.0
1002
{
1002
}
1040
0.0
1002
{
1002
}
1040
0.0
1002
}
1002
{
1002
{
1010
-1.0
1020
-1.0
1030
-1.0
1002
}
1040
0.2000000029802322
1000

1040
0.0
1002
{
1002
}
1040
0.0
1002
{
1002
}
1040
0.0
1002
}
1002
{
1070
     0
1002
{
1070
     1
1002
{
1040
1.0
1040
1.0
1000

1040
0.0
1002
{
1002
}
1040
0.0
1002
{
1002
}
1040
0.0
1002
}
1002
}
1040
1.0
1040
0.0
1040
0.0
1002
}
1002
{
1040
1.0
1040
1.0
1000

1040
0.0
1002
{
1002
}
1040
0.0
1002
{
1002
}
1040
0.0
1002
}
1002
{
1040
0.5
1040
1.0
1000

1040
0.0
1002
{
1002
}
1040
0.0
1002
{
1002
}
1040
0.0
1002
}
1002
{
1070
     0
1040
0.0
1002
{
1002
}
1040
1.0
1002
{
1002
}
1040
0.0
1002
}
1002
{
1040
0.0
1002
{
1002
{
1010
0.0
1020
0.0
1030
0.0
1002
}
1040
1.0
1000

1040
0.0
1002
{
1002
}
1040
0.0
1002
{
1002
}
1040
0.0
1002
}
1002
}
1002
{
1002
{
1070
     1
1002
{
1040
0.0
1040
1.0
1000

1040
0.0
1002
{
1002
}
1040
0.0
1002
{
1002
}
1040
0.0
1002
}
1002
}
1040
0.0
1002
{
1002
}
1010
1.0
1020
0.0
1030
0.0
1010
0.0
1020
1.0
1030
0.0
1010
0.0
1020
0.0
1030
1.0
1070
     0
1002
}
1002
{
1002
{
1040
1.0
1040
1.0
1002
{
1070
     1
1002
{
1040
1.0
1040
1.0
1000

1040
0.0
1002
{
1002
}
1040
0.0
1002
{
1002
}
1040
0.0
1002
}
1002
}
1002
}
1070
     0
1040
0.0
1002
{
1002
}
1002
}
1002
{
1002
}
1002
}
1002
{
1071
        3
1070
     3
1070
     0
1002
{
1070
     2
1070
     0
1070
     0
1040
0.0
1002
}
1070
     0
1070
     2
1002
{
1002
}
1002
}
1002
{
1040
8030.0
1040
190.3000030517578
1040
0.3050000071525574
1040
228.0
1040
545.0
1040
14.0
1040
17.39999961853027
1040
0.4560000002384186
1002
}
1002
}
  0
MESH
  5
101
330
1F
100
AcDbEntity
  8
WandStützen_01
 62
     7
420
 16777215
160
             24848
310
10610000B20200000C00000013000000020000003C00000006000000020000000000006038461AC00000004039B826C00000002000E07E40000000201C232DC000000000B9582DC00000000000E07E400C000000130000000A0000003C0000000600000002000000000000201C232DC000000000B9582DC00000000000E07E
310
40000000C014232DC000000060C0582DC0000000E0FFFF17400C00000013000000120000003C00000006000000020000000000006038461AC00000004039B826C00000002000E07E40000000C014232DC000000060C0582DC0000000E0FFFF17400C000000130000001A0000003C0000000600000002000000000000C01423
310
2DC000000060C0582DC0000000E0FFFF1740000000A029461AC0000000C040B826C000000020000018400C00000013000000220000003C00000006000000020000000000006038461AC00000004039B826C00000002000E07E40000000A029461AC0000000C040B826C000000020000018400C000000130000002A0000003C
310
00000006000000020000000000006038461AC00000004039B826C00000002000E07E40000000A038461AC000000000837BE4BF0000002000E07E400C00000013000000320000003C0000000600000002000000000000A029461AC0000000C040B826C00000002000001840000000A038461AC000000000837BE4BF00000020
310
00E07E400C000000130000003A0000003C0000000600000002000000000000A029461AC0000000C040B826C00000002000001840000000E029461AC000000000F97BE4BF000000C0FFFF17400C00000013000000420000003C0000000600000002000000000000A038461AC000000000837BE4BF0000002000E07E40000000
310
E029461AC000000000F97BE4BF000000C0FFFF17400C000000130000004A0000003C0000000600000002000000000000201C232DC000000000B9582DC00000000000E07E40000000001C232DC000000080FCFF3DC00000000000E07E400C00000013000000520000003C0000000600000002000000000000001C232DC00000
310
0080FCFF3DC00000000000E07E40000000A014232DC00000002000003EC000000040000018400C000000130000005A0000003C0000000600000002000000000000201C232DC000000000B9582DC00000000000E07E40000000A014232DC00000002000003EC000000040000018400C00000013000000620000003C00000006
310
00000002000000000000C014232DC000000060C0582DC0000000E0FFFF1740000000A014232DC00000002000003EC000000040000018400C000000130000006A0000003C0000000600000002000000000000A038461AC000000000837BE4BF0000002000E07E40000000601C232DC0000000001B6405400000000000E07E40
310
0C00000013000000720000003C0000000600000002000000000000E029461AC000000000F97BE4BF000000C0FFFF1740000000601C232DC0000000001B6405400000000000E07E400C000000130000007A0000003C0000000600000002000000000000E029461AC000000000F97BE4BF000000C0FFFF17400000000015232D
310
C000000080FD63054000000040FFFF17400C00000013000000820000003C0000000600000002000000000000601C232DC0000000001B6405400000000000E07E400000000015232DC000000080FD63054000000040FFFF17400C000000130000008A0000003C0000000600000002000000000000001C232DC000000080FCFF
310
3DC00000000000E07E40000000209C0921C0000000A0FCFF3DC00000000000E07E400C00000013000000920000003C0000000600000002000000000000209C0921C0000000A0FCFF3DC00000000000E07E40000000C0940921C00000004000003EC000000080000018400C000000130000009A0000003C0000000600000002
310
000000000000001C232DC000000080FCFF3DC00000000000E07E40000000C0940921C00000004000003EC000000080000018400C00000013000000A20000003C0000000600000002000000000000A014232DC00000002000003EC00000004000001840000000C0940921C00000004000003EC000000080000018400C000000
310
13000000AA0000003C0000000600000002000000000000601C232DC0000000001B6405400000000000E07E40000000801C232DC0000000C003F73B400000000000E07E400C00000013000000B20000003C00000006000000020000000000000015232DC000000080FD63054000000040FFFF1740000000801C232DC0000000
310
C003F73B400000000000E07E400C00000013000000BA0000003C00000006000000020000000000000015232DC000000080FD63054000000040FFFF17400000004015232DC00000000000F73B40000000A0FEFF17400C00000013000000C20000003C0000000600000002000000000000801C232DC0000000C003F73B400000
310
000000E07E400000004015232DC00000000000F73B40000000A0FEFF17400C00000013000000CA0000003C0000000600000002000000000000209C0921C0000000A0FCFF3DC00000000000E07E40000000009C0921C000000040FEFF45C00000000000E07E400C00000013000000D20000003C000000060000000200000000
310
0000009C0921C000000040FEFF45C00000000000E07E40000000C0940921C000000040000046C000000000010018400C00000013000000DA0000003C0000000600000002000000000000209C0921C0000000A0FCFF3DC00000000000E07E40000000C0940921C000000040000046C000000000010018400C00000013000000
310
E20000003C0000000600000002000000000000C0940921C00000004000003EC00000008000001840000000C0940921C000000040000046C000000000010018400C00000013000000EA0000003C0000000600000002000000000000801C232DC0000000C003F73B400000000000E07E40000000801C6E2BC0000000C083513C
310
400000000000E07E400C00000013000000F20000003C00000006000000020000000000004015232DC00000000000F73B40000000A0FEFF1740000000801C6E2BC0000000C083513C400000000000E07E400C00000013000000FA0000003C00000006000000020000000000004015232DC00000000000F73B40000000A0FEFF
310
174000000020156E2BC00000000080513C4000000080FEFF17400C00000013000000020100003C0000000600000002000000000000801C6E2BC0000000C083513C400000000000E07E4000000020156E2BC00000000080513C4000000080FEFF17400C000000130000000A0100003C0000000600000002000000000000009C
310
0921C000000040FEFF45C00000000000E07E4000000000E453204000000060FEFF45C00000002000E07E400C00000013000000120100003C000000060000000200000000000000E453204000000060FEFF45C00000002000E07E4000000060EB53204000000020000046C000000060010018400C000000130000001A010000
310
3C0000000600000002000000000000009C0921C000000040FEFF45C00000000000E07E4000000060EB53204000000020000046C000000060010018400C00000013000000220100003C0000000600000002000000000000C0940921C000000040000046C0000000000100184000000060EB53204000000020000046C0000000
310
60010018400C000000130000002A0100003C0000000600000002000000000000801C6E2BC0000000C083513C400000000000E07E4000000060C7AC10400000000087DE24400000000000E07E400C00000013000000320100003C000000060000000200000000000020156E2BC00000000080513C4000000080FEFF17400000
310
0060C7AC10400000000087DE24400000000000E07E400C000000130000003A0100003C000000060000000200000000000020156E2BC00000000080513C4000000080FEFF174000000020D6AC1040000000807FDE2440000000A0FFFF17400C00000013000000420100003C000000060000000200000000000060C7AC104000
310
00000087DE24400000000000E07E4000000020D6AC1040000000807FDE2440000000A0FFFF17400C000000130000004A0100003C000000060000000200000000000000E453204000000060FEFF45C00000002000E07E4000000020904F074000000080BC533FC00000002000E07E400C00000013000000520100003C000000
310
060000000200000000000020904F074000000080BC533FC00000002000E07E40000000A0AD4F074000000020C0533FC0000000E0000018400C000000130000005A0100003C000000060000000200000000000000E453204000000060FEFF45C00000002000E07E40000000A0AD4F074000000020C0533FC0000000E0000018
310
400C00000013000000620100003C000000060000000200000000000060EB53204000000020000046C00000006001001840000000A0AD4F074000000020C0533FC0000000E0000018400C000000130000006A0100003C000000060000000200000000000060C7AC10400000000087DE24400000000000E07E40000000403C56
310
EB3F000000801B7A03400000002000E07E400C00000013000000720100003C000000060000000200000000000020D6AC1040000000807FDE2440000000A0FFFF1740000000403C56EB3F000000801B7A03400000002000E07E400C000000130000007A0100003C000000060000000200000000000020D6AC1040000000807F
310
DE2440000000A0FFFF174000000020B256EB3F00000000FE790340000000E0FFFF17400C00000013000000820100003C0000000600000002000000000000403C56EB3F000000801B7A03400000002000E07E4000000020B256EB3F00000000FE790340000000E0FFFF17400C000000130000008A0100003C00000006000000
310
0200000000000020904F074000000080BC533FC00000002000E07E400000000064B22F40000000203CF839C00000002000E07E400C00000013000000920100003C00000006000000020000000000000064B22F40000000203CF839C00000002000E07E40000000606BB22F40000000E03FF839C000000040010018400C0000
310
00130000009A0100003C000000060000000200000000000020904F074000000080BC533FC00000002000E07E40000000606BB22F40000000E03FF839C000000040010018400C00000013000000A20100003C0000000600000002000000000000A0AD4F074000000020C0533FC0000000E000001840000000606BB22F400000
310
00E03FF839C000000040010018400C00000013000000AA0100003C0000000600000002000000000000403C56EB3F000000801B7A03400000002000E07E40000000C063DE204000000020729414C00000002000E07E400C00000013000000B20100003C000000060000000200000000000020B256EB3F00000000FE79034000
310
0000E0FFFF1740000000C063DE204000000020729414C00000002000E07E400C00000013000000BA0100003C000000060000000200000000000020B256EB3F00000000FE790340000000E0FFFF1740000000206BDE2040000000E0809414C000000040000018400C00000013000000C20100003C0000000600000002000000
310
000000C063DE204000000020729414C00000002000E07E40000000206BDE2040000000E0809414C000000040000018400C00000013000000CA0100003C00000006000000020000000000000064B22F40000000203CF839C00000002000E07E40000000A0F1183540000000402E5243C00000000000E07E400C000000130000
310
00D20100003C0000000600000002000000000000A0F1183540000000402E5243C00000000000E07E4000000060F518354000000040305243C0000000C0010018400C00000013000000DA0100003C00000006000000020000000000000064B22F40000000203CF839C00000002000E07E4000000060F5183540000000403052
310
43C0000000C0010018400C00000013000000E20100003C0000000600000002000000000000606BB22F40000000E03FF839C0000000400100184000000060F518354000000040305243C0000000C0010018400C00000013000000EA0100003C0000000600000002000000000000C063DE204000000020729414C00000002000
310
E07E4000000080326F304000000000C84DFDBF0000000000E07E400C00000013000000F20100003C0000000600000002000000000000206BDE2040000000E0809414C0000000400000184000000080326F304000000000C84DFDBF0000000000E07E400C00000013000000FA0100003C000000060000000200000000000020
310
6BDE2040000000E0809414C0000000400000184000000020366F304000000000034EFDBF00000060000018400C00000013000000020200003C000000060000000200000000000080326F304000000000C84DFDBF0000000000E07E4000000020366F304000000000034EFDBF00000060000018400C000000130000000A0200
310
003C0000000600000002000000000000A0F1183540000000402E5243C00000000000E07E400000000059724040000000609CD83AC00000002000E07E400C00000013000000120200003C00000006000000020000000000000059724040000000609CD83AC00000002000E07E40000000E05A72404000000000A0D83AC00000
310
00A0010018400C000000130000001A0200003C0000000600000002000000000000A0F1183540000000402E5243C00000000000E07E40000000E05A72404000000000A0D83AC0000000A0010018400C00000013000000220200003C000000060000000200000000000060F518354000000040305243C0000000C00100184000
310
0000E05A72404000000000A0D83AC0000000A0010018400C000000130000002A0200003C000000060000000200000000000080326F304000000000C84DFDBF0000000000E07E4000000020B2453B4000000000785629C00000000000E07E400C00000013000000320200003C000000060000000200000000000020366F3040
310
00000000034EFDBF000000600000184000000020B2453B4000000000785629C00000000000E07E400C000000130000003A0200003C000000060000000200000000000020366F304000000000034EFDBF0000006000001840000000C0B5453B40000000407F5629C000000000010018400C00000013000000420200003C0000
310
00060000000200000000000020B2453B4000000000785629C00000000000E07E40000000C0B5453B40000000407F5629C000000000010018400C000000130000004A0200003C00000006000000020000000000000059724040000000609CD83AC00000002000E07E40000000A072FE3640000000805CF230C00000002000E0
310
7E400C00000013000000520200003C0000000600000002000000000000A072FE3640000000805CF230C00000002000E07E400000004076FE36400000004060F230C000000000010018400C000000130000005A0200003C00000006000000020000000000000059724040000000609CD83AC00000002000E07E400000004076
310
FE36400000004060F230C000000000010018400C00000013000000620200003C0000000600000002000000000000E05A72404000000000A0D83AC0000000A0010018400000004076FE36400000004060F230C000000000010018400C000000130000006A0200003C000000060000000200000000000020B2453B4000000000
310
785629C00000000000E07E40000000A072FE3640000000805CF230C00000002000E07E400C00000013000000720200003C0000000600000002000000000000C0B5453B40000000407F5629C00000000001001840000000A072FE3640000000805CF230C00000002000E07E400C000000130000007A0200003C000000060000
310
0002000000000000C0B5453B40000000407F5629C000000000010018400000004076FE36400000004060F230C000000000010018400C00000013000000820200003C0000000600000002000000000000601C232DC0000000006C48E03F0000002000E07E40000000401C232DC000000000E5CC0EC00000000000E07E400C00
310
0000130000008A0200003C0000000600000002000000000000401C232DC000000000E5CC0EC00000000000E07E40000000E014232DC00000008002CD0EC000000080FFFF17400C00000013000000920200003C0000000600000002000000000000601C232DC0000000006C48E03F0000002000E07E40000000E014232DC000
310
00008002CD0EC000000080FFFF17400C000000130000009A0200003C0000000600000002000000000000E014232DC00000008002CD0EC000000080FFFF1740000000E014232DC000000000F647E03F00000060FFFF17400C00000013000000A20200003C0000000600000002000000000000601C232DC0000000006C48E03F
310
0000002000E07E40000000E014232DC000000000F647E03F00000060FFFF17400C00000013000000AA0200003C0000000600000002000000000000601C232DC0000000006C48E03F0000002000E07E40000000601C2321C000000080C99FFFBF0000002000E07E400C00000013000000B20200003C00000006000000020000
310
00000000E014232DC000000000F647E03F00000060FFFF1740000000601C2321C000000080C99FFFBF0000002000E07E400C00000013000000BA0200003C0000000600000002000000000000E014232DC000000000F647E03F00000060FFFF174000000000152321C00000008004A0FFBF000000C0FFFF17400C0000001300
310
0000C20200003C0000000600000002000000000000601C2321C000000080C99FFFBF0000002000E07E4000000000152321C00000008004A0FFBF000000C0FFFF17400C00000013000000CA0200003C0000000600000002000000000000601C2321C000000080C99FFFBF0000002000E07E40000000601C2321C000000040F9
310
0B24C00000002000E07E400C00000013000000D20200003C000000060000000200000000000000152321C00000008004A0FFBF000000C0FFFF1740000000601C2321C000000040F90B24C00000002000E07E400C00000013000000DA0200003C000000060000000200000000000000152321C00000008004A0FFBF000000C0
310
FFFF174000000000152321C0000000C0000C24C000000000000018400C00000013000000E20200003C0000000600000002000000000000601C2321C000000040F90B24C00000002000E07E4000000000152321C0000000C0000C24C000000000000018400C00000013000000EA0200003C0000000600000002000000000000
310
601C2321C000000040F90B24C00000002000E07E40000000401C232DC000000040790429C00000000000E07E400C00000013000000F20200003C000000060000000200000000000000152321C0000000C0000C24C00000000000001840000000401C232DC000000040790429C00000000000E07E400C00000013000000FA02
310
00003C000000060000000200000000000000152321C0000000C0000C24C000000000000018400000000015232DC0000000C0800429C0000000E0FFFF17400C00000013000000020300003C0000000600000002000000000000401C232DC000000040790429C00000000000E07E400000000015232DC0000000C0800429C000
310
0000E0FFFF17400C000000130000000A0300003C0000000600000002000000000000401C232DC000000040790429C00000000000E07E40000000401C232DC000000040B94C20C00000000000E07E400C00000013000000120300003C00000006000000020000000000000015232DC0000000C0800429C0000000E0FFFF1740
310
000000401C232DC000000040B94C20C00000000000E07E400C000000130000001A0300003C00000006000000020000000000000015232DC0000000C0800429C0000000E0FFFF1740000000E014232DC0000000A0C04C20C0000000A0FFFF17400C00000013000000220300003C0000000600000002000000000000401C232D
310
C000000040B94C20C00000000000E07E40000000E014232DC0000000A0C04C20C0000000A0FFFF17400C000000130000002A0300003C0000000600000002000000000000009C0925C0000000A0FCFF3FC00000000000E07E40000000201C232DC0000000A0FCFF3FC00000002000E07E400C00000013000000320300003C00
310
00000600000002000000000000201C232DC0000000A0FCFF3FC00000002000E07E40000000A014232DC000000020000040C000000060000018400C000000130000003A0300003C0000000600000002000000000000009C0925C0000000A0FCFF3FC00000000000E07E40000000A014232DC000000020000040C00000006000
310
0018400C00000013000000420300003C0000000600000002000000000000A014232DC000000020000040C00000006000001840000000A0940925C000000020000040C000000080000018400C000000130000004A0300003C0000000600000002000000000000009C0925C0000000A0FCFF3FC00000000000E07E40000000A0
310
940925C000000020000040C000000080000018400C00000013000000520300003C000000060000000200000000000000E371224000000000FCE03EC00000000000E07E4000000000C81B1640000000A06E3440C00000002000E07E400C000000130000005A0300003C000000060000000200000000000000C81B1640000000
310
A06E3440C00000002000E07E40000000C0D61B164000000080703440C000000020010018400C00000013000000620300003C000000060000000200000000000000E371224000000000FCE03EC00000000000E07E40000000C0D61B164000000080703440C000000020010018400C000000130000006A0300003C0000000600
310
000002000000000000C0D61B164000000080703440C0000000200100184000000060EA712240000000E0FFE03EC000000000010018400C00000013000000720300003C000000060000000200000000000000E371224000000000FCE03EC00000000000E07E4000000060EA712240000000E0FFE03EC000000000010018400C
310
000000130000007A0300003C000000060000000200000000000000E371224000000000FCE03EC00000000000E07E400000002064292D40000000600EE845C00000000000E07E400C00000013000000820300003C000000060000000200000000000060EA712240000000E0FFE03EC000000000010018400000002064292D40
310
000000600EE845C00000000000E07E400C000000130000008A0300003C000000060000000200000000000060EA712240000000E0FFE03EC00000000001001840000000806B292D400000002010E845C0000000A0010018400C00000013000000920300003C00000006000000020000000000002064292D40000000600EE845
310
C00000000000E07E40000000806B292D400000002010E845C0000000A0010018400C000000130000009A0300003C00000006000000020000000000002064292D40000000600EE845C00000000000E07E4000000020B26D3040000000401E8645C00000000000E07E400C00000013000000A20300003C000000060000000200
310
0000000000806B292D400000002010E845C0000000A00100184000000020B26D3040000000401E8645C00000000000E07E400C00000013000000AA0300003C0000000600000002000000000000806B292D400000002010E845C0000000A001001840000000C0B56D304000000040208645C0000000A0010018400C00000013
310
000000B20300003C000000060000000200000000000020B26D3040000000401E8645C00000000000E07E40000000C0B56D304000000040208645C0000000A0010018400C00000013000000BA0300003C000000060000000200000000000020B26D3040000000401E8645C00000000000E07E40000000206524264000000080
310
FC1C3EC00000002000E07E400C00000013000000C20300003C0000000600000002000000000000C0B56D304000000040208645C0000000A001001840000000206524264000000080FC1C3EC00000002000E07E400C00000013000000CA0300003C0000000600000002000000000000C0B56D304000000040208645C0000000
310
A001001840000000606C24264000000020001D3EC000000020010018400C00000013000000D20300003C0000000600000002000000000000206524264000000080FC1C3EC00000002000E07E40000000606C24264000000020001D3EC000000020010018400C00000013000000DA0300003C00000006000000020000000000
310
00206524264000000080FC1C3EC00000002000E07E40000000E063882D40000000601C953CC00000000000E07E400C00000013000000E20300003C0000000600000002000000000000606C24264000000020001D3EC00000002001001840000000E063882D40000000601C953CC00000000000E07E400C00000013000000EA
310
0300003C0000000600000002000000000000606C24264000000020001D3EC00000002001001840000000606B882D400000004020953CC000000040010018400C00000013000000F20300003C0000000600000002000000000000E063882D40000000601C953CC00000000000E07E40000000606B882D400000004020953CC0
310
00000040010018400C00000013000000FA0300003C0000000600000002000000000000E063882D40000000601C953CC00000000000E07E40000000A032653440000000401E1645C00000000000E07E400C00000013000000020400003C0000000600000002000000000000606B882D400000004020953CC000000040010018
310
40000000A032653440000000401E1645C00000000000E07E400C000000130000000A0400003C0000000600000002000000000000606B882D400000004020953CC00000004001001840000000603665344000000040201645C0000000E0010018400C00000013000000120400003C0000000600000002000000000000A03265
310
3440000000401E1645C00000000000E07E40000000603665344000000040201645C0000000E0010018400C000000130000001A0400003C0000000600000002000000000000A032653440000000401E1645C00000000000E07E40000000A078DC4140000000609CD83AC00000002000E07E400C00000013000000220400003C
310
0000000600000002000000000000603665344000000040201645C0000000E001001840000000A078DC4140000000609CD83AC00000002000E07E400C000000130000002A0400003C0000000600000002000000000000603665344000000040201645C0000000E001001840000000807ADC414000000020A0D83AC0000000C0
310
010018400C00000013000000320400003C0000000600000002000000000000A078DC4140000000609CD83AC00000002000E07E40000000807ADC414000000020A0D83AC0000000C0010018400C000000130000003A0400003C0000000600000002000000000000A078DC4140000000609CD83AC00000002000E07E40000000
310
A071D23940000000805CF230C00000002000E07E400C00000013000000420400003C0000000600000002000000000000807ADC414000000020A0D83AC0000000C001001840000000A071D23940000000805CF230C00000002000E07E400C000000130000004A0400003C0000000600000002000000000000807ADC41400000
310
0020A0D83AC0000000C0010018400000002075D239400000000060F230C000000020010018400C00000013000000520400003C0000000600000002000000000000A071D23940000000805CF230C00000002000E07E400000002075D239400000000060F230C000000020010018400C000000130000005A0400003C00000006
310
00000002000000000000A071D23940000000805CF230C00000002000E07E4000000020B2AF3C40000000A0782A2CC00000000000E07E400C00000013000000620400003C00000006000000020000000000002075D239400000000060F230C0000000200100184000000020B2AF3C40000000A0782A2CC00000000000E07E40
310
0C000000130000006A0400003C00000006000000020000000000002075D239400000000060F230C00000002001001840000000C0B5AF3C4000000020802A2CC000000040010018400C00000013000000720400003C000000060000000200000000000020B2AF3C40000000A0782A2CC00000000000E07E40000000C0B5AF3C
310
4000000020802A2CC000000040010018400C000000130000007A0400003C0000000600000002000000000000A0E3A42740000000001C4006400000000000E07E40000000A0E4782A40000000008EC810400000000000E07E400C00000013000000820400003C0000000600000002000000000000A0E4782A40000000008EC8
310
10400000000000E07E4000000020EC782A40000000407FC8104000000040000018400C000000130000008A0400003C0000000600000002000000000000A0E3A42740000000001C4006400000000000E07E4000000020EC782A40000000407FC8104000000040000018400C00000013000000920400003C0000000600000002
310
00000000000020EC782A40000000407FC81040000000400000184000000000EBA4274000000080FE3F064000000020000018400C000000130000009A0400003C0000000600000002000000000000A0E3A42740000000001C4006400000000000E07E4000000000EBA4274000000080FE3F064000000020000018400C000000
310
13000000A20400003C0000000600000002000000000000A0E3A42740000000001C4006400000000000E07E40000000E0E2CE2D4000000000203FD3BF0000002000E07E400C00000013000000AA0400003C000000060000000200000000000000EBA4274000000080FE3F06400000002000001840000000E0E2CE2D40000000
310
00203FD3BF0000002000E07E400C00000013000000B20400003C000000060000000200000000000000EBA4274000000080FE3F0640000000200000184000000020EACE2D40000000000C40D3BF00000040000018400C00000013000000BA0400003C0000000600000002000000000000E0E2CE2D4000000000203FD3BF0000
310
002000E07E4000000020EACE2D40000000000C40D3BF00000040000018400C00000013000000C20400003C0000000600000002000000000000E0E2CE2D4000000000203FD3BF0000002000E07E4000000080093A23400000002030F003C00000000000E07E400C00000013000000CA0400003C000000060000000200000000
310
000020EACE2D40000000000C40D3BF000000400000184000000080093A23400000002030F003C00000000000E07E400C00000013000000D20400003C000000060000000200000000000020EACE2D40000000000C40D3BF0000004000001840000000E0103A2340000000A04DF003C000000020000018400C00000013000000
310
DA0400003C000000060000000200000000000080093A23400000002030F003C00000000000E07E40000000E0103A2340000000A04DF003C000000020000018400C00000013000000E20400003C000000060000000200000000000080093A23400000002030F003C00000000000E07E40000000C0E2CE214000000060E44906
310
C00000002000E07E400C00000013000000EA0400003C0000000600000002000000000000E0103A2340000000A04DF003C00000002000001840000000C0E2CE214000000060E44906C00000002000E07E400C00000013000000F20400003C0000000600000002000000000000E0103A2340000000A04DF003C0000000200000
310
184000000020EACE2140000000E0014A06C000000040000018400C00000013000000FA0400003C0000000600000002000000000000C0E2CE214000000060E44906C00000002000E07E4000000020EACE2140000000E0014A06C000000040000018400C00000013000000020500003C0000000600000002000000000000C0E2
310
CE214000000060E44906C00000002000E07E40000000208BB50940000000801B3B07400000002000E07E400C000000130000000A0500003C000000060000000200000000000020EACE2140000000E0014A06C00000004000001840000000208BB50940000000801B3B07400000002000E07E400C0000001300000012050000
310
3C000000060000000200000000000020EACE2140000000E0014A06C00000004000001840000000A0A8B5094000000000FE3A074000000000000018400C000000130000001A0500003C0000000600000002000000000000208BB50940000000801B3B07400000002000E07E40000000A0A8B5094000000000FE3A0740000000
310
00000018400C00000013000000220500003C0000000600000002000000000000208BB50940000000801B3B07400000002000E07E4000000040C9CB1640000000E0C6CE21400000000000E07E400C000000130000002A0500003C0000000600000002000000000000A0A8B5094000000000FE3A074000000000000018400000
310
0040C9CB1640000000E0C6CE21400000000000E07E400C00000013000000320500003C0000000600000002000000000000A0A8B5094000000000FE3A0740000000000000184000000020D8CB164000000080BFCE2140000000C0FFFF17400C000000130000003A0500003C000000060000000200000000000040C9CB164000
310
0000E0C6CE21400000000000E07E4000000020D8CB164000000080BFCE2140000000C0FFFF17400C00000013000000420500003C000000060000000200000000000040C9CB1640000000E0C6CE21400000000000E07E40000000A0E38F2140000000C08D4917400000000000E07E400C000000130000004A0500003C000000
310
060000000200000000000020D8CB164000000080BFCE2140000000C0FFFF1740000000A0E38F2140000000C08D4917400000000000E07E400C00000013000000520500003C000000060000000200000000000020D8CB164000000080BFCE2140000000C0FFFF174000000000EB8F2140000000407F491740000000E0FFFF17
310
400C000000130000005A0500003C0000000600000002000000000000A0E38F2140000000C08D4917400000000000E07E4000000000EB8F2140000000407F491740000000E0FFFF17400C00000013000000620500003C0000000600000002000000000000A0E38F2140000000C08D4917400000000000E07E40000000C0E363
310
2440000000000EF21C400000002000E07E400C000000130000006A0500003C000000060000000200000000000000EB8F2140000000407F491740000000E0FFFF1740000000C0E3632440000000000EF21C400000002000E07E400C00000013000000720500003C000000060000000200000000000000EB8F2140000000407F
310
491740000000E0FFFF174000000000EB63244000000040FFF11C40000000E0FFFF17400C000000130000007A0500003C0000000600000002000000000000C0E3632440000000000EF21C400000002000E07E4000000000EB63244000000040FFF11C40000000E0FFFF17400C00000013000000820500003C00000006000000
310
0200000000000020B2AF3C40000000A0782A2CC00000000000E07E40000000A0F84A4340000000607CFB37C00000000000E07E400C000000130000008A0500003C0000000600000002000000000000C0B5AF3C4000000020802A2CC00000004001001840000000A0F84A4340000000607CFB37C00000000000E07E400C0000
310
0013000000920500003C0000000600000002000000000000C0B5AF3C4000000020802A2CC0000000400100184000000080FA4A43400000002080FB37C0000000C0010018400C000000130000009A0500003C0000000600000002000000000000A0F84A4340000000607CFB37C00000000000E07E4000000080FA4A43400000
310
002080FB37C0000000C0010018400C00000013000000A20500003C0000000600000002000000000000A0E4782A40000000008EC810400000000000E07E4000000020F9FF4340000000607C9136C00000002000E07E400C00000013000000AA0500003C000000060000000200000000000020F9FF4340000000607C9136C000
310
00002000E07E4000000000FBFF434000000000809136C0000000C0010018400C00000013000000B20500003C0000000600000002000000000000A0E4782A40000000008EC810400000000000E07E4000000000FBFF434000000000809136C0000000C0010018400C00000013000000BA0500003C0000000600000002000000
310
00000020EC782A40000000407FC81040000000400000184000000000FBFF434000000000809136C0000000C0010018400C00000013000000C20500003C0000000600000002000000000000009C0925C0000000A0FCFF3FC00000000000E07E40000000009C0925C000000060FEFF46C00000000000E07E400C000000130000
310
00CA0500003C0000000600000002000000000000A0940925C000000020000040C00000008000001840000000009C0925C000000060FEFF46C00000000000E07E400C00000013000000D20500003C0000000600000002000000000000A0940925C000000020000040C0000000800000184000000080940925C0000000400000
310
47C000000000010018400C00000013000000DA0500003C0000000600000002000000000000009C0925C000000060FEFF46C00000000000E07E4000000080940925C000000040000047C000000000010018400C00000013000000E20500003C000000060000000200000000000000C81B1640000000A06E3440C00000002000
310
E07E40000000406350264000000060FEFF46C00000002000E07E400C00000013000000EA0500003C0000000600000002000000000000406350264000000060FEFF46C00000002000E07E40000000A06A50264000000040000047C000000080010018400C00000013000000F20500003C000000060000000200000000000000
310
C81B1640000000A06E3440C00000002000E07E40000000A06A50264000000040000047C000000080010018400C00000013000000FA0500003C0000000600000002000000000000C0D61B164000000080703440C00000002001001840000000A06A50264000000040000047C000000080010018400C00000013000000020600
310
003C0000000600000002000000000000201C232DC0000000A0FCFF3FC00000002000E07E40000000E01B232DC000000040FEFF46C00000000000E07E400C000000130000000A0600003C0000000600000002000000000000E01B232DC000000040FEFF46C00000000000E07E400000008014232DC000000020000047C00000
310
00C0000018400C00000013000000120600003C0000000600000002000000000000201C232DC0000000A0FCFF3FC00000002000E07E400000008014232DC000000020000047C0000000C0000018400C000000130000001A0600003C0000000600000002000000000000A014232DC000000020000040C0000000600000184000
310
00008014232DC000000020000047C0000000C0000018400C00000013000000220600003C0000000600000002000000000000401C232DC000000040B94C20C00000000000E07E40000000208E9130C000000040B94C20C00000002000E07E400C000000130000002A0600003C0000000600000002000000000000E014232DC0
310
000000A0C04C20C0000000A0FFFF1740000000208E9130C000000040B94C20C00000002000E07E400C00000013000000320600003C0000000600000002000000000000E014232DC0000000A0C04C20C0000000A0FFFF1740000000608A9130C0000000A0C04C20C0000000A0FFFF17400C000000130000003A0600003C0000
310
000600000002000000000000208E9130C000000040B94C20C00000002000E07E40000000608A9130C0000000A0C04C20C0000000A0FFFF17400C00000013000000420600003C0000000600000002000000000000401C232DC000000000E5CC0EC00000000000E07E40000000008E9130C000000000E5CC0EC00000000000E0
310
7E400C000000130000004A0600003C0000000600000002000000000000008E9130C000000000E5CC0EC00000000000E07E40000000808A9130C0000000A002CD0EC000000080FFFF17400C00000013000000520600003C0000000600000002000000000000401C232DC000000000E5CC0EC00000000000E07E40000000808A
310
9130C0000000A002CD0EC000000080FFFF17400C000000130000005A0600003C0000000600000002000000000000E014232DC00000008002CD0EC000000080FFFF1740000000808A9130C0000000A002CD0EC000000080FFFF17400C00000013000000620600003C000000060000000200000000000020156E2FC0000000E0
310
BF92404000000060FEFF1740000000801C6E2FC0000000A0C19240400000000000E07E400C000000130000006A0600003C0000000600000002000000000000801C6E2FC0000000A0C19240400000000000E07E40000000801C6E2BC0000000C083253F400000000000E07E400C00000013000000720600003C000000060000
310
000200000000000020156E2FC0000000E0BF92404000000060FEFF1740000000801C6E2BC0000000C083253F400000000000E07E400C000000130000007A0600003C0000000600000002000000000000C0E3632440000000000EF21C400000002000E07E40000000801C6E2BC0000000C083253F400000000000E07E400C00
310
000013000000820600003C000000060000000200000000000000EB63244000000040FFF11C40000000E0FFFF1740000000801C6E2BC0000000C083253F400000000000E07E400C000000130000008A0600003C000000060000000200000000000000EB63244000000040FFF11C40000000E0FFFF174000000020156E2FC000
310
0000E0BF92404000000060FEFF17400C00000013000000920600003C000000060000000200000000000080FA4A43400000002080FB37C0000000C00100184000000000FBFF434000000000809136C0000000C0010018400C000000130000009A0600003C0000000600000002000000000000C0B5AF3C4000000020802A2CC0
310
000000400100184000000000FBFF434000000000809136C0000000C0010018400C00000013000000A20600003C0000000600000002000000000000C0B5453B40000000407F5629C0000000000100184000000000FBFF434000000000809136C0000000C0010018400C00000013000000AA0600003C00000006000000020000
310
00000000C0B5453B40000000407F5629C00000000001001840000000C0B5AF3C4000000020802A2CC000000040010018400C00000013000000B20600003C0000000600000002000000000000C0B5453B40000000407F5629C000000000010018400000002075D239400000000060F230C000000020010018400C0000001300
310
0000BA0600003C00000006000000020000000000004076FE36400000004060F230C000000000010018400000002075D239400000000060F230C000000020010018400C00000013000000C20600003C0000000600000002000000000000E05A72404000000000A0D83AC0000000A001001840000000807ADC414000000020A0
310
D83AC0000000C0010018400C00000013000000CA0600003C0000000600000002000000000000E05A72404000000000A0D83AC0000000A0010018400000002075D239400000000060F230C000000020010018400C00000013000000D20600003C000000060000000200000000000020366F304000000000034EFDBF00000060
310
0000184000000020EC782A40000000407FC8104000000040000018400C00000013000000DA0600003C000000060000000200000000000020366F304000000000034EFDBF000000600000184000000000FBFF434000000000809136C0000000C0010018400C00000013000000E20600003C0000000600000002000000000000
310
20D6AC1040000000807FDE2440000000A0FFFF174000000020D8CB164000000080BFCE2140000000C0FFFF17400C00000013000000EA0600003C000000060000000200000000000020D6AC1040000000807FDE2440000000A0FFFF174000000000EB8F2140000000407F491740000000E0FFFF17400C00000013000000F206
310
00003C000000060000000200000000000020D6AC1040000000807FDE2440000000A0FFFF174000000000EB63244000000040FFF11C40000000E0FFFF17400C00000013000000FA0600003C000000060000000200000000000020156E2BC00000000080513C4000000080FEFF174000000020156E2FC0000000E0BF92404000
310
000060FEFF17400C00000013000000020700003C000000060000000200000000000020D6AC1040000000807FDE2440000000A0FFFF174000000020156E2FC0000000E0BF92404000000060FEFF17400C000000130000000A0700003C000000060000000200000000000020D6AC1040000000807FDE2440000000A0FFFF1740
310
000000A0A8B5094000000000FE3A074000000000000018400C00000013000000120700003C000000060000000200000000000020B256EB3F00000000FE790340000000E0FFFF1740000000A0A8B5094000000000FE3A074000000000000018400C000000130000001A0700003C000000060000000200000000000020B256EB
310
3F00000000FE790340000000E0FFFF174000000020EACE2140000000E0014A06C000000040000018400C00000013000000220700003C0000000600000002000000000000206BDE2040000000E0809414C0000000400000184000000020EACE2140000000E0014A06C000000040000018400C000000130000002A0700003C00
310
00000600000002000000000000206BDE2040000000E0809414C00000004000001840000000E0103A2340000000A04DF003C000000020000018400C00000013000000320700003C0000000600000002000000000000206BDE2040000000E0809414C0000000400000184000000020EACE2D40000000000C40D3BF0000004000
310
0018400C000000130000003A0700003C000000060000000200000000000020366F304000000000034EFDBF000000600000184000000020EACE2D40000000000C40D3BF00000040000018400C00000013000000420700003C000000060000000200000000000020EC782A40000000407FC81040000000400000184000000020
310
EACE2D40000000000C40D3BF00000040000018400C000000130000004A0700003C00000006000000020000000000004015232DC00000000000F73B40000000A0FEFF1740000000A08A9130C0000000008065404000000080FEFF17400C00000013000000520700003C000000060000000200000000000020156E2FC0000000
310
E0BF92404000000060FEFF1740000000A08A9130C0000000008065404000000080FEFF17400C000000130000005A0700003C00000006000000020000000000004015232DC00000000000F73B40000000A0FEFF174000000020156E2FC0000000E0BF92404000000060FEFF17400C00000013000000620700003C0000000600
310
0000020000000000000015232DC000000080FD63054000000040FFFF1740000000808A9130C0000000A002CD0EC000000080FFFF17400C000000130000006A0700003C0000000600000002000000000000808A9130C0000000A002CD0EC000000080FFFF1740000000A08A9130C0000000008065404000000080FEFF17400C
310
00000013000000720700003C00000006000000020000000000000015232DC000000080FD63054000000040FFFF1740000000A08A9130C0000000008065404000000080FEFF17400C000000130000007A0700003C00000006000000020000000000000015232DC0000000C0800429C0000000E0FFFF1740000000608A9130C0
310
000000A0C04C20C0000000A0FFFF17400C00000013000000820700003C0000000600000002000000000000C014232DC000000060C0582DC0000000E0FFFF1740000000608A9130C0000000A0C04C20C0000000A0FFFF17400C000000130000008A0700003C0000000600000002000000000000C014232DC000000060C0582D
310
C0000000E0FFFF17400000000015232DC0000000C0800429C0000000E0FFFF17400C00000013000000920700003C0000000600000002000000000000C014232DC000000060C0582DC0000000E0FFFF174000000000152321C0000000C0000C24C000000000000018400C000000130000009A0700003C000000060000000200
310
0000000000A029461AC0000000C040B826C0000000200000184000000000152321C0000000C0000C24C000000000000018400C00000013000000A20700003C0000000600000002000000000000A029461AC0000000C040B826C0000000200000184000000000152321C00000008004A0FFBF000000C0FFFF17400C00000013
310
000000AA0700003C0000000600000002000000000000E029461AC000000000F97BE4BF000000C0FFFF174000000000152321C00000008004A0FFBF000000C0FFFF17400C00000013000000B20700003C0000000600000002000000000000E029461AC000000000F97BE4BF000000C0FFFF1740000000E014232DC000000000
310
F647E03F00000060FFFF17400C00000013000000BA0700003C00000006000000020000000000000015232DC000000080FD63054000000040FFFF1740000000E014232DC000000000F647E03F00000060FFFF17400C00000013000000C20700003C0000000600000002000000000000E014232DC000000000F647E03F000000
310
60FFFF1740000000808A9130C0000000A002CD0EC000000080FFFF17400C00000013000000CA0700003C0000000600000002000000000000A014232DC00000002000003EC00000004000001840000000608A9130C0000000A0C04C20C0000000A0FFFF17400C00000013000000D20700003C00000006000000020000000000
310
00A014232DC00000002000003EC00000004000001840000000A014232DC000000020000040C000000060000018400C00000013000000DA0700003C0000000600000002000000000000A014232DC000000020000040C00000006000001840000000608A9130C0000000A0C04C20C0000000A0FFFF17400C00000013000000E2
310
0700003C00000006000000020000000000008014232DC000000020000047C0000000C000001840000000608A9130C000000040000047C0000000C0000018400C00000013000000EA0700003C0000000600000002000000000000A014232DC000000020000040C00000006000001840000000608A9130C000000040000047C0
310
000000C0000018400C00000013000000F20700003C0000000600000002000000000000608A9130C0000000A0C04C20C0000000A0FFFF1740000000608A9130C000000040000047C0000000C0000018400C00000013000000FA0700003C0000000600000002000000000000C0940921C000000040000046C000000000010018
310
4000000080940925C000000040000047C000000000010018400C00000013000000020800003C0000000600000002000000000000C0940921C000000040000046C00000000001001840000000A0940925C000000020000040C000000080000018400C000000130000000A0800003C0000000600000002000000000000C09409
310
21C00000004000003EC00000008000001840000000A0940925C000000020000040C000000080000018400C00000013000000120800003C0000000600000002000000000000A014232DC00000002000003EC00000004000001840000000A0940925C000000020000040C000000080000018400C000000130000001A0800003C
310
000000060000000200000000000060EB53204000000020000046C00000006001001840000000A06A50264000000040000047C000000080010018400C00000013000000220800003C000000060000000200000000000080940925C000000040000047C00000000001001840000000A06A50264000000040000047C000000080
310
010018400C000000130000002A0800003C000000060000000200000000000060EB53204000000020000046C0000000600100184000000080940925C000000040000047C000000000010018400C00000013000000320800003C0000000600000002000000000000606BB22F40000000E03FF839C00000004001001840000000
310
606B882D400000004020953CC000000040010018400C000000130000003A0800003C000000060000000200000000000060F518354000000040305243C0000000C001001840000000606B882D400000004020953CC000000040010018400C00000013000000420800003C000000060000000200000000000060F51835400000
310
0040305243C0000000C001001840000000603665344000000040201645C0000000E0010018400C000000130000004A0800003C0000000600000002000000000000A0AD4F074000000020C0533FC0000000E000001840000000606C24264000000020001D3EC000000020010018400C00000013000000520800003C00000006
310
00000002000000000000606BB22F40000000E03FF839C00000004001001840000000606C24264000000020001D3EC000000020010018400C000000130000005A0800003C000000060000000200000000000060EA712240000000E0FFE03EC00000000001001840000000C0B56D304000000040208645C0000000A001001840
310
0C00000013000000620800003C000000060000000200000000000060EA712240000000E0FFE03EC00000000001001840000000606C24264000000020001D3EC000000020010018400C000000130000006A0800003C0000000600000002000000000000A0AD4F074000000020C0533FC0000000E00000184000000060EA7122
310
40000000E0FFE03EC000000000010018400C00000013000000720800003C0000000600000002000000000000A0AD4F074000000020C0533FC0000000E000001840000000C0D61B164000000080703440C000000020010018400C000000130000007A0800003C000000060000000200000000000060EB532040000000200000
310
46C00000006001001840000000C0D61B164000000080703440C000000020010018400C00000013000000820800003C0000000600000002000000000000E05A72404000000000A0D83AC0000000A001001840000000603665344000000040201645C0000000E0010018400C000000130000008A0800003C0000000600000002
310
00000000000060C7AC10400000000087DE24400000000000E07E40000000C0E3632440000000000EF21C400000002000E07E400C00000013000000920800003C000000060000000200000000000060C7AC10400000000087DE24400000000000E07E40000000801C6E2BC0000000C083253F400000000000E07E400C000000
310
130000009A0800003C0000000600000002000000000000801C6E2BC0000000C083513C400000000000E07E40000000801C6E2BC0000000C083253F400000000000E07E400C00000013000000A20800003C0000000600000002000000000000A0E4782A40000000008EC810400000000000E07E40000000E0E2CE2D40000000
310
00203FD3BF0000002000E07E400C00000013000000AA0800003C000000060000000200000000000080326F304000000000C84DFDBF0000000000E07E40000000E0E2CE2D4000000000203FD3BF0000002000E07E400C00000013000000B20800003C000000060000000200000000000080326F304000000000C84DFDBF0000
310
000000E07E40000000A0E4782A40000000008EC810400000000000E07E400C00000013000000BA0800003C000000060000000200000000000080326F304000000000C84DFDBF0000000000E07E4000000080093A23400000002030F003C00000000000E07E400C00000013000000C20800003C000000060000000200000000
310
000080326F304000000000C84DFDBF0000000000E07E40000000C0E2CE214000000060E44906C00000002000E07E400C00000013000000CA0800003C0000000600000002000000000000C063DE204000000020729414C00000002000E07E40000000C0E2CE214000000060E44906C00000002000E07E400C00000013000000
310
D20800003C0000000600000002000000000000C063DE204000000020729414C00000002000E07E40000000208BB50940000000801B3B07400000002000E07E400C00000013000000DA0800003C0000000600000002000000000000403C56EB3F000000801B7A03400000002000E07E40000000208BB50940000000801B3B07
310
400000002000E07E400C00000013000000E20800003C0000000600000002000000000000403C56EB3F000000801B7A03400000002000E07E4000000040C9CB1640000000E0C6CE21400000000000E07E400C00000013000000EA0800003C000000060000000200000000000060C7AC10400000000087DE24400000000000E0
310
7E4000000040C9CB1640000000E0C6CE21400000000000E07E400C00000013000000F20800003C000000060000000200000000000040C9CB1640000000E0C6CE21400000000000E07E40000000C0E3632440000000000EF21C400000002000E07E400C00000013000000FA0800003C000000060000000200000000000020B2
310
453B4000000000785629C00000000000E07E4000000020F9FF4340000000607C9136C00000002000E07E400C00000013000000020900003C000000060000000200000000000020B2453B4000000000785629C00000000000E07E40000000A0E4782A40000000008EC810400000000000E07E400C000000130000000A090000
310
3C00000006000000020000000000000059724040000000609CD83AC00000002000E07E40000000A078DC4140000000609CD83AC00000002000E07E400C00000013000000120900003C00000006000000020000000000000059724040000000609CD83AC00000002000E07E40000000A071D23940000000805CF230C0000000
310
2000E07E400C000000130000001A0900003C0000000600000002000000000000A072FE3640000000805CF230C00000002000E07E40000000A071D23940000000805CF230C00000002000E07E400C00000013000000220900003C0000000600000002000000000000A072FE3640000000805CF230C00000002000E07E400000
310
0020B2AF3C40000000A0782A2CC00000000000E07E400C000000130000002A0900003C000000060000000200000000000020B2453B4000000000785629C00000000000E07E4000000020B2AF3C40000000A0782A2CC00000000000E07E400C00000013000000320900003C0000000600000002000000000000A0F84A434000
310
0000607CFB37C00000000000E07E4000000020F9FF4340000000607C9136C00000002000E07E400C000000130000003A0900003C000000060000000200000000000020B2AF3C40000000A0782A2CC00000000000E07E4000000020F9FF4340000000607C9136C00000002000E07E400C00000013000000420900003C000000
310
0600000002000000000000A0F1183540000000402E5243C00000000000E07E40000000A032653440000000401E1645C00000000000E07E400C000000130000004A0900003C0000000600000002000000000000A0F1183540000000402E5243C00000000000E07E40000000A078DC4140000000609CD83AC00000002000E07E
310
400C00000013000000520900003C000000060000000200000000000020904F074000000080BC533FC00000002000E07E4000000000C81B1640000000A06E3440C00000002000E07E400C000000130000005A0900003C000000060000000200000000000000E453204000000060FEFF45C00000002000E07E4000000000C81B
310
1640000000A06E3440C00000002000E07E400C00000013000000620900003C000000060000000200000000000000E453204000000060FEFF45C00000002000E07E40000000406350264000000060FEFF46C00000002000E07E400C000000130000006A0900003C00000006000000020000000000000064B22F40000000203C
310
F839C00000002000E07E4000000000E371224000000000FCE03EC00000000000E07E400C00000013000000720900003C000000060000000200000000000020904F074000000080BC533FC00000002000E07E4000000000E371224000000000FCE03EC00000000000E07E400C000000130000007A0900003C00000006000000
310
020000000000002064292D40000000600EE845C00000000000E07E40000000206524264000000080FC1C3EC00000002000E07E400C00000013000000820900003C000000060000000200000000000000E371224000000000FCE03EC00000000000E07E40000000206524264000000080FC1C3EC00000002000E07E400C0000
310
00130000008A0900003C000000060000000200000000000000E371224000000000FCE03EC00000000000E07E40000000E063882D40000000601C953CC00000000000E07E400C00000013000000920900003C00000006000000020000000000000064B22F40000000203CF839C00000002000E07E40000000E063882D400000
310
00601C953CC00000000000E07E400C000000130000009A0900003C0000000600000002000000000000A0F1183540000000402E5243C00000000000E07E40000000E063882D40000000601C953CC00000000000E07E400C00000013000000A20900003C0000000600000002000000000000009C0921C000000040FEFF45C000
310
00000000E07E40000000009C0925C000000060FEFF46C00000000000E07E400C00000013000000AA0900003C0000000600000002000000000000009C0925C000000060FEFF46C00000000000E07E40000000406350264000000060FEFF46C00000002000E07E400C00000013000000B20900003C0000000600000002000000
310
000000009C0921C000000040FEFF45C00000000000E07E40000000406350264000000060FEFF46C00000002000E07E400C00000013000000BA0900003C0000000600000002000000000000E01B232DC000000040FEFF46C00000000000E07E40000000E08D9130C000000060FEFF46C00000000000E07E400C000000130000
310
00C20900003C0000000600000002000000000000201C232DC0000000A0FCFF3FC00000002000E07E40000000E08D9130C000000060FEFF46C00000000000E07E400C00000013000000CA0900003C0000000600000002000000000000001C232DC000000080FCFF3DC00000000000E07E40000000E08D9130C000000060FEFF
310
46C00000000000E07E400C00000013000000D20900003C0000000600000002000000000000001C232DC000000080FCFF3DC00000000000E07E40000000201C232DC0000000A0FCFF3FC00000002000E07E400C00000013000000DA0900003C0000000600000002000000000000001C232DC000000080FCFF3DC00000000000
310
E07E40000000009C0925C0000000A0FCFF3FC00000000000E07E400C00000013000000E20900003C0000000600000002000000000000209C0921C0000000A0FCFF3DC00000000000E07E40000000009C0925C0000000A0FCFF3FC00000000000E07E400C00000013000000EA0900003C000000060000000200000000000000
310
9C0921C000000040FEFF45C00000000000E07E40000000009C0925C0000000A0FCFF3FC00000000000E07E400C00000013000000F20900003C0000000600000002000000000000201C232DC000000000B9582DC00000000000E07E40000000208E9130C000000040B94C20C00000002000E07E400C00000013000000FA0900
310
003C0000000600000002000000000000208E9130C000000040B94C20C00000002000E07E40000000E08D9130C000000060FEFF46C00000000000E07E400C00000013000000020A00003C0000000600000002000000000000201C232DC000000000B9582DC00000000000E07E40000000E08D9130C000000060FEFF46C00000
310
000000E07E400C000000130000000A0A00003C0000000600000002000000000000601C232DC0000000006C48E03F0000002000E07E40000000008E9130C000000000E5CC0EC00000000000E07E400C00000013000000120A00003C0000000600000002000000000000601C232DC0000000001B6405400000000000E07E4000
310
0000008E9130C000000000E5CC0EC00000000000E07E400C000000130000001A0A00003C0000000600000002000000000000601C232DC0000000001B6405400000000000E07E40000000601C232DC0000000006C48E03F0000002000E07E400C00000013000000220A00003C0000000600000002000000000000601C232DC0
310
000000001B6405400000000000E07E40000000601C2321C000000080C99FFFBF0000002000E07E400C000000130000002A0A00003C0000000600000002000000000000A038461AC000000000837BE4BF0000002000E07E40000000601C2321C000000080C99FFFBF0000002000E07E400C00000013000000320A00003C0000
310
000600000002000000000000A038461AC000000000837BE4BF0000002000E07E40000000601C2321C000000040F90B24C00000002000E07E400C000000130000003A0A00003C00000006000000020000000000006038461AC00000004039B826C00000002000E07E40000000601C2321C000000040F90B24C00000002000E0
310
7E400C00000013000000420A00003C00000006000000020000000000006038461AC00000004039B826C00000002000E07E40000000401C232DC000000040790429C00000000000E07E400C000000130000004A0A00003C0000000600000002000000000000201C232DC000000000B9582DC00000000000E07E40000000401C
310
232DC000000040790429C00000000000E07E400C00000013000000520A00003C0000000600000002000000000000401C232DC000000040790429C00000000000E07E40000000208E9130C000000040B94C20C00000002000E07E400C000000130000005A0A00003C0000000600000002000000000000801C232DC0000000C0
310
03F73B400000000000E07E40000000008E9130C000000000E5CC0EC00000000000E07E400C00000013000000620A00003C0000000600000002000000000000008E9130C000000000E5CC0EC00000000000E07E40000000408E9130C0000000C0816540400000000000E07E400C000000130000006A0A00003C000000060000
310
0002000000000000801C232DC0000000C003F73B400000000000E07E40000000408E9130C0000000C0816540400000000000E07E400C00000013000000720A00003C0000000600000002000000000000801C232DC0000000C003F73B400000000000E07E40000000801C6E2BC0000000C083253F400000000000E07E400C00
310
0000130000007A0A00003C0000000600000002000000000000801C232DC0000000C003F73B400000000000E07E40000000801C6E2FC0000000A0C19240400000000000E07E400C00000013000000820A00003C0000000600000002000000000000801C6E2FC0000000A0C19240400000000000E07E40000000408E9130C000
310
0000C0816540400000000000E07E400C000000130000008A0A00003C000000060000000200000000000080FA4A43400000002080FB37C0000000C00100184000000020F9FF4340000000607C9136C00000002000E07E400C00000013000000920A00003C000000060000000200000000000080940925C000000040000047C0
310
0000000001001840000000406350264000000060FEFF46C00000002000E07E400C000000130000009A0A00003C0000000600000002000000000000608A9130C000000040000047C0000000C000001840000000E08D9130C000000060FEFF46C00000000000E07E400C00000013000000A20A00003C00000006000000020000
310
00000000E01B232DC000000040FEFF46C00000000000E07E40000000608A9130C000000040000047C0000000C0000018400C00000013000000AA0A00003C0000000600000002000000000000608A9130C0000000A0C04C20C0000000A0FFFF1740000000E08D9130C000000060FEFF46C00000000000E07E400C0000001300
310
0000B20A00003C0000000600000002000000000000A08A9130C0000000008065404000000080FEFF1740000000408E9130C0000000C0816540400000000000E07E400C00000013000000BA0A00003C0000000600000002000000000000008E9130C000000000E5CC0EC00000000000E07E40000000A08A9130C00000000080
310
65404000000080FEFF17400C00000013000000C20A00003C000000060000000200000000000020156E2FC0000000E0BF92404000000060FEFF1740000000408E9130C0000000C0816540400000000000E07E40
100
AcDbSubDMesh
 71
     2
 72
     0
 91
        0
 92
      115
 10
-6.568574428558349
 20
-11.35981178283691
 30
494.0000305175781
 10
-14.56857395172119
 20
-14.67328643798828
 30
494.0
 10
-14.56851768493652
 20
-14.67334270477295
 30
5.999999523162841
 10
-6.568518161773681
 20
-11.3598690032959
 30
6.000000476837158
 10
-6.568575382232666
 20
-0.6400771141052246
 30
494.0000305175781
 10
-6.568519115447998
 20
-0.6401333808898926
 30
5.999999046325683
 10
-14.56857299804687
 20
-29.99994659423828
 30
494.0
 10
-14.56851673126221
 20
-30.00000190734863
 30
6.000000953674316
 10
-14.56857585906982
 20
2.673879623413085
 30
494.0
 10
-14.56851959228515
 20
2.673823356628417
 30
5.99999713897705
 10
-8.518769264221191
 20
-29.99994850158691
 30
494.0
 10
-8.518712997436523
 20
-30.00000381469727
 30
6.000001907348632
 10
-14.56857681274414
 20
27.96490097045899
 30
494.0
 10
-14.56852149963379
 20
27.96484375
 30
5.999994754791259
 10
-8.518768310546875
 20
-43.99994659423827
 30
494.0
 10
-8.518712997436523
 20
-44.00000762939453
 30
6.000003814697265
 10
-13.71506118774414
 20
28.31841659545899
 30
494.0
 10
-13.71500492095947
 20
28.318359375
 30
5.999994277954101
 10
8.163848876953125
 20
-43.99995040893554
 30
494.0000305175781
 10
8.163905143737792
 20
-44.00000381469726
 30
6.00000524520874
 10
4.168729305267333
 20
10.43462371826172
 30
494.0
 10
4.168785572052001
 20
10.43456649780273
 30
5.999998569488525
 10
2.913849115371704
 20
-31.32709503173828
 30
494.0000305175781
 10
2.913905382156372
 20
-31.32715034484863
 30
6.000003337860107
 10
0.8542767763137817
 20
2.434622764587402
 30
494.0000305175781
 10
0.8543329834938049
 20
2.434566497802734
 30
5.999999523162841
 10
15.84841918945312
 20
-25.96966743469238
 30
494.0000305175781
 10
15.84847545623779
 20
-25.96972465515137
 30
6.000004768371582
 10
8.434354782104492
 20
-5.144966602325439
 30
494.0000305175781
 10
8.43441104888916
 20
-5.145022869110107
 30
6.000000953674316
 10
21.09743690490723
 20
-38.64203643798828
 30
494.0
 10
21.09749412536621
 20
-38.64209747314453
 30
6.000006675720214
 10
16.43436431884765
 20
-1.831489562988281
 30
494.0
 10
16.43441963195801
 20
-1.831545829772949
 30
6.000001430511474
 10
32.89334106445313
 20
-26.84613609313965
 30
494.0000305175781
 10
32.89339828491211
 20
-26.84619140625
 30
6.000006198883056
 10
27.27224922180176
 20
-12.66888427734375
 30
494.0
 10
27.27230453491211
 20
-12.6689395904541
 30
6.000003814697265
 10
22.99393653869629
 20
-16.94672393798828
 30
494.0000305175781
 10
22.99399185180664
 20
-16.94678115844726
 30
6.000003814697265
 10
-14.56857585906982
 20
0.508840560913086
 30
494.0000305175781
 10
-14.56857490539551
 20
-3.850046157836914
 30
494.0
 10
-14.56851863861084
 20
-3.850102424621582
 30
5.999998092651367
 10
-14.56851863861084
 20
0.508784294128418
 30
5.999997615814208
 10
-8.568575859069824
 20
-1.976510524749755
 30
494.0000305175781
 10
-8.568519592285156
 20
-1.976566791534423
 30
5.999999046325683
 10
-8.568575859069824
 20
-10.02338600158691
 30
494.0000305175781
 10
-8.568519592285156
 20
-10.0234432220459
 30
6.0
 10
-14.56857490539551
 20
-12.50873756408691
 30
494.0
 10
-14.56851959228515
 20
-12.5087947845459
 30
5.999999523162841
 10
-14.56857490539551
 20
-8.149850845336914
 30
494.0
 10
-14.56851863861084
 20
-8.149907112121582
 30
5.999998569488525
 10
-10.51876831054687
 20
-31.99994850158692
 30
494.0
 10
-14.56857395172119
 20
-31.99994850158692
 30
494.0000305175781
 10
-14.56851673126221
 20
-32.00000381469727
 30
6.000001430511474
 10
-10.51871204376221
 20
-32.00000381469727
 30
6.000001907348632
 10
9.222434997558593
 20
-30.87884521484375
 30
494.0
 10
5.527130126953125
 20
-32.40962600708008
 30
494.0000305175781
 10
5.527186393737792
 20
-32.40968322753906
 30
6.000004291534423
 10
9.222491264343261
 20
-30.87890434265137
 30
6.000003814697265
 10
14.58084201812744
 20
-43.81293869018555
 30
494.0
 10
14.58089828491211
 20
-43.81299209594726
 30
6.000006198883056
 10
16.42849922180175
 20
-43.04779815673827
 30
494.0
 10
16.42855453491211
 20
-43.04785919189453
 30
6.000006198883056
 10
11.07108402252197
 20
-30.11322784423828
 30
494.0000305175781
 10
11.07113933563232
 20
-30.11328315734863
 30
6.000004291534423
 10
14.76638698577881
 20
-28.58246421813965
 30
494.0
 10
14.76644420623779
 20
-28.58252334594727
 30
6.000004768371582
 10
20.39530372619629
 20
-42.17279815673828
 30
494.0
 10
20.39536094665527
 20
-42.17285919189452
 30
6.000007152557373
 10
35.72243118286133
 20
-26.84613609313965
 30
494.0000305175781
 10
35.72248840332032
 20
-26.84619331359864
 30
6.000006675720214
 10
25.82204627990723
 20
-16.94672393798828
 30
494.0000305175781
 10
25.82209968566895
 20
-16.94677734375
 30
6.000004291534423
 10
28.68631172180176
 20
-14.08295154571533
 30
494.0
 10
28.68636703491211
 20
-14.08300876617431
 30
6.000004768371582
 10
11.82204914093017
 20
2.781303405761718
 30
494.0
 10
13.23611927032471
 20
4.195854187011718
 30
494.0
 10
13.23617649078369
 20
4.19579792022705
 30
6.000000953674316
 10
11.82210540771484
 20
2.78124713897705
 30
6.000000476837158
 10
14.90407466888427
 20
-0.3007278442382812
 30
494.0000305175781
 10
14.90412998199463
 20
-0.3007841110229492
 30
6.000000953674316
 10
9.613353729248046
 20
-2.492279291152954
 30
494.0
 10
9.613409996032714
 20
-2.492335557937622
 30
6.000000476837158
 10
8.90407371520996
 20
-2.786080121994018
 30
494.0000305175781
 10
8.904129981994628
 20
-2.786136388778686
 30
6.000000953674316
 10
3.21364426612854
 20
2.903861045837402
 30
494.0000305175781
 10
3.213700532913208
 20
2.903804779052734
 30
6.0
 10
5.699009895324707
 20
8.903861045837402
 30
494.0
 10
5.699066638946533
 20
8.903804779052734
 30
5.999999046325683
 10
8.781033515930175
 20
5.821829795837402
 30
494.0
 10
8.781089782714843
 20
5.82177448272705
 30
5.999999523162841
 10
10.19509696960449
 20
7.236381530761718
 30
494.0000305175781
 10
10.19515228271484
 20
7.23632526397705
 30
5.999999523162841
 10
38.58571243286133
 20
-23.98236656188965
 30
494.0
 10
38.58576965332031
 20
-23.98242378234863
 30
6.000006675720214
 10
39.99979019165039
 20
-22.56830406188965
 30
494.0000305175781
 10
39.99984741210937
 20
-22.568359375
 30
6.000006675720214
 10
-10.51876831054687
 20
-45.99995040893555
 30
494.0
 10
-10.51871109008789
 20
-46.00000762939453
 30
6.000003814697265
 10
11.15700721740722
 20
-45.99995040893555
 30
494.0000305175781
 10
11.15706348419189
 20
-46.00000762939453
 30
6.000005722045898
 10
-14.56857204437256
 20
-45.99994659423828
 30
494.0
 10
-14.56851577758789
 20
-46.00000381469726
 30
6.000002861022949
 10
-16.5685749053955
 20
-8.149850845336914
 30
494.0000305175781
 10
-16.56851768493652
 20
-8.149907112121582
 30
5.999998569488525
 10
-16.56857299804687
 20
-3.850046157836914
 30
494.0
 10
-16.56851959228515
 20
-3.850102663040161
 30
5.999998092651367
 10
-15.71500492095947
 20
33.14648056030274
 30
5.999993801116943
 10
-15.71506118774414
 20
33.14653396606445
 30
494.0
 10
-13.71506118774414
 20
31.14654159545898
 30
494.0
 10
-16.56852149963379
 20
32.79296875
 30
5.999994277954101
 10
-16.56851768493652
 20
-46.00000762939453
 30
6.000002861022949
 10
-16.56857109069824
 20
-45.99995040893555
 30
494.0
 10
-16.56857681274414
 20
32.79302215576172
 30
494.0
 93
      920
 90
        3
 90
        0
 90
        1
 90
        2
 90
        3
 90
        2
 90
        3
 90
        0
 90
        3
 90
        4
 90
        0
 90
        3
 90
        3
 90
        3
 90
        5
 90
        4
 90
        3
 90
        1
 90
        6
 90
        7
 90
        3
 90
        7
 90
        2
 90
        1
 90
        3
 90
        8
 90
        4
 90
        5
 90
        3
 90
        5
 90
        9
 90
        8
 90
        3
 90
        6
 90
       10
 90
       11
 90
        3
 90
       11
 90
        7
 90
        6
 90
        3
 90
       12
 90
        8
 90
        9
 90
        3
 90
        9
 90
       13
 90
       12
 90
        3
 90
       10
 90
       14
 90
       15
 90
        3
 90
       15
 90
       11
 90
       10
 90
        3
 90
       16
 90
       12
 90
       13
 90
        3
 90
       13
 90
       17
 90
       16
 90
        3
 90
       14
 90
       18
 90
       19
 90
        3
 90
       19
 90
       15
 90
       14
 90
        3
 90
       20
 90
       16
 90
       17
 90
        3
 90
       17
 90
       21
 90
       20
 90
        3
 90
       18
 90
       22
 90
       23
 90
        3
 90
       23
 90
       19
 90
       18
 90
        3
 90
       24
 90
       20
 90
       21
 90
        3
 90
       21
 90
       25
 90
       24
 90
        3
 90
       22
 90
       26
 90
       27
 90
        3
 90
       27
 90
       23
 90
       22
 90
        3
 90
       28
 90
       24
 90
       25
 90
        3
 90
       25
 90
       29
 90
       28
 90
        3
 90
       26
 90
       30
 90
       31
 90
        3
 90
       31
 90
       27
 90
       26
 90
        3
 90
       32
 90
       28
 90
       29
 90
        3
 90
       29
 90
       33
 90
       32
 90
        3
 90
       30
 90
       34
 90
       35
 90
        3
 90
       35
 90
       31
 90
       30
 90
        3
 90
       36
 90
       32
 90
       33
 90
        3
 90
       33
 90
       37
 90
       36
 90
        3
 90
       34
 90
       38
 90
       39
 90
        3
 90
       39
 90
       35
 90
       34
 90
        3
 90
       38
 90
       36
 90
       37
 90
        3
 90
       37
 90
       39
 90
       38
 90
        3
 90
       40
 90
       41
 90
       42
 90
        3
 90
       42
 90
       43
 90
       40
 90
        3
 90
       44
 90
       40
 90
       43
 90
        3
 90
       43
 90
       45
 90
       44
 90
        3
 90
       46
 90
       44
 90
       45
 90
        3
 90
       45
 90
       47
 90
       46
 90
        3
 90
       48
 90
       46
 90
       47
 90
        3
 90
       47
 90
       49
 90
       48
 90
        3
 90
       50
 90
       48
 90
       49
 90
        3
 90
       49
 90
       51
 90
       50
 90
        3
 90
       52
 90
       53
 90
       54
 90
        3
 90
       54
 90
       55
 90
       52
 90
        3
 90
       56
 90
       57
 90
       58
 90
        3
 90
       58
 90
       59
 90
       56
 90
        3
 90
       60
 90
       56
 90
       59
 90
        3
 90
       59
 90
       61
 90
       60
 90
        3
 90
       62
 90
       60
 90
       61
 90
        3
 90
       61
 90
       63
 90
       62
 90
        3
 90
       64
 90
       62
 90
       63
 90
        3
 90
       63
 90
       65
 90
       64
 90
        3
 90
       66
 90
       64
 90
       65
 90
        3
 90
       65
 90
       67
 90
       66
 90
        3
 90
       68
 90
       66
 90
       67
 90
        3
 90
       67
 90
       69
 90
       68
 90
        3
 90
       70
 90
       68
 90
       69
 90
        3
 90
       69
 90
       71
 90
       70
 90
        3
 90
       72
 90
       70
 90
       71
 90
        3
 90
       71
 90
       73
 90
       72
 90
        3
 90
       74
 90
       72
 90
       73
 90
        3
 90
       73
 90
       75
 90
       74
 90
        3
 90
       76
 90
       77
 90
       78
 90
        3
 90
       78
 90
       79
 90
       76
 90
        3
 90
       80
 90
       76
 90
       79
 90
        3
 90
       79
 90
       81
 90
       80
 90
        3
 90
       82
 90
       80
 90
       81
 90
        3
 90
       81
 90
       83
 90
       82
 90
        3
 90
       84
 90
       82
 90
       83
 90
        3
 90
       83
 90
       85
 90
       84
 90
        3
 90
       86
 90
       84
 90
       85
 90
        3
 90
       85
 90
       87
 90
       86
 90
        3
 90
       88
 90
       86
 90
       87
 90
        3
 90
       87
 90
       89
 90
       88
 90
        3
 90
       90
 90
       88
 90
       89
 90
        3
 90
       89
 90
       91
 90
       90
 90
        3
 90
       92
 90
       90
 90
       91
 90
        3
 90
       91
 90
       93
 90
       92
 90
        3
 90
       94
 90
       74
 90
       75
 90
        3
 90
       75
 90
       95
 90
       94
 90
        3
 90
       77
 90
       96
 90
       97
 90
        3
 90
       97
 90
       78
 90
       77
 90
        3
 90
       98
 90
       52
 90
       55
 90
        3
 90
       55
 90
       99
 90
       98
 90
        3
 90
       57
 90
      100
 90
      101
 90
        3
 90
      101
 90
       58
 90
       57
 90
        3
 90
       53
 90
      102
 90
      103
 90
        3
 90
      103
 90
       54
 90
       53
 90
        3
 90
      104
 90
       50
 90
       51
 90
        3
 90
       51
 90
      105
 90
      104
 90
        3
 90
       41
 90
      106
 90
      107
 90
        3
 90
      107
 90
       42
 90
       41
 90
        3
 90
      108
 90
      109
 90
      110
 90
        3
 90
      110
 90
       92
 90
       93
 90
        3
 90
      110
 90
       93
 90
      108
 90
        3
 90
       97
 90
       95
 90
       75
 90
        3
 90
       37
 90
       97
 90
       75
 90
        3
 90
       37
 90
       75
 90
       73
 90
        3
 90
       39
 90
       37
 90
       73
 90
        3
 90
       73
 90
       71
 90
       35
 90
        3
 90
       73
 90
       35
 90
       39
 90
        3
 90
       33
 90
       78
 90
       97
 90
        3
 90
       33
 90
       97
 90
       37
 90
        3
 90
       91
 90
       89
 90
       21
 90
        3
 90
       93
 90
       91
 90
       21
 90
        3
 90
       21
 90
       17
 90
      108
 90
        3
 90
       21
 90
      108
 90
       93
 90
        3
 90
       21
 90
       89
 90
       87
 90
        3
 90
       21
 90
       87
 90
       25
 90
        3
 90
       25
 90
       87
 90
       85
 90
        3
 90
       29
 90
       25
 90
       85
 90
        3
 90
       29
 90
       85
 90
       83
 90
        3
 90
       29
 90
       83
 90
       81
 90
        3
 90
       33
 90
       29
 90
       81
 90
        3
 90
       78
 90
       33
 90
       81
 90
        3
 90
       81
 90
       79
 90
       78
 90
        3
 90
       13
 90
      111
 90
      108
 90
        3
 90
       13
 90
      108
 90
       17
 90
        3
 90
        9
 90
      107
 90
      111
 90
        3
 90
        9
 90
      111
 90
       13
 90
        3
 90
      105
 90
       51
 90
       49
 90
        3
 90
        2
 90
      105
 90
       49
 90
        3
 90
        2
 90
       49
 90
       47
 90
        3
 90
        3
 90
        2
 90
       47
 90
        3
 90
        3
 90
       47
 90
       45
 90
        3
 90
        5
 90
        3
 90
       45
 90
        3
 90
        5
 90
       45
 90
       43
 90
        3
 90
        9
 90
        5
 90
       43
 90
        3
 90
      107
 90
        9
 90
       43
 90
        3
 90
       43
 90
       42
 90
      107
 90
        3
 90
      105
 90
        2
 90
        7
 90
        3
 90
      105
 90
        7
 90
       54
 90
        3
 90
       54
 90
      103
 90
      112
 90
        3
 90
       54
 90
      112
 90
      105
 90
        3
 90
       15
 90
       99
 90
       55
 90
        3
 90
       11
 90
       15
 90
       55
 90
        3
 90
       55
 90
       54
 90
        7
 90
        3
 90
       55
 90
        7
 90
       11
 90
        3
 90
       19
 90
      101
 90
       99
 90
        3
 90
       19
 90
       99
 90
       15
 90
        3
 90
       67
 90
       27
 90
       31
 90
        3
 90
       67
 90
       31
 90
       69
 90
        3
 90
       65
 90
       23
 90
       27
 90
        3
 90
       65
 90
       27
 90
       67
 90
        3
 90
       63
 90
       61
 90
       59
 90
        3
 90
       65
 90
       63
 90
       59
 90
        3
 90
       23
 90
       65
 90
       59
 90
        3
 90
       23
 90
       59
 90
       58
 90
        3
 90
       58
 90
      101
 90
       19
 90
        3
 90
       58
 90
       19
 90
       23
 90
        3
 90
       69
 90
       31
 90
       35
 90
        3
 90
       69
 90
       35
 90
       71
 90
        3
 90
       20
 90
       92
 90
      110
 90
        3
 90
       20
 90
      110
 90
       16
 90
        3
 90
       77
 90
       76
 90
       80
 90
        3
 90
       80
 90
       32
 90
       77
 90
        3
 90
       32
 90
       80
 90
       82
 90
        3
 90
       32
 90
       82
 90
       84
 90
        3
 90
       28
 90
       32
 90
       84
 90
        3
 90
       28
 90
       84
 90
       86
 90
        3
 90
       24
 90
       28
 90
       86
 90
        3
 90
       24
 90
       86
 90
       88
 90
        3
 90
       20
 90
       24
 90
       88
 90
        3
 90
       88
 90
       90
 90
       92
 90
        3
 90
       88
 90
       92
 90
       20
 90
        3
 90
       36
 90
       96
 90
       77
 90
        3
 90
       36
 90
       77
 90
       32
 90
        3
 90
       34
 90
       70
 90
       72
 90
        3
 90
       38
 90
       34
 90
       72
 90
        3
 90
       38
 90
       72
 90
       74
 90
        3
 90
       36
 90
       38
 90
       74
 90
        3
 90
       74
 90
       94
 90
       96
 90
        3
 90
       74
 90
       96
 90
       36
 90
        3
 90
       30
 90
       68
 90
       70
 90
        3
 90
       30
 90
       70
 90
       34
 90
        3
 90
       57
 90
       22
 90
       18
 90
        3
 90
       57
 90
       18
 90
      100
 90
        3
 90
       56
 90
       26
 90
       22
 90
        3
 90
       56
 90
       22
 90
       57
 90
        3
 90
       60
 90
       62
 90
       64
 90
        3
 90
       56
 90
       60
 90
       64
 90
        3
 90
       56
 90
       64
 90
       66
 90
        3
 90
       26
 90
       56
 90
       66
 90
        3
 90
       66
 90
       68
 90
       30
 90
        3
 90
       66
 90
       30
 90
       26
 90
        3
 90
       14
 90
       98
 90
      100
 90
        3
 90
       14
 90
      100
 90
       18
 90
        3
 90
      113
 90
      102
 90
       53
 90
        3
 90
        6
 90
      113
 90
       53
 90
        3
 90
        6
 90
       53
 90
       52
 90
        3
 90
       10
 90
        6
 90
       52
 90
        3
 90
       52
 90
       98
 90
       14
 90
        3
 90
       52
 90
       14
 90
       10
 90
        3
 90
        1
 90
      104
 90
      113
 90
        3
 90
        1
 90
      113
 90
        6
 90
        3
 90
      106
 90
       41
 90
       40
 90
        3
 90
        8
 90
      106
 90
       40
 90
        3
 90
        8
 90
       40
 90
       44
 90
        3
 90
        4
 90
        8
 90
       44
 90
        3
 90
        4
 90
       44
 90
       46
 90
        3
 90
        0
 90
        4
 90
       46
 90
        3
 90
        0
 90
       46
 90
       48
 90
        3
 90
        1
 90
        0
 90
       48
 90
        3
 90
      104
 90
        1
 90
       48
 90
        3
 90
       48
 90
       50
 90
      104
 90
        3
 90
      106
 90
        8
 90
       12
 90
        3
 90
      114
 90
      106
 90
       12
 90
        3
 90
       12
 90
       16
 90
      110
 90
        3
 90
       12
 90
      110
 90
      109
 90
        3
 90
      114
 90
       12
 90
      109
 90
        3
 90
       96
 90
       94
 90
       95
 90
        3
 90
       95
 90
       97
 90
       96
 90
        3
 90
      100
 90
       98
 90
       99
 90
        3
 90
       99
 90
      101
 90
      100
 90
        3
 90
      102
 90
      113
 90
      112
 90
        3
 90
      112
 90
      103
 90
      102
 90
        3
 90
      113
 90
      104
 90
      105
 90
        3
 90
      105
 90
      112
 90
      113
 90
        3
 90
      106
 90
      114
 90
      111
 90
        3
 90
      111
 90
      107
 90
      106
 90
        3
 90
      114
 90
      109
 90
      108
 90
        3
 90
      108
 90
      111
 90
      114
 94
      345
 90
        0
 90
        1
 90
        1
 90
        2
 90
        0
 90
        2
 90
        2
 90
        3
 90
        0
 90
        3
 90
        0
 90
        4
 90
        3
 90
        4
 90
        3
 90
        5
 90
        4
 90
        5
 90
        1
 90
        6
 90
        6
 90
        7
 90
        1
 90
        7
 90
        2
 90
        7
 90
        4
 90
        8
 90
        5
 90
        8
 90
        5
 90
        9
 90
        8
 90
        9
 90
        6
 90
       10
 90
       10
 90
       11
 90
        6
 90
       11
 90
        7
 90
       11
 90
        8
 90
       12
 90
        9
 90
       12
 90
        9
 90
       13
 90
       12
 90
       13
 90
       10
 90
       14
 90
       14
 90
       15
 90
       10
 90
       15
 90
       11
 90
       15
 90
       12
 90
       16
 90
       13
 90
       16
 90
       13
 90
       17
 90
       16
 90
       17
 90
       14
 90
       18
 90
       18
 90
       19
 90
       14
 90
       19
 90
       15
 90
       19
 90
       16
 90
       20
 90
       17
 90
       20
 90
       17
 90
       21
 90
       20
 90
       21
 90
       18
 90
       22
 90
       22
 90
       23
 90
       18
 90
       23
 90
       19
 90
       23
 90
       20
 90
       24
 90
       21
 90
       24
 90
       21
 90
       25
 90
       24
 90
       25
 90
       22
 90
       26
 90
       26
 90
       27
 90
       22
 90
       27
 90
       23
 90
       27
 90
       24
 90
       28
 90
       25
 90
       28
 90
       25
 90
       29
 90
       28
 90
       29
 90
       26
 90
       30
 90
       30
 90
       31
 90
       26
 90
       31
 90
       27
 90
       31
 90
       28
 90
       32
 90
       29
 90
       32
 90
       29
 90
       33
 90
       32
 90
       33
 90
       30
 90
       34
 90
       34
 90
       35
 90
       30
 90
       35
 90
       31
 90
       35
 90
       32
 90
       36
 90
       33
 90
       36
 90
       33
 90
       37
 90
       36
 90
       37
 90
       34
 90
       38
 90
       38
 90
       39
 90
       34
 90
       39
 90
       35
 90
       39
 90
       36
 90
       38
 90
       37
 90
       38
 90
       37
 90
       39
 90
       40
 90
       41
 90
       41
 90
       42
 90
       40
 90
       42
 90
       42
 90
       43
 90
       40
 90
       43
 90
       40
 90
       44
 90
       43
 90
       44
 90
       43
 90
       45
 90
       44
 90
       45
 90
       44
 90
       46
 90
       45
 90
       46
 90
       45
 90
       47
 90
       46
 90
       47
 90
       46
 90
       48
 90
       47
 90
       48
 90
       47
 90
       49
 90
       48
 90
       49
 90
       48
 90
       50
 90
       49
 90
       50
 90
       49
 90
       51
 90
       50
 90
       51
 90
       52
 90
       53
 90
       53
 90
       54
 90
       52
 90
       54
 90
       54
 90
       55
 90
       52
 90
       55
 90
       56
 90
       57
 90
       57
 90
       58
 90
       56
 90
       58
 90
       58
 90
       59
 90
       56
 90
       59
 90
       56
 90
       60
 90
       59
 90
       60
 90
       59
 90
       61
 90
       60
 90
       61
 90
       60
 90
       62
 90
       61
 90
       62
 90
       61
 90
       63
 90
       62
 90
       63
 90
       62
 90
       64
 90
       63
 90
       64
 90
       63
 90
       65
 90
       64
 90
       65
 90
       64
 90
       66
 90
       65
 90
       66
 90
       65
 90
       67
 90
       66
 90
       67
 90
       66
 90
       68
 90
       67
 90
       68
 90
       67
 90
       69
 90
       68
 90
       69
 90
       68
 90
       70
 90
       69
 90
       70
 90
       69
 90
       71
 90
       70
 90
       71
 90
       70
 90
       72
 90
       71
 90
       72
 90
       71
 90
       73
 90
       72
 90
       73
 90
       72
 90
       74
 90
       73
 90
       74
 90
       73
 90
       75
 90
       74
 90
       75
 90
       76
 90
       77
 90
       77
 90
       78
 90
       76
 90
       78
 90
       78
 90
       79
 90
       76
 90
       79
 90
       76
 90
       80
 90
       79
 90
       80
 90
       79
 90
       81
 90
       80
 90
       81
 90
       80
 90
       82
 90
       81
 90
       82
 90
       81
 90
       83
 90
       82
 90
       83
 90
       82
 90
       84
 90
       83
 90
       84
 90
       83
 90
       85
 90
       84
 90
       85
 90
       84
 90
       86
 90
       85
 90
       86
 90
       85
 90
       87
 90
       86
 90
       87
 90
       86
 90
       88
 90
       87
 90
       88
 90
       87
 90
       89
 90
       88
 90
       89
 90
       88
 90
       90
 90
       89
 90
       90
 90
       89
 90
       91
 90
       90
 90
       91
 90
       90
 90
       92
 90
       91
 90
       92
 90
       91
 90
       93
 90
       92
 90
       93
 90
       74
 90
       94
 90
       75
 90
       94
 90
       75
 90
       95
 90
       94
 90
       95
 90
       77
 90
       96
 90
       96
 90
       97
 90
       77
 90
       97
 90
       78
 90
       97
 90
       52
 90
       98
 90
       55
 90
       98
 90
       55
 90
       99
 90
       98
 90
       99
 90
       57
 90
      100
 90
      100
 90
      101
 90
       57
 90
      101
 90
       58
 90
      101
 90
       53
 90
      102
 90
      102
 90
      103
 90
       53
 90
      103
 90
       54
 90
      103
 90
       50
 90
      104
 90
       51
 90
      104
 90
       51
 90
      105
 90
      104
 90
      105
 90
       41
 90
      106
 90
      106
 90
      107
 90
       41
 90
      107
 90
       42
 90
      107
 90
      108
 90
      109
 90
      109
 90
      110
 90
      108
 90
      110
 90
       92
 90
      110
 90
       93
 90
      110
 90
       93
 90
      108
 90
       95
 90
       97
 90
       75
 90
       97
 90
       37
 90
       97
 90
       37
 90
       75
 90
       37
 90
       73
 90
       39
 90
       73
 90
       35
 90
       71
 90
       35
 90
       73
 90
       33
 90
       78
 90
       33
 90
       97
 90
       21
 90
       89
 90
       21
 90
       91
 90
       21
 90
       93
 90
       17
 90
      108
 90
       21
 90
      108
 90
       21
 90
       87
 90
       25
 90
       87
 90
       25
 90
       85
 90
       29
 90
       85
 90
       29
 90
       83
 90
       29
 90
       81
 90
       33
 90
       81
 90
       78
 90
       81
 90
       13
 90
      111
 90
      108
 90
      111
 90
       13
 90
      108
 90
        9
 90
      107
 90
      107
 90
      111
 90
        9
 90
      111
 90
       49
 90
      105
 90
        2
 90
      105
 90
        2
 90
       49
 90
        2
 90
       47
 90
        3
 90
       47
 90
        3
 90
       45
 90
        5
 90
       45
 90
        5
 90
       43
 90
        9
 90
       43
 90
       43
 90
      107
 90
        7
 90
      105
 90
        7
 90
       54
 90
       54
 90
      105
 90
      103
 90
      112
 90
       54
 90
      112
 90
      105
 90
      112
 90
       15
 90
       99
 90
       15
 90
       55
 90
       11
 90
       55
 90
        7
 90
       55
 90
       19
 90
      101
 90
       99
 90
      101
 90
       19
 90
       99
 90
       27
 90
       67
 90
       31
 90
       67
 90
       31
 90
       69
 90
       23
 90
       65
 90
       27
 90
       65
 90
       59
 90
       63
 90
       59
 90
       65
 90
       23
 90
       59
 90
       23
 90
       58
 90
       19
 90
       58
 90
       35
 90
       69
 90
       20
 90
       92
 90
       20
 90
      110
 90
       16
 90
      110
 90
       77
 90
       80
 90
       32
 90
       80
 90
       32
 90
       77
 90
       32
 90
       82
 90
       32
 90
       84
 90
       28
 90
       84
 90
       28
 90
       86
 90
       24
 90
       86
 90
       24
 90
       88
 90
       20
 90
       88
 90
       88
 90
       92
 90
       36
 90
       96
 90
       36
 90
       77
 90
       34
 90
       70
 90
       34
 90
       72
 90
       38
 90
       72
 90
       38
 90
       74
 90
       36
 90
       74
 90
       94
 90
       96
 90
       74
 90
       96
 90
       30
 90
       68
 90
       30
 90
       70
 90
       22
 90
       57
 90
       18
 90
       57
 90
       18
 90
      100
 90
       26
 90
       56
 90
       22
 90
       56
 90
       60
 90
       64
 90
       56
 90
       64
 90
       56
 90
       66
 90
       26
 90
       66
 90
       30
 90
       66
 90
       14
 90
       98
 90
       98
 90
      100
 90
       14
 90
      100
 90
      102
 90
      113
 90
       53
 90
      113
 90
        6
 90
      113
 90
        6
 90
       53
 90
        6
 90
       52
 90
       10
 90
       52
 90
       14
 90
       52
 90
        1
 90
      104
 90
      104
 90
      113
 90
        1
 90
      113
 90
       40
 90
      106
 90
        8
 90
      106
 90
        8
 90
       40
 90
        8
 90
       44
 90
        4
 90
       44
 90
        4
 90
       46
 90
        0
 90
       46
 90
        0
 90
       48
 90
        1
 90
       48
 90
       48
 90
      104
 90
       12
 90
      106
 90
      106
 90
      114
 90
       12
 90
      114
 90
       12
 90
      110
 90
       12
 90
      109
 90
      109
 90
      114
 90
       95
 90
       96
 90
       99
 90
      100
 90
      112
 90
      113
 90
      102
 90
      112
 90
      105
 90
      113
 90
      111
 90
      114
 90
      106
 90
      111
 90
      108
 90
      114
 95
      345
140
0.0
140
0.0
140
0.0
140
0.0
140
0.0
140
0.0
140
0.0
140
0.0
140
0.0
140
0.0
140
0.0
140
0.0
140
0.0
140
0.0
140
0.0
140
0.0
140
0.0
140
0.0
140
0.0
140
0.0
140
0.0
140
0.0
140
0.0
140
0.0
140
0.0
140
0.0
140
0.0
140
0.0
140
0.0
140
0.0
140
0.0
140
0.0
140
0.0
140
0.0
140
0.0
140
0.0
140
0.0
140
0.0
140
0.0
140
0.0
140
0.0
140
0.0
140
0.0
140
0.0
140
0.0
140
0.0
140
0.0
140
0.0
140
0.0
140
0.0
140
0.0
140
0.0
140
0.0
140
0.0
140
0.0
140
0.0
140
0.0
140
0.0
140
0.0
140
0.0
140
0.0
140
0.0
140
0.0
140
0.0
140
0.0
140
0.0
140
0.0
140
0.0
140
0.0
140
0.0
140
0.0
140
0.0
140
0.0
140
0.0
140
0.0
140
0.0
140
0.0
140
0.0
140
0.0
140
0.0
140
0.0
140
0.0
140
0.0
140
0.0
140
0.0
140
0.0
140
0.0
140
0.0
140
0.0
140
0.0
140
0.0
140
0.0
140
0.0
140
0.0
140
0.0
140
0.0
140
0.0
140
0.0
140
0.0
140
0.0
140
0.0
140
0.0
140
0.0
140
0.0
140
0.0
140
0.0
140
0.0
140
0.0
140
0.0
140
0.0
140
0.0
140
0.0
140
0.0
140
0.0
140
0.0
140
0.0
140
0.0
140
0.0
140
0.0
140
0.0
140
0.0
140
0.0
140
0.0
140
0.0
140
0.0
140
0.0
140
0.0
140
0.0
140
0.0
140
0.0
140
0.0
140
0.0
140
0.0
140
0.0
140
0.0
140
0.0
140
0.0
140
0.0
140
0.0
140
0.0
140
0.0
140
0.0
140
0.0
140
0.0
140
0.0
140
0.0
140
0.0
140
0.0
140
0.0
140
0.0
140
0.0
140
0.0
140
0.0
140
0.0
140
0.0
140
0.0
140
0.0
140
0.0
140
0.0
140
0.0
140
0.0
140
0.0
140
0.0
140
0.0
140
0.0
140
0.0
140
0.0
140
0.0
140
0.0
140
0.0
140
0.0
140
0.0
140
0.0
140
0.0
140
0.0
140
0.0
140
0.0
140
0.0
140
0.0
140
0.0
140
0.0
140
0.0
140
0.0
140
0.0
140
0.0
140
0.0
140
0.0
140
0.0
140
0.0
140
0.0
140
0.0
140
0.0
140
0.0
140
0.0
140
0.0
140
0.0
140
0.0
140
0.0
140
0.0
140
0.0
140
0.0
140
0.0
140
0.0
140
0.0
140
0.0
140
0.0
140
0.0
140
0.0
140
0.0
140
0.0
140
0.0
140
0.0
140
0.0
140
0.0
140
0.0
140
0.0
140
0.0
140
0.0
140
0.0
140
0.0
140
0.0
140
0.0
140
0.0
140
0.0
140
0.0
140
0.0
140
0.0
140
0.0
140
0.0
140
0.0
140
0.0
140
0.0
140
0.0
140
0.0
140
0.0
140
0.0
140
0.0
140
0.0
140
0.0
140
0.0
140
0.0
140
0.0
140
0.0
140
0.0
140
0.0
140
0.0
140
0.0
140
0.0
140
0.0
140
0.0
140
0.0
140
0.0
140
0.0
140
0.0
140
0.0
140
0.0
140
0.0
140
0.0
140
0.0
140
0.0
140
0.0
140
0.0
140
0.0
140
0.0
140
0.0
140
0.0
140
0.0
140
0.0
140
0.0
140
0.0
140
0.0
140
0.0
140
0.0
140
0.0
140
0.0
140
0.0
140
0.0
140
0.0
140
0.0
140
0.0
140
0.0
140
0.0
140
0.0
140
0.0
140
0.0
140
0.0
140
0.0
140
0.0
140
0.0
140
0.0
140
0.0
140
0.0
140
0.0
140
0.0
140
0.0
140
0.0
140
0.0
140
0.0
140
0.0
140
0.0
140
0.0
140
0.0
140
0.0
140
0.0
140
0.0
140
0.0
140
0.0
140
0.0
140
0.0
140
0.0
140
0.0
140
0.0
140
0.0
140
0.0
140
0.0
140
0.0
140
0.0
140
0.0
140
0.0
140
0.0
140
0.0
140
0.0
140
0.0
140
0.0
140
0.0
140
0.0
140
0.0
140
0.0
140
0.0
140
0.0
140
0.0
140
0.0
140
0.0
140
0.0
140
0.0
140
0.0
140
0.0
140
0.0
140
0.0
140
0.0
140
0.0
140
0.0
140
0.0
140
0.0
140
0.0
 90
        0
  0
INSERT
  5
102
330
1F
100
AcDbEntity
  8
0
100
AcDbBlockReference
  2
Block_WP_80-9_$_cbdd8691-28ab-42
 10
-16.56851768493652
 20
-46.00000381469726
 30
6.0
 41
-1.0
 42
-1.0
 43
-1.0
 50
179.999991348578
  0
INSERT
  5
103
330
1F
100
AcDbEntity
  8
0
100
AcDbBlockReference
  2
Layer_0
 10
9.577058792114257
 20
-6.426765441894531
 30
3.0
 41
-1.0
 42
-1.0
 43
-1.0
 50
179.999991348578
  0
INSERT
  5
104
330
1F
100
AcDbEntity
  8
0
100
AcDbBlockReference
  2
Block_WP_80-9_$_cbdd8691-28ab-42
 10
-16.56851768493652
 20
-46.00000381469726
 30
494.0
  0
INSERT
  5
105
330
1F
100
AcDbEntity
  8
0
100
AcDbBlockReference
  2
Layer_0
 10
9.577054977416992
 20
-6.426761627197265
 30
497.0
  0
ENDSEC
  0
SECTION
  2
OBJECTS
  0
DICTIONARY
  5
C
330
0
100
AcDbDictionary
281
     1
  3
ACAD_COLOR
350
DC
  3
ACAD_DETAILVIEWSTYLE
350
F5
  3
ACAD_GROUP
350
D
  3
ACAD_LAYOUT
350
1A
  3
ACAD_MATERIAL
350
AA
  3
ACAD_MLEADERSTYLE
350
F1
  3
ACAD_MLINESTYLE
350
17
  3
ACAD_PLOTSETTINGS
350
19
  3
ACAD_PLOTSTYLENAME
350
E
  3
ACAD_SCALELIST
350
DF
  3
ACAD_SECTIONVIEWSTYLE
350
F3
  3
ACAD_TABLESTYLE
350
DD
  3
ACAD_VISUALSTYLE
350
C3
  3
ACDB_RECOMPOSE_DATA
350
112
  3
AcDbVariableDictionary
350
106
  0
DICTIONARY
  5
DC
102
{ACAD_REACTORS
330
C
102
}
330
C
100
AcDbDictionary
281
     1
  0
DICTIONARY
  5
F5
102
{ACAD_REACTORS
330
C
102
}
330
C
100
AcDbDictionary
281
     1
  3
Imperial24
350
F6
  0
DICTIONARY
  5
D
102
{ACAD_REACTORS
330
C
102
}
330
C
100
AcDbDictionary
281
     1
  0
DICTIONARY
  5
1A
102
{ACAD_REACTORS
330
C
102
}
330
C
100
AcDbDictionary
281
     1
  3
Layout1
350
1E
  3
Layout2
350
26
  3
Model
350
22
  0
DICTIONARY
  5
AA
102
{ACAD_REACTORS
330
C
102
}
330
C
100
AcDbDictionary
281
     1
  3
ByBlock
350
B3
  3
ByLayer
350
AB
  3
Global
350
BB
  0
DICTIONARY
  5
F1
102
{ACAD_REACTORS
330
C
102
}
330
C
100
AcDbDictionary
281
     1
  3
Standard
350
F2
  0
DICTIONARY
  5
17
102
{ACAD_REACTORS
330
C
102
}
330
C
100
AcDbDictionary
281
     1
  3
Standard
350
18
  0
DICTIONARY
  5
19
102
{ACAD_REACTORS
330
C
102
}
330
C
100
AcDbDictionary
281
     1
  0
ACDBDICTIONARYWDFLT
  5
E
102
{ACAD_REACTORS
330
C
102
}
330
C
100
AcDbDictionary
281
     1
  3
ByLayer
350
2D
  3
Normal
350
F
100
AcDbDictionaryWithDefault
340
F
  0
DICTIONARY
  5
DF
102
{ACAD_REACTORS
330
C
102
}
330
C
100
AcDbDictionary
281
     1
  3
A0
350
E0
  3
A1
350
E1
  3
A2
350
E2
  3
A3
350
E3
  3
A4
350
E4
  3
A5
350
E5
  3
A6
350
E6
  3
A7
350
E7
  3
A8
350
E8
  3
A9
350
E9
  3
B0
350
EA
  3
B1
350
EB
  3
B2
350
EC
  3
B3
350
ED
  3
B4
350
EE
  3
B5
350
EF
  3
B6
350
F0
  0
DICTIONARY
  5
F3
102
{ACAD_REACTORS
330
C
102
}
330
C
100
AcDbDictionary
281
     1
  3
Imperial24
350
F4
  0
DICTIONARY
  5
DD
102
{ACAD_REACTORS
330
C
102
}
330
C
100
AcDbDictionary
281
     1
  3
Standard
350
DE
  0
DICTIONARY
  5
C3
102
{ACAD_REACTORS
330
C
102
}
330
C
100
AcDbDictionary
281
     1
  3
2dWireframe
350
C9
  3
Basic
350
C8
  3
Brighten
350
CF
  3
ColorChange
350
D3
  3
Conceptual
350
CC
  3
Dim
350
CE
  3
EdgeColorOff
350
DB
  3
Facepattern
350
D2
  3
Flat
350
C4
  3
FlatWithEdges
350
C5
  3
Gouraud
350
C6
  3
GouraudWithEdges
350
C7
  3
Hidden
350
CB
  3
JitterOff
350
D9
  3
Linepattern
350
D1
  3
OverhangOff
350
DA
  3
Realistic
350
CD
  3
Shaded
350
D8
  3
Shaded with edges
350
D7
  3
Shades of Gray
350
D4
  3
Sketchy
350
D5
  3
Thicken
350
D0
  3
Wireframe
350
CA
  3
X-Ray
350
D6
  0
XRECORD
  5
112
102
{ACAD_REACTORS
330
C
102
}
330
C
100
AcDbXrecord
280
     1
 90
        1
330
DE
  0
DICTIONARY
  5
106
102
{ACAD_REACTORS
330
C
102
}
330
C
100
AcDbDictionary
281
     1
  3
CANNOSCALE
350
10C
  3
CMLEADERSTYLE
350
108
  3
CTABLESTYLE
350
107
  3
CVIEWDETAILSTYLE
350
109
  3
CVIEWSECTIONSTYLE
350
10A
  3
LAYEREVAL
350
10E
  3
LAYERNOTIFY
350
10F
  3
LIGHTINGUNITS
350
10D
  3
MSLTSCALE
350
10B
  0
ACDBDETAILVIEWSTYLE
  5
F6
102
{ACAD_XDICTIONARY
360
147
102
}
102
{ACAD_REACTORS
330
F5
102
}
330
F5
100
AcDbModelDocViewStyle
 70
     0
  3
Imperial24
290
     0
100
AcDbDetailViewStyle
 70
     0
 71
     0
 90
        3
 71
     1
340
11
 62
   256
 40
0.24
340
0
 62
   256
 40
0.24
300

 40
0.36
280
     3
 71
     2
340
16
 90
       25
 62
   256
 71
     3
340
11
 62
   256
 40
0.24
 90
        1
 40
0.75
 90
        1
300
%<\AcVar ViewType \f "%tc1">% %<\AcVar ViewDetailId>%\PSCALE %<\AcVar ViewScale \f "%sn">%
 71
     4
340
16
 90
       25
 62
   256
340
16
 90
       25
 62
   256
280
     0
  0
LAYOUT
  5
1E
102
{ACAD_REACTORS
330
1A
102
}
330
1A
100
AcDbPlotSettings
  1

  2
\\KTXNTBDC\CASF2PN1
  4

  6

 40
0.0
 41
0.0
 42
0.0
 43
0.0
 44
0.0
 45
0.0
 46
0.0
 47
0.0
 48
0.0
 49
0.0
140
0.0
141
0.0
142
1.0
143
1.0
 70
   688
 72
     0
 73
     0
 74
     5
  7

 75
    16
147
1.0
 76
     0
 77
     2
 78
   300
148
0.0
149
0.0
100
AcDbLayout
  1
Layout1
 70
     1
 71
     1
 10
0.0
 20
0.0
 11
12.0
 21
9.0
 12
0.0
 22
0.0
 32
0.0
 14
1.000000000000000E+20
 24
1.000000000000000E+20
 34
1.000000000000000E+20
 15
-1.000000000000000E+20
 25
-1.000000000000000E+20
 35
-1.000000000000000E+20
146
0.0
 13
0.0
 23
0.0
 33
0.0
 16
1.0
 26
0.0
 36
0.0
 17
0.0
 27
1.0
 37
0.0
 76
     0
330
1B
  0
LAYOUT
  5
26
102
{ACAD_REACTORS
330
1A
102
}
330
1A
100
AcDbPlotSettings
  1

  2
\\KTXNTBDC\CASF2PN1
  4

  6

 40
0.0
 41
0.0
 42
0.0
 43
0.0
 44
0.0
 45
0.0
 46
0.0
 47
0.0
 48
0.0
 49
0.0
140
0.0
141
0.0
142
1.0
143
1.0
 70
   688
 72
     0
 73
     0
 74
     5
  7

 75
    16
147
1.0
 76
     0
 77
     2
 78
   300
148
0.0
149
0.0
100
AcDbLayout
  1
Layout2
 70
     1
 71
     2
 10
0.0
 20
0.0
 11
12.0
 21
9.0
 12
0.0
 22
0.0
 32
0.0
 14
0.0
 24
0.0
 34
0.0
 15
0.0
 25
0.0
 35
0.0
146
0.0
 13
0.0
 23
0.0
 33
0.0
 16
1.0
 26
0.0
 36
0.0
 17
0.0
 27
1.0
 37
0.0
 76
     0
330
23
  0
LAYOUT
  5
22
102
{ACAD_REACTORS
330
1A
102
}
330
1A
100
AcDbPlotSettings
  1

  2
\\KTXNTBDC\CASF2PN1
  4

  6

 40
0.0
 41
0.0
 42
0.0
 43
0.0
 44
0.0
 45
0.0
 46
0.0
 47
0.0
 48
0.0
 49
0.0
140
0.0
141
0.0
142
1.0
143
1.0
 70
  1712
 72
     0
 73
     0
 74
     0
  7

 75
     0
147
1.0
 76
     0
 77
     2
 78
   300
148
0.0
149
0.0
100
AcDbLayout
  1
Model
 70
     1
 71
     0
 10
0.0
 20
0.0
 11
12.0
 21
9.0
 12
0.0
 22
0.0
 32
0.0
 14
0.0
 24
0.0
 34
0.0
 15
0.0
 25
0.0
 35
0.0
146
0.0
 13
0.0
 23
0.0
 33
0.0
 16
1.0
 26
0.0
 36
0.0
 17
0.0
 27
1.0
 37
0.0
 76
     0
330
1F
  0
MATERIAL
  5
B3
102
{ACAD_XDICTIONARY
360
B4
102
}
102
{ACAD_REACTORS
330
AA
102
}
330
AA
100
AcDbMaterial
  1
ByBlock
 72
     0
 43
0.0208333333333333
 43
0.0
 43
0.0
 43
0.0
 43
0.0
 43
0.0208333333333333
 43
0.0
 43
0.0
 43
0.0
 43
0.0
 43
1.0
 43
0.0
 43
0.0
 43
0.0
 43
0.0
 43
1.0
 77
     0
 47
0.0208333333333333
 47
0.0
 47
0.0
 47
0.0
 47
0.0
 47
0.0208333333333333
 47
0.0
 47
0.0
 47
0.0
 47
0.0
 47
1.0
 47
0.0
 47
0.0
 47
0.0
 47
0.0
 47
1.0
171
     0
 49
0.0208333333333333
 49
0.0
 49
0.0
 49
0.0
 49
0.0
 49
0.0208333333333333
 49
0.0
 49
0.0
 49
0.0
 49
0.0
 49
1.0
 49
0.0
 49
0.0
 49
0.0
 49
0.0
 49
1.0
175
     0
142
0.0208333333333333
142
0.0
142
0.0
142
0.0
142
0.0
142
0.0208333333333333
142
0.0
142
0.0
142
0.0
142
0.0
142
1.0
142
0.0
142
0.0
142
0.0
142
0.0
142
1.0
179
     0
144
0.0208333333333333
144
0.0
144
0.0
144
0.0
144
0.0
144
0.0208333333333333
144
0.0
144
0.0
144
0.0
144
0.0
144
1.0
144
0.0
144
0.0
144
0.0
144
0.0
144
1.0
147
0.0208333333333333
147
0.0
147
0.0
147
0.0
147
0.0
147
0.0208333333333333
147
0.0
147
0.0
147
0.0
147
0.0
147
1.0
147
0.0
147
0.0
147
0.0
147
0.0
147
1.0
  0
MATERIAL
  5
AB
102
{ACAD_XDICTIONARY
360
AC
102
}
102
{ACAD_REACTORS
330
AA
102
}
330
AA
100
AcDbMaterial
  1
ByLayer
 72
     0
 43
0.0208333333333333
 43
0.0
 43
0.0
 43
0.0
 43
0.0
 43
0.0208333333333333
 43
0.0
 43
0.0
 43
0.0
 43
0.0
 43
1.0
 43
0.0
 43
0.0
 43
0.0
 43
0.0
 43
1.0
 77
     0
 47
0.0208333333333333
 47
0.0
 47
0.0
 47
0.0
 47
0.0
 47
0.0208333333333333
 47
0.0
 47
0.0
 47
0.0
 47
0.0
 47
1.0
 47
0.0
 47
0.0
 47
0.0
 47
0.0
 47
1.0
171
     0
 49
0.0208333333333333
 49
0.0
 49
0.0
 49
0.0
 49
0.0
 49
0.0208333333333333
 49
0.0
 49
0.0
 49
0.0
 49
0.0
 49
1.0
 49
0.0
 49
0.0
 49
0.0
 49
0.0
 49
1.0
175
     0
142
0.0208333333333333
142
0.0
142
0.0
142
0.0
142
0.0
142
0.0208333333333333
142
0.0
142
0.0
142
0.0
142
0.0
142
1.0
142
0.0
142
0.0
142
0.0
142
0.0
142
1.0
179
     0
144
0.0208333333333333
144
0.0
144
0.0
144
0.0
144
0.0
144
0.0208333333333333
144
0.0
144
0.0
144
0.0
144
0.0
144
1.0
144
0.0
144
0.0
144
0.0
144
0.0
144
1.0
147
0.0208333333333333
147
0.0
147
0.0
147
0.0
147
0.0
147
0.0208333333333333
147
0.0
147
0.0
147
0.0
147
0.0
147
1.0
147
0.0
147
0.0
147
0.0
147
0.0
147
1.0
  0
MATERIAL
  5
BB
102
{ACAD_XDICTIONARY
360
BC
102
}
102
{ACAD_REACTORS
330
AA
102
}
330
AA
100
AcDbMaterial
  1
Global
 72
     0
 43
0.0208333333333333
 43
0.0
 43
0.0
 43
0.0
 43
0.0
 43
0.0208333333333333
 43
0.0
 43
0.0
 43
0.0
 43
0.0
 43
1.0
 43
0.0
 43
0.0
 43
0.0
 43
0.0
 43
1.0
 77
     0
 47
0.0208333333333333
 47
0.0
 47
0.0
 47
0.0
 47
0.0
 47
0.0208333333333333
 47
0.0
 47
0.0
 47
0.0
 47
0.0
 47
1.0
 47
0.0
 47
0.0
 47
0.0
 47
0.0
 47
1.0
171
     0
 49
0.0208333333333333
 49
0.0
 49
0.0
 49
0.0
 49
0.0
 49
0.0208333333333333
 49
0.0
 49
0.0
 49
0.0
 49
0.0
 49
1.0
 49
0.0
 49
0.0
 49
0.0
 49
0.0
 49
1.0
175
     0
142
0.0208333333333333
142
0.0
142
0.0
142
0.0
142
0.0
142
0.0208333333333333
142
0.0
142
0.0
142
0.0
142
0.0
142
1.0
142
0.0
142
0.0
142
0.0
142
0.0
142
1.0
179
     0
144
0.0208333333333333
144
0.0
144
0.0
144
0.0
144
0.0
144
0.0208333333333333
144
0.0
144
0.0
144
0.0
144
0.0
144
1.0
144
0.0
144
0.0
144
0.0
144
0.0
144
1.0
147
0.0208333333333333
147
0.0
147
0.0
147
0.0
147
0.0
147
0.0208333333333333
147
0.0
147
0.0
147
0.0
147
0.0
147
1.0
147
0.0
147
0.0
147
0.0
147
0.0
147
1.0
  0
MLEADERSTYLE
  5
F2
102
{ACAD_XDICTIONARY
360
143
102
}
102
{ACAD_REACTORS
330
F1
102
}
330
F1
100
AcDbMLeaderStyle
179
     2
170
     2
171
     1
172
     0
 90
        2
 40
0.0
 41
0.0
173
     1
 91
-1056964608
340
14
 92
       -2
290
     1
 42
0.09
291
     1
 43
0.36
  3
Standard
 44
0.18
300

342
11
174
     1
178
     6
175
     1
176
     0
 93
-1056964608
 45
0.18
292
     0
297
     0
 46
0.18
 94
-1056964608
 47
1.0
 49
1.0
140
1.0
293
     1
141
0.0
294
     1
177
     0
142
1.0
295
     0
296
     0
143
0.125
271
     0
272
     9
273
     9
  0
MLINESTYLE
  5
18
102
{ACAD_REACTORS
330
17
102
}
330
17
100
AcDbMlineStyle
  2
STANDARD
 70
     0
  3

 62
   256
 51
90.0
 52
90.0
 71
     2
 49
0.5
 62
   256
  6
BYLAYER
 49
-0.5
 62
   256
  6
BYLAYER
  0
ACDBPLACEHOLDER
  5
2D
102
{ACAD_REACTORS
330
E
102
}
330
E
  0
ACDBPLACEHOLDER
  5
F
102
{ACAD_REACTORS
330
E
102
}
330
E
  0
SCALE
  5
E0
102
{ACAD_REACTORS
330
DF
102
}
330
DF
100
AcDbScale
 70
     0
300
1:1
140
1.0
141
1.0
290
     1
  0
SCALE
  5
E1
102
{ACAD_REACTORS
330
DF
102
}
330
DF
100
AcDbScale
 70
     0
300
1/128" = 1'-0"
140
0.0078125
141
12.0
290
     0
  0
SCALE
  5
E2
102
{ACAD_REACTORS
330
DF
102
}
330
DF
100
AcDbScale
 70
     0
300
1/64" = 1'-0"
140
0.015625
141
12.0
290
     0
  0
SCALE
  5
E3
102
{ACAD_REACTORS
330
DF
102
}
330
DF
100
AcDbScale
 70
     0
300
1/32" = 1'-0"
140
0.03125
141
12.0
290
     0
  0
SCALE
  5
E4
102
{ACAD_REACTORS
330
DF
102
}
330
DF
100
AcDbScale
 70
     0
300
1/16" = 1'-0"
140
0.0625
141
12.0
290
     0
  0
SCALE
  5
E5
102
{ACAD_REACTORS
330
DF
102
}
330
DF
100
AcDbScale
 70
     0
300
3/32" = 1'-0"
140
0.09375
141
12.0
290
     0
  0
SCALE
  5
E6
102
{ACAD_REACTORS
330
DF
102
}
330
DF
100
AcDbScale
 70
     0
300
1/8" = 1'-0"
140
0.125
141
12.0
290
     0
  0
SCALE
  5
E7
102
{ACAD_REACTORS
330
DF
102
}
330
DF
100
AcDbScale
 70
     0
300
3/16" = 1'-0"
140
0.1875
141
12.0
290
     0
  0
SCALE
  5
E8
102
{ACAD_REACTORS
330
DF
102
}
330
DF
100
AcDbScale
 70
     0
300
1/4" = 1'-0"
140
0.25
141
12.0
290
     0
  0
SCALE
  5
E9
102
{ACAD_REACTORS
330
DF
102
}
330
DF
100
AcDbScale
 70
     0
300
3/8" = 1'-0"
140
0.375
141
12.0
290
     0
  0
SCALE
  5
EA
102
{ACAD_REACTORS
330
DF
102
}
330
DF
100
AcDbScale
 70
     0
300
1/2" = 1'-0"
140
0.5
141
12.0
290
     0
  0
SCALE
  5
EB
102
{ACAD_REACTORS
330
DF
102
}
330
DF
100
AcDbScale
 70
     0
300
3/4" = 1'-0"
140
0.75
141
12.0
290
     0
  0
SCALE
  5
EC
102
{ACAD_REACTORS
330
DF
102
}
330
DF
100
AcDbScale
 70
     0
300
1" = 1'-0"
140
1.0
141
12.0
290
     0
  0
SCALE
  5
ED
102
{ACAD_REACTORS
330
DF
102
}
330
DF
100
AcDbScale
 70
     0
300
1-1/2" = 1'-0"
140
1.5
141
12.0
290
     0
  0
SCALE
  5
EE
102
{ACAD_REACTORS
330
DF
102
}
330
DF
100
AcDbScale
 70
     0
300
3" = 1'-0"
140
3.0
141
12.0
290
     0
  0
SCALE
  5
EF
102
{ACAD_REACTORS
330
DF
102
}
330
DF
100
AcDbScale
 70
     0
300
6" = 1'-0"
140
6.0
141
12.0
290
     0
  0
SCALE
  5
F0
102
{ACAD_REACTORS
330
DF
102
}
330
DF
100
AcDbScale
 70
     0
300
1'-0" = 1'-0"
140
12.0
141
12.0
290
     0
  0
ACDBSECTIONVIEWSTYLE
  5
F4
102
{ACAD_XDICTIONARY
360
145
102
}
102
{ACAD_REACTORS
330
F3
102
}
330
F3
100
AcDbModelDocViewStyle
 70
     0
  3
Imperial24
290
     0
100
AcDbSectionViewStyle
 70
     0
 71
     0
 90
       78
 71
     1
340
11
 62
   256
 40
0.24
340
0
340
0
 62
   256
 40
0.24
300
I, O, Q, S, X, Z
 40
0.48
 90
        3
 40
0.18
 90
        1
 71
     2
340
16
 90
       25
 62
   256
340
16
 90
       50
 62
   256
 40
0.24
 40
0.0
 40
0.24
 71
     3
340
11
 62
   256
 40
0.24
 90
        1
 40
0.75
 90
        1
300
%<\AcVar ViewType \f "%tc1">% %<\AcVar ViewSectionStartId>%-%<\AcVar ViewSectionEndId>%\PSCALE %<\AcVar ViewScale \f "%sn">%
 71
     4
 62
   256
 62
   257
300
ANSI31
 40
1.0
 90
        0
290
     0
290
     0
 90
        6
 40
0.0
 40
1.570796326794896
 40
0.2617993877991494
 40
1.308996938995747
 40
-0.2617993877991494
 40
1.832595714594046
  0
TABLESTYLE
  5
DE
102
{ACAD_XDICTIONARY
360
110
102
}
102
{ACAD_REACTORS
330
DD
102
}
330
DD
100
AcDbTableStyle
280
     0
  3
Standard
 70
     0
 71
     0
 40
0.06
 41
0.06
280
     0
281
     0
  7
Standard
140
0.18
170
     2
 62
     0
 63
     7
283
     0
 90
      512
 91
        0
  1

274
    -2
284
     1
 64
     0
275
    -2
285
     1
 65
     0
276
    -2
286
     1
 66
     0
277
    -2
287
     1
 67
     0
278
    -2
288
     1
 68
     0
279
    -2
289
     1
 69
     0
  7
Standard
140
0.25
170
     5
 62
     0
 63
     7
283
     0
 90
      512
 91
        0
  1

274
    -2
284
     1
 64
     0
275
    -2
285
     1
 65
     0
276
    -2
286
     1
 66
     0
277
    -2
287
     1
 67
     0
278
    -2
288
     1
 68
     0
279
    -2
289
     1
 69
     0
  7
Standard
140
0.18
170
     5
 62
     0
 63
     7
283
     0
 90
      512
 91
        0
  1

274
    -2
284
     1
 64
     0
275
    -2
285
     1
 65
     0
276
    -2
286
     1
 66
     0
277
    -2
287
     1
 67
     0
278
    -2
288
     1
 68
     0
279
    -2
289
     1
 69
     0
  0
VISUALSTYLE
  5
C9
102
{ACAD_XDICTIONARY
360
11D
102
}
102
{ACAD_REACTORS
330
C3
102
}
330
C3
100
AcDbVisualStyle
  2
2dWireframe
 70
     4
177
     2
291
     0
 71
     0
176
     1
 72
     2
176
     1
 73
     0
176
     1
 90
        0
176
     1
 40
0.6
176
     1
 41
30.0
176
     1
 63
     7
421
 16777215
176
     1
 74
     1
176
     1
 91
        4
176
     1
 64
     7
176
     1
 65
   257
176
     1
 75
     1
176
     1
175
     1
176
     1
 42
1.0
176
     1
 92
        0
176
     1
 66
   257
176
     1
 43
1.0
176
     1
 76
     1
176
     1
 77
     6
176
     1
 78
     2
176
     1
 67
     7
176
     1
 79
     5
176
     1
170
     0
176
     1
171
     0
176
     1
290
     0
176
     1
 93
        1
176
     1
 44
0.0
176
     1
173
     0
176
     1
1001
ACAD
1000
AcDbSavedByObjectVersion
1070
     0
  0
VISUALSTYLE
  5
C8
102
{ACAD_XDICTIONARY
360
11B
102
}
102
{ACAD_REACTORS
330
C3
102
}
330
C3
100
AcDbVisualStyle
  2
Basic
 70
     7
177
     2
291
     1
 71
     1
176
     1
 72
     0
176
     1
 73
     1
176
     1
 90
        0
176
     1
 40
0.6
176
     1
 41
30.0
176
     1
 63
     7
421
 16777215
176
     1
 74
     0
176
     1
 91
        4
176
     1
 64
     7
176
     1
 65
   257
176
     1
 75
     1
176
     1
175
     1
176
     1
 42
1.0
176
     1
 92
        8
176
     1
 66
     7
176
     1
 43
1.0
176
     1
 76
     1
176
     1
 77
     6
176
     1
 78
     2
176
     1
 67
     7
176
     1
 79
     5
176
     1
170
     0
176
     1
171
     0
176
     1
290
     0
176
     1
 93
        1
176
     1
 44
0.0
176
     1
173
     0
176
     1
1001
ACAD
1000
AcDbSavedByObjectVersion
1070
     0
  0
VISUALSTYLE
  5
CF
102
{ACAD_XDICTIONARY
360
129
102
}
102
{ACAD_REACTORS
330
C3
102
}
330
C3
100
AcDbVisualStyle
  2
Brighten
 70
    12
177
     2
291
     1
 71
     2
176
     1
 72
     2
176
     1
 73
     0
176
     1
 90
        0
176
     1
 40
0.6
176
     1
 41
30.0
176
     1
 63
     7
421
 16777215
176
     1
 74
     1
176
     1
 91
        4
176
     1
 64
     7
176
     1
 65
   257
176
     1
 75
     1
176
     1
175
     1
176
     1
 42
1.0
176
     1
 92
        8
176
     1
 66
     7
176
     1
 43
1.0
176
     1
 76
     1
176
     1
 77
     6
176
     1
 78
     2
176
     1
 67
     7
176
     1
 79
     5
176
     1
170
     0
176
     1
171
     0
176
     1
290
     0
176
     1
 93
        1
176
     1
 44
50.0
176
     1
173
     0
176
     1
1001
ACAD
1000
AcDbSavedByObjectVersion
1070
     0
  0
VISUALSTYLE
  5
D3
102
{ACAD_XDICTIONARY
360
131
102
}
102
{ACAD_REACTORS
330
C3
102
}
330
C3
100
AcDbVisualStyle
  2
ColorChange
 70
    16
177
     2
291
     1
 71
     2
176
     1
 72
     2
176
     1
 73
     3
176
     1
 90
        0
176
     1
 40
0.6
176
     1
 41
30.0
176
     1
 63
     8
421
  8421504
176
     1
 74
     1
176
     1
 91
        4
176
     1
 64
     7
176
     1
 65
   257
176
     1
 75
     1
176
     1
175
     1
176
     1
 42
1.0
176
     1
 92
        8
176
     1
 66
     8
424
  8421504
176
     1
 43
1.0
176
     1
 76
     1
176
     1
 77
     6
176
     1
 78
     2
176
     1
 67
     7
176
     1
 79
     5
176
     1
170
     0
176
     1
171
     0
176
     1
290
     0
176
     1
 93
        1
176
     1
 44
0.0
176
     1
173
     0
176
     1
1001
ACAD
1000
AcDbSavedByObjectVersion
1070
     0
  0
VISUALSTYLE
  5
CC
102
{ACAD_XDICTIONARY
360
123
102
}
102
{ACAD_REACTORS
330
C3
102
}
330
C3
100
AcDbVisualStyle
  2
Conceptual
 70
     9
177
     2
291
     0
 71
     3
176
     1
 72
     2
176
     1
 73
     0
176
     1
 90
        0
176
     1
 40
0.6
176
     1
 41
30.0
176
     1
 63
     7
421
 16777215
176
     1
 74
     2
176
     1
 91
        2
176
     1
 64
     7
176
     1
 65
   257
176
     1
 75
     1
176
     1
175
     1
176
     1
 42
179.0
176
     1
 92
        8
176
     1
 66
     7
176
     1
 43
1.0
176
     1
 76
     1
176
     1
 77
     6
176
     1
 78
     2
176
     1
 67
     7
176
     1
 79
     3
176
     1
170
     0
176
     1
171
     0
176
     1
290
     0
176
     1
 93
        1
176
     1
 44
0.0
176
     1
173
     0
176
     1
1001
ACAD
1000
AcDbSavedByObjectVersion
1070
     0
  0
VISUALSTYLE
  5
CE
102
{ACAD_XDICTIONARY
360
127
102
}
102
{ACAD_REACTORS
330
C3
102
}
330
C3
100
AcDbVisualStyle
  2
Dim
 70
    11
177
     2
291
     1
 71
     2
176
     1
 72
     2
176
     1
 73
     0
176
     1
 90
        0
176
     1
 40
0.6
176
     1
 41
30.0
176
     1
 63
     7
421
 16777215
176
     1
 74
     1
176
     1
 91
        4
176
     1
 64
     7
176
     1
 65
   257
176
     1
 75
     1
176
     1
175
     1
176
     1
 42
1.0
176
     1
 92
        8
176
     1
 66
     7
176
     1
 43
1.0
176
     1
 76
     1
176
     1
 77
     6
176
     1
 78
     2
176
     1
 67
     7
176
     1
 79
     5
176
     1
170
     0
176
     1
171
     0
176
     1
290
     0
176
     1
 93
        1
176
     1
 44
-50.0
176
     1
173
     0
176
     1
1001
ACAD
1000
AcDbSavedByObjectVersion
1070
     0
  0
VISUALSTYLE
  5
DB
102
{ACAD_XDICTIONARY
360
141
102
}
102
{ACAD_REACTORS
330
C3
102
}
330
C3
100
AcDbVisualStyle
  2
EdgeColorOff
 70
    22
177
     2
291
     1
 71
     2
176
     0
 72
     2
176
     0
 73
     0
176
     0
 90
        0
176
     0
 40
0.6
176
     0
 41
30.0
176
     0
 63
     7
421
 16777215
176
     0
 74
     1
176
     0
 91
        4
176
     0
 64
     7
176
     0
 65
   257
176
     0
 75
     1
176
     0
175
     1
176
     0
 42
1.0
176
     0
 92
        8
176
     2
 66
     7
176
     0
 43
1.0
176
     0
 76
     1
176
     0
 77
     6
176
     0
 78
     2
176
     0
 67
     7
176
     0
 79
     5
176
     0
170
     0
176
     0
171
     0
176
     0
290
     0
176
     0
 93
        1
176
     0
 44
0.0
176
     0
173
     0
176
     0
1001
ACAD
1000
AcDbSavedByObjectVersion
1070
     0
  0
VISUALSTYLE
  5
D2
102
{ACAD_XDICTIONARY
360
12F
102
}
102
{ACAD_REACTORS
330
C3
102
}
330
C3
100
AcDbVisualStyle
  2
Facepattern
 70
    15
177
     2
291
     1
 71
     2
176
     1
 72
     2
176
     1
 73
     0
176
     1
 90
        0
176
     1
 40
0.6
176
     1
 41
30.0
176
     1
 63
     7
421
 16777215
176
     1
 74
     1
176
     1
 91
        4
176
     1
 64
     7
176
     1
 65
   257
176
     1
 75
     1
176
     1
175
     1
176
     1
 42
1.0
176
     1
 92
        8
176
     1
 66
     7
176
     1
 43
1.0
176
     1
 76
     1
176
     1
 77
     6
176
     1
 78
     2
176
     1
 67
     7
176
     1
 79
     5
176
     1
170
     0
176
     1
171
     0
176
     1
290
     0
176
     1
 93
        1
176
     1
 44
0.0
176
     1
173
     0
176
     1
1001
ACAD
1000
AcDbSavedByObjectVersion
1070
     0
  0
VISUALSTYLE
  5
C4
102
{ACAD_XDICTIONARY
360
113
102
}
102
{ACAD_REACTORS
330
C3
102
}
330
C3
100
AcDbVisualStyle
  2
Flat
 70
     0
177
     2
291
     1
 71
     2
176
     1
 72
     1
176
     1
 73
     1
176
     1
 90
        2
176
     1
 40
0.6
176
     1
 41
30.0
176
     1
 63
     7
421
 16777215
176
     1
 74
     0
176
     1
 91
        0
176
     1
 64
     7
176
     1
 65
   257
176
     1
 75
     1
176
     1
175
     1
176
     1
 42
1.0
176
     1
 92
        8
176
     1
 66
     7
176
     1
 43
1.0
176
     1
 76
     1
176
     1
 77
     6
176
     1
 78
     2
176
     1
 67
     7
176
     1
 79
     5
176
     1
170
     0
176
     1
171
     0
176
     1
290
     0
176
     1
 93
       13
176
     1
 44
0.0
176
     1
173
     0
176
     1
1001
ACAD
1000
AcDbSavedByObjectVersion
1070
     0
  0
VISUALSTYLE
  5
C5
102
{ACAD_XDICTIONARY
360
115
102
}
102
{ACAD_REACTORS
330
C3
102
}
330
C3
100
AcDbVisualStyle
  2
FlatWithEdges
 70
     1
177
     2
291
     1
 71
     2
176
     1
 72
     1
176
     1
 73
     1
176
     1
 90
        2
176
     1
 40
0.6
176
     1
 41
30.0
176
     1
 63
     7
421
 16777215
176
     1
 74
     1
176
     1
 91
        0
176
     1
 64
     7
176
     1
 65
   257
176
     1
 75
     1
176
     1
175
     1
176
     1
 42
1.0
176
     1
 92
        0
176
     1
 66
   257
176
     1
 43
1.0
176
     1
 76
     1
176
     1
 77
     6
176
     1
 78
     2
176
     1
 67
     7
176
     1
 79
     5
176
     1
170
     0
176
     1
171
     0
176
     1
290
     0
176
     1
 93
       13
176
     1
 44
0.0
176
     1
173
     0
176
     1
1001
ACAD
1000
AcDbSavedByObjectVersion
1070
     0
  0
VISUALSTYLE
  5
C6
102
{ACAD_XDICTIONARY
360
117
102
}
102
{ACAD_REACTORS
330
C3
102
}
330
C3
100
AcDbVisualStyle
  2
Gouraud
 70
     2
177
     2
291
     1
 71
     2
176
     1
 72
     2
176
     1
 73
     1
176
     1
 90
        2
176
     1
 40
0.6
176
     1
 41
30.0
176
     1
 63
     7
421
 16777215
176
     1
 74
     0
176
     1
 91
        0
176
     1
 64
     7
176
     1
 65
   257
176
     1
 75
     1
176
     1
175
     1
176
     1
 42
1.0
176
     1
 92
        0
176
     1
 66
     7
176
     1
 43
1.0
176
     1
 76
     1
176
     1
 77
     6
176
     1
 78
     2
176
     1
 67
     7
176
     1
 79
     5
176
     1
170
     0
176
     1
171
     0
176
     1
290
     0
176
     1
 93
       13
176
     1
 44
0.0
176
     1
173
     0
176
     1
1001
ACAD
1000
AcDbSavedByObjectVersion
1070
     0
  0
VISUALSTYLE
  5
C7
102
{ACAD_XDICTIONARY
360
119
102
}
102
{ACAD_REACTORS
330
C3
102
}
330
C3
100
AcDbVisualStyle
  2
GouraudWithEdges
 70
     3
177
     2
291
     1
 71
     2
176
     1
 72
     2
176
     1
 73
     1
176
     1
 90
        2
176
     1
 40
0.6
176
     1
 41
30.0
176
     1
 63
     7
421
 16777215
176
     1
 74
     1
176
     1
 91
        0
176
     1
 64
     7
176
     1
 65
   257
176
     1
 75
     1
176
     1
175
     1
176
     1
 42
1.0
176
     1
 92
        0
176
     1
 66
   257
176
     1
 43
1.0
176
     1
 76
     1
176
     1
 77
     6
176
     1
 78
     2
176
     1
 67
     7
176
     1
 79
     5
176
     1
170
     0
176
     1
171
     0
176
     1
290
     0
176
     1
 93
       13
176
     1
 44
0.0
176
     1
173
     0
176
     1
1001
ACAD
1000
AcDbSavedByObjectVersion
1070
     0
  0
VISUALSTYLE
  5
CB
102
{ACAD_XDICTIONARY
360
121
102
}
102
{ACAD_REACTORS
330
C3
102
}
330
C3
100
AcDbVisualStyle
  2
Hidden
 70
     6
177
     2
291
     0
 71
     1
176
     1
 72
     2
176
     1
 73
     2
176
     1
 90
        0
176
     1
 40
0.6
176
     1
 41
30.0
176
     1
 63
     7
421
 16777215
176
     1
 74
     2
176
     1
 91
        2
176
     1
 64
     7
176
     1
 65
   257
176
     1
 75
     2
176
     1
175
     1
176
     1
 42
40.0
176
     1
 92
        0
176
     1
 66
   257
176
     1
 43
1.0
176
     1
 76
     1
176
     1
 77
     6
176
     1
 78
     2
176
     1
 67
     7
176
     1
 79
     3
176
     1
170
     0
176
     1
171
     0
176
     1
290
     0
176
     1
 93
        1
176
     1
 44
0.0
176
     1
173
     0
176
     1
1001
ACAD
1000
AcDbSavedByObjectVersion
1070
     0
  0
VISUALSTYLE
  5
D9
102
{ACAD_XDICTIONARY
360
13D
102
}
102
{ACAD_REACTORS
330
C3
102
}
330
C3
100
AcDbVisualStyle
  2
JitterOff
 70
    20
177
     2
291
     1
 71
     2
176
     0
 72
     2
176
     0
 73
     0
176
     0
 90
        0
176
     0
 40
0.6
176
     0
 41
30.0
176
     0
 63
     7
421
 16777215
176
     0
 74
     1
176
     0
 91
        4
176
     0
 64
     7
176
     0
 65
   257
176
     0
 75
     1
176
     0
175
     1
176
     0
 42
1.0
176
     0
 92
       10
176
     2
 66
     7
176
     0
 43
1.0
176
     0
 76
     1
176
     0
 77
     6
176
     0
 78
     2
176
     0
 67
     7
176
     0
 79
     5
176
     0
170
     0
176
     0
171
     0
176
     0
290
     0
176
     0
 93
        1
176
     0
 44
0.0
176
     0
173
     0
176
     0
1001
ACAD
1000
AcDbSavedByObjectVersion
1070
     0
  0
VISUALSTYLE
  5
D1
102
{ACAD_XDICTIONARY
360
12D
102
}
102
{ACAD_REACTORS
330
C3
102
}
330
C3
100
AcDbVisualStyle
  2
Linepattern
 70
    14
177
     2
291
     1
 71
     2
176
     1
 72
     2
176
     1
 73
     0
176
     1
 90
        0
176
     1
 40
0.6
176
     1
 41
30.0
176
     1
 63
     7
421
 16777215
176
     1
 74
     1
176
     1
 91
        4
176
     1
 64
     7
176
     1
 65
   257
176
     1
 75
     7
176
     1
175
     7
176
     1
 42
1.0
176
     1
 92
        8
176
     1
 66
     7
176
     1
 43
1.0
176
     1
 76
     1
176
     1
 77
     6
176
     1
 78
     2
176
     1
 67
     7
176
     1
 79
     5
176
     1
170
     0
176
     1
171
     0
176
     1
290
     0
176
     1
 93
        1
176
     1
 44
0.0
176
     1
173
     0
176
     1
1001
ACAD
1000
AcDbSavedByObjectVersion
1070
     0
  0
VISUALSTYLE
  5
DA
102
{ACAD_XDICTIONARY
360
13F
102
}
102
{ACAD_REACTORS
330
C3
102
}
330
C3
100
AcDbVisualStyle
  2
OverhangOff
 70
    21
177
     2
291
     1
 71
     2
176
     0
 72
     2
176
     0
 73
     0
176
     0
 90
        0
176
     0
 40
0.6
176
     0
 41
30.0
176
     0
 63
     7
421
 16777215
176
     0
 74
     1
176
     0
 91
        4
176
     0
 64
     7
176
     0
 65
   257
176
     0
 75
     1
176
     0
175
     1
176
     0
 42
1.0
176
     0
 92
        9
176
     2
 66
     7
176
     0
 43
1.0
176
     0
 76
     1
176
     0
 77
     6
176
     0
 78
     2
176
     0
 67
     7
176
     0
 79
     5
176
     0
170
     0
176
     0
171
     0
176
     0
290
     0
176
     0
 93
        1
176
     0
 44
0.0
176
     0
173
     0
176
     0
1001
ACAD
1000
AcDbSavedByObjectVersion
1070
     0
  0
VISUALSTYLE
  5
CD
102
{ACAD_XDICTIONARY
360
125
102
}
102
{ACAD_REACTORS
330
C3
102
}
330
C3
100
AcDbVisualStyle
  2
Realistic
 70
     8
177
     2
291
     0
 71
     2
176
     1
 72
     3
176
     1
 73
     0
176
     1
 90
        2
176
     1
 40
0.6
176
     1
 41
30.0
176
     1
 63
     7
421
 16777215
176
     1
 74
     0
176
     1
 91
        0
176
     1
 64
     7
176
     1
 65
   257
176
     1
 75
     1
176
     1
175
     1
176
     1
 42
1.0
176
     1
 92
        8
176
     1
 66
   257
176
     1
 43
1.0
176
     1
 76
     1
176
     1
 77
     6
176
     1
 78
     2
176
     1
 67
     7
176
     1
 79
     3
176
     1
170
     0
176
     1
171
     0
176
     1
290
     0
176
     1
 93
       13
176
     1
 44
0.0
176
     1
173
     0
176
     1
1001
ACAD
1000
AcDbSavedByObjectVersion
1070
     0
  0
VISUALSTYLE
  5
D8
102
{ACAD_XDICTIONARY
360
13B
102
}
102
{ACAD_REACTORS
330
C3
102
}
330
C3
100
AcDbVisualStyle
  2
Shaded
 70
    27
177
     2
291
     0
 71
     2
176
     1
 72
     2
176
     1
 73
     1
176
     1
 90
        2
176
     1
 40
0.6
176
     1
 41
30.0
176
     1
 63
     7
421
 16777215
176
     1
 74
     0
176
     1
 91
        4
176
     1
 64
     7
176
     1
 65
   257
176
     1
 75
     1
176
     1
175
     1
176
     1
 42
1.0
176
     1
 92
        8
176
     1
 66
   257
176
     1
 43
1.0
176
     1
 76
     1
176
     1
 77
     6
176
     1
 78
     2
176
     1
 67
     8
425
  7895160
176
     1
 79
     3
176
     1
170
     0
176
     1
171
     0
176
     1
290
     0
176
     1
 93
        5
176
     1
 44
0.0
176
     1
173
     0
176
     1
1001
ACAD
1000
AcDbSavedByObjectVersion
1070
     0
  0
VISUALSTYLE
  5
D7
102
{ACAD_XDICTIONARY
360
139
102
}
102
{ACAD_REACTORS
330
C3
102
}
330
C3
100
AcDbVisualStyle
  2
Shaded with edges
 70
    26
177
     2
291
     0
 71
     2
176
     1
 72
     2
176
     1
 73
     1
176
     1
 90
        2
176
     1
 40
0.6
176
     1
 41
30.0
176
     1
 63
     7
421
 16777215
176
     1
 74
     1
176
     1
 91
        2
176
     1
 64
     7
176
     1
 65
   257
176
     1
 75
     2
176
     1
175
     1
176
     1
 42
1.0
176
     1
 92
        8
176
     1
 66
   257
176
     1
 43
1.0
176
     1
 76
     1
176
     1
 77
     6
176
     1
 78
     2
176
     1
 67
     7
176
     1
 79
     3
176
     1
170
     0
176
     1
171
     0
176
     1
290
     0
176
     1
 93
        5
176
     1
 44
0.0
176
     1
173
     0
176
     1
1001
ACAD
1000
AcDbSavedByObjectVersion
1070
     0
  0
VISUALSTYLE
  5
D4
102
{ACAD_XDICTIONARY
360
133
102
}
102
{ACAD_REACTORS
330
C3
102
}
330
C3
100
AcDbVisualStyle
  2
Shades of Gray
 70
    23
177
     2
291
     0
 71
     2
176
     1
 72
     2
176
     1
 73
     3
176
     1
 90
        0
176
     1
 40
0.6
176
     1
 41
30.0
176
     1
 63
     7
421
 16777215
176
     1
 74
     2
176
     1
 91
        2
176
     1
 64
     7
176
     1
 65
     7
176
     1
 75
     1
176
     1
175
     1
176
     1
 42
40.0
176
     1
 92
        8
176
     1
 66
     7
176
     1
 43
1.0
176
     1
 76
     1
176
     1
 77
     6
176
     1
 78
     2
176
     1
 67
     7
176
     1
 79
     3
176
     1
170
     0
176
     1
171
     0
176
     1
290
     0
176
     1
 93
        1
176
     1
 44
0.0
176
     1
173
     0
176
     1
1001
ACAD
1000
AcDbSavedByObjectVersion
1070
     0
  0
VISUALSTYLE
  5
D5
102
{ACAD_XDICTIONARY
360
135
102
}
102
{ACAD_REACTORS
330
C3
102
}
330
C3
100
AcDbVisualStyle
  2
Sketchy
 70
    24
177
     2
291
     0
 71
     1
176
     1
 72
     2
176
     1
 73
     2
176
     1
 90
        0
176
     1
 40
0.6
176
     1
 41
30.0
176
     1
 63
     7
421
 16777215
176
     1
 74
     2
176
     1
 91
        2
176
     1
 64
     7
176
     1
 65
     7
176
     1
 75
     1
176
     1
175
     1
176
     1
 42
40.0
176
     1
 92
       11
176
     1
 66
     7
176
     1
 43
1.0
176
     1
 76
     1
176
     1
 77
     6
176
     1
 78
     2
176
     1
 67
     7
176
     1
 79
     6
176
     1
170
     0
176
     1
171
     0
176
     1
290
     0
176
     1
 93
        1
176
     1
 44
0.0
176
     1
173
     0
176
     1
1001
ACAD
1000
AcDbSavedByObjectVersion
1070
     0
  0
VISUALSTYLE
  5
D0
102
{ACAD_XDICTIONARY
360
12B
102
}
102
{ACAD_REACTORS
330
C3
102
}
330
C3
100
AcDbVisualStyle
  2
Thicken
 70
    13
177
     2
291
     1
 71
     2
176
     1
 72
     2
176
     1
 73
     0
176
     1
 90
        0
176
     1
 40
0.6
176
     1
 41
30.0
176
     1
 63
     7
421
 16777215
176
     1
 74
     1
176
     1
 91
        4
176
     1
 64
     7
176
     1
 65
   257
176
     1
 75
     1
176
     1
175
     1
176
     1
 42
1.0
176
     1
 92
       12
176
     1
 66
     7
176
     1
 43
1.0
176
     1
 76
     1
176
     1
 77
     6
176
     1
 78
     2
176
     1
 67
     7
176
     1
 79
     5
176
     1
170
     0
176
     1
171
     0
176
     1
290
     0
176
     1
 93
        1
176
     1
 44
0.0
176
     1
173
     0
176
     1
1001
ACAD
1000
AcDbSavedByObjectVersion
1070
     0
  0
VISUALSTYLE
  5
CA
102
{ACAD_XDICTIONARY
360
11F
102
}
102
{ACAD_REACTORS
330
C3
102
}
330
C3
100
AcDbVisualStyle
  2
Wireframe
 70
     5
177
     2
291
     0
 71
     0
176
     1
 72
     2
176
     1
 73
     0
176
     1
 90
        0
176
     1
 40
0.6
176
     1
 41
30.0
176
     1
 63
     7
421
 16777215
176
     1
 74
     1
176
     1
 91
        4
176
     1
 64
     7
176
     1
 65
   257
176
     1
 75
     1
176
     1
175
     1
176
     1
 42
1.0
176
     1
 92
        0
176
     1
 66
   257
176
     1
 43
1.0
176
     1
 76
     1
176
     1
 77
     6
176
     1
 78
     2
176
     1
 67
     7
176
     1
 79
     3
176
     1
170
     0
176
     1
171
     0
176
     1
290
     0
176
     1
 93
        1
176
     1
 44
0.0
176
     1
173
     0
176
     1
1001
ACAD
1000
AcDbSavedByObjectVersion
1070
     0
  0
VISUALSTYLE
  5
D6
102
{ACAD_XDICTIONARY
360
137
102
}
102
{ACAD_REACTORS
330
C3
102
}
330
C3
100
AcDbVisualStyle
  2
X-Ray
 70
    25
177
     2
291
     0
 71
     2
176
     1
 72
     2
176
     1
 73
     1
176
     1
 90
        1
176
     1
 40
0.5
176
     1
 41
30.0
176
     1
 63
     7
421
 16777215
176
     1
 74
     1
176
     1
 91
        0
176
     1
 64
     7
176
     1
 65
   257
176
     1
 75
     1
176
     1
175
     1
176
     1
 42
1.0
176
     1
 92
        8
176
     1
 66
     7
176
     1
 43
1.0
176
     1
 76
     1
176
     1
 77
     6
176
     1
 78
     2
176
     1
 67
     7
176
     1
 79
     3
176
     1
170
     0
176
     1
171
     0
176
     1
290
     0
176
     1
 93
       13
176
     1
 44
0.0
176
     1
173
     0
176
     1
1001
ACAD
1000
AcDbSavedByObjectVersion
1070
     0
  0
DICTIONARYVAR
  5
10C
102
{ACAD_REACTORS
330
106
102
}
330
106
100
DictionaryVariables
280
     0
  1
1:1
  0
DICTIONARYVAR
  5
108
102
{ACAD_REACTORS
330
106
102
}
330
106
100
DictionaryVariables
280
     0
  1
STANDARD
  0
DICTIONARYVAR
  5
107
102
{ACAD_REACTORS
330
106
102
}
330
106
100
DictionaryVariables
280
     0
  1
STANDARD
  0
DICTIONARYVAR
  5
109
102
{ACAD_REACTORS
330
106
102
}
330
106
100
DictionaryVariables
280
     0
  1
Imperial24
  0
DICTIONARYVAR
  5
10A
102
{ACAD_REACTORS
330
106
102
}
330
106
100
DictionaryVariables
280
     0
  1
Imperial24
  0
DICTIONARYVAR
  5
10E
102
{ACAD_REACTORS
330
106
102
}
330
106
100
DictionaryVariables
280
     0
  1
1
  0
DICTIONARYVAR
  5
10F
102
{ACAD_REACTORS
330
106
102
}
330
106
100
DictionaryVariables
280
     0
  1
15
  0
DICTIONARYVAR
  5
10D
102
{ACAD_REACTORS
330
106
102
}
330
106
100
DictionaryVariables
280
     0
  1
0
  0
DICTIONARYVAR
  5
10B
102
{ACAD_REACTORS
330
106
102
}
330
106
100
DictionaryVariables
280
     0
  1
0
  0
DICTIONARY
  5
147
330
F6
100
AcDbDictionary
280
     1
281
     1
  3
ACAD_XREC_ROUNDTRIP
360
148
  0
DICTIONARY
  5
B4
330
B3
100
AcDbDictionary
280
     1
281
     1
  3
BUMPTILE
360
B6
  3
DIFFUSETILE
360
B5
  3
OPACITYTILE
360
B9
  3
REFLECTIONTILE
360
B8
  3
REFRACTIONTILE
360
BA
  3
SPECULARTILE
360
B7
  0
DICTIONARY
  5
AC
330
AB
100
AcDbDictionary
280
     1
281
     1
  3
BUMPTILE
360
AE
  3
DIFFUSETILE
360
AD
  3
OPACITYTILE
360
B1
  3
REFLECTIONTILE
360
B0
  3
REFRACTIONTILE
360
B2
  3
SPECULARTILE
360
AF
  0
DICTIONARY
  5
BC
330
BB
100
AcDbDictionary
280
     1
281
     1
  3
BUMPTILE
360
BE
  3
DIFFUSETILE
360
BD
  3
OPACITYTILE
360
C1
  3
REFLECTIONTILE
360
C0
  3
REFRACTIONTILE
360
C2
  3
SPECULARTILE
360
BF
  0
DICTIONARY
  5
143
330
F2
100
AcDbDictionary
280
     1
281
     1
  3
ACAD_XREC_ROUNDTRIP
360
144
  0
DICTIONARY
  5
145
330
F4
100
AcDbDictionary
280
     1
281
     1
  3
ACAD_XREC_ROUNDTRIP
360
146
  0
DICTIONARY
  5
110
330
DE
100
AcDbDictionary
280
     1
281
     1
  3
ACAD_ROUNDTRIP_2008_TABLESTYLE_CELLSTYLEMAP
360
111
  0
DICTIONARY
  5
11D
330
C9
100
AcDbDictionary
280
     1
281
     1
  3
ACAD_XREC_ROUNDTRIP
360
11E
  0
DICTIONARY
  5
11B
330
C8
100
AcDbDictionary
280
     1
281
     1
  3
ACAD_XREC_ROUNDTRIP
360
11C
  0
DICTIONARY
  5
129
330
CF
100
AcDbDictionary
280
     1
281
     1
  3
ACAD_XREC_ROUNDTRIP
360
12A
  0
DICTIONARY
  5
131
330
D3
100
AcDbDictionary
280
     1
281
     1
  3
ACAD_XREC_ROUNDTRIP
360
132
  0
DICTIONARY
  5
123
330
CC
100
AcDbDictionary
280
     1
281
     1
  3
ACAD_XREC_ROUNDTRIP
360
124
  0
DICTIONARY
  5
127
330
CE
100
AcDbDictionary
280
     1
281
     1
  3
ACAD_XREC_ROUNDTRIP
360
128
  0
DICTIONARY
  5
141
330
DB
100
AcDbDictionary
280
     1
281
     1
  3
ACAD_XREC_ROUNDTRIP
360
142
  0
DICTIONARY
  5
12F
330
D2
100
AcDbDictionary
280
     1
281
     1
  3
ACAD_XREC_ROUNDTRIP
360
130
  0
DICTIONARY
  5
113
330
C4
100
AcDbDictionary
280
     1
281
     1
  3
ACAD_XREC_ROUNDTRIP
360
114
  0
DICTIONARY
  5
115
330
C5
100
AcDbDictionary
280
     1
281
     1
  3
ACAD_XREC_ROUNDTRIP
360
116
  0
DICTIONARY
  5
117
330
C6
100
AcDbDictionary
280
     1
281
     1
  3
ACAD_XREC_ROUNDTRIP
360
118
  0
DICTIONARY
  5
119
330
C7
100
AcDbDictionary
280
     1
281
     1
  3
ACAD_XREC_ROUNDTRIP
360
11A
  0
DICTIONARY
  5
121
330
CB
100
AcDbDictionary
280
     1
281
     1
  3
ACAD_XREC_ROUNDTRIP
360
122
  0
DICTIONARY
  5
13D
330
D9
100
AcDbDictionary
280
     1
281
     1
  3
ACAD_XREC_ROUNDTRIP
360
13E
  0
DICTIONARY
  5
12D
330
D1
100
AcDbDictionary
280
     1
281
     1
  3
ACAD_XREC_ROUNDTRIP
360
12E
  0
DICTIONARY
  5
13F
330
DA
100
AcDbDictionary
280
     1
281
     1
  3
ACAD_XREC_ROUNDTRIP
360
140
  0
DICTIONARY
  5
125
330
CD
100
AcDbDictionary
280
     1
281
     1
  3
ACAD_XREC_ROUNDTRIP
360
126
  0
DICTIONARY
  5
13B
330
D8
100
AcDbDictionary
280
     1
281
     1
  3
ACAD_XREC_ROUNDTRIP
360
13C
  0
DICTIONARY
  5
139
330
D7
100
AcDbDictionary
280
     1
281
     1
  3
ACAD_XREC_ROUNDTRIP
360
13A
  0
DICTIONARY
  5
133
330
D4
100
AcDbDictionary
280
     1
281
     1
  3
ACAD_XREC_ROUNDTRIP
360
134
  0
DICTIONARY
  5
135
330
D5
100
AcDbDictionary
280
     1
281
     1
  3
ACAD_XREC_ROUNDTRIP
360
136
  0
DICTIONARY
  5
12B
330
D0
100
AcDbDictionary
280
     1
281
     1
  3
ACAD_XREC_ROUNDTRIP
360
12C
  0
DICTIONARY
  5
11F
330
CA
100
AcDbDictionary
280
     1
281
     1
  3
ACAD_XREC_ROUNDTRIP
360
120
  0
DICTIONARY
  5
137
330
D6
100
AcDbDictionary
280
     1
281
     1
  3
ACAD_XREC_ROUNDTRIP
360
138
  0
XRECORD
  5
148
102
{ACAD_REACTORS
330
147
102
}
330
147
100
AcDbXrecord
280
     1
102
DISPLAYNAME
  1
Imperial24
102
FLAGS
 90
        0
  0
XRECORD
  5
B6
102
{ACAD_REACTORS
330
B4
102
}
330
B4
100
AcDbXrecord
280
     1
270
     1
271
     1
  0
XRECORD
  5
B5
102
{ACAD_REACTORS
330
B4
102
}
330
B4
100
AcDbXrecord
280
     1
270
     1
271
     1
  0
XRECORD
  5
B9
102
{ACAD_REACTORS
330
B4
102
}
330
B4
100
AcDbXrecord
280
     1
270
     1
271
     1
  0
XRECORD
  5
B8
102
{ACAD_REACTORS
330
B4
102
}
330
B4
100
AcDbXrecord
280
     1
270
     1
271
     1
  0
XRECORD
  5
BA
102
{ACAD_REACTORS
330
B4
102
}
330
B4
100
AcDbXrecord
280
     1
270
     1
271
     1
  0
XRECORD
  5
B7
102
{ACAD_REACTORS
330
B4
102
}
330
B4
100
AcDbXrecord
280
     1
270
     1
271
     1
  0
XRECORD
  5
AE
102
{ACAD_REACTORS
330
AC
102
}
330
AC
100
AcDbXrecord
280
     1
270
     1
271
     1
  0
XRECORD
  5
AD
102
{ACAD_REACTORS
330
AC
102
}
330
AC
100
AcDbXrecord
280
     1
270
     1
271
     1
  0
XRECORD
  5
B1
102
{ACAD_REACTORS
330
AC
102
}
330
AC
100
AcDbXrecord
280
     1
270
     1
271
     1
  0
XRECORD
  5
B0
102
{ACAD_REACTORS
330
AC
102
}
330
AC
100
AcDbXrecord
280
     1
270
     1
271
     1
  0
XRECORD
  5
B2
102
{ACAD_REACTORS
330
AC
102
}
330
AC
100
AcDbXrecord
280
     1
270
     1
271
     1
  0
XRECORD
  5
AF
102
{ACAD_REACTORS
330
AC
102
}
330
AC
100
AcDbXrecord
280
     1
270
     1
271
     1
  0
XRECORD
  5
BE
102
{ACAD_REACTORS
330
BC
102
}
330
BC
100
AcDbXrecord
280
     1
270
     1
271
     1
  0
XRECORD
  5
BD
102
{ACAD_REACTORS
330
BC
102
}
330
BC
100
AcDbXrecord
280
     1
270
     1
271
     1
  0
XRECORD
  5
C1
102
{ACAD_REACTORS
330
BC
102
}
330
BC
100
AcDbXrecord
280
     1
270
     1
271
     1
  0
XRECORD
  5
C0
102
{ACAD_REACTORS
330
BC
102
}
330
BC
100
AcDbXrecord
280
     1
270
     1
271
     1
  0
XRECORD
  5
C2
102
{ACAD_REACTORS
330
BC
102
}
330
BC
100
AcDbXrecord
280
     1
270
     1
271
     1
  0
XRECORD
  5
BF
102
{ACAD_REACTORS
330
BC
102
}
330
BC
100
AcDbXrecord
280
     1
270
     1
271
     1
  0
XRECORD
  5
144
102
{ACAD_REACTORS
330
143
102
}
330
143
100
AcDbXrecord
280
     1
102
ACAD_ROUNDTRIP_2012_MLEADER_STYLE
298
     1
  0
XRECORD
  5
146
102
{ACAD_REACTORS
330
145
102
}
330
145
100
AcDbXrecord
280
     1
102
DISPLAYNAME
  1
Imperial24
102
FLAGS
 90
        0
  0
CELLSTYLEMAP
  5
111
102
{ACAD_REACTORS
330
110
102
}
330
110
100
AcDbCellStyleMap
 90
        3
300
CELLSTYLE
  1
TABLEFORMAT_BEGIN
 90
        5
170
     1
 91
        0
 92
    32768
 62
   257
 93
        1
300
CONTENTFORMAT
  1
CONTENTFORMAT_BEGIN
 90
        0
 91
        0
 92
      512
 93
        0
300

 40
0.0
140
1.0
 94
        5
 62
     0
340
11
144
0.25
309
CONTENTFORMAT_END
171
     0
 94
        0
309
TABLEFORMAT_END
  1
CELLSTYLE_BEGIN
 90
        1
 91
        1
300
_TITLE
309
CELLSTYLE_END
300
CELLSTYLE
  1
TABLEFORMAT_BEGIN
 90
        5
170
     1
 91
        0
 92
        0
 62
   257
 93
        1
300
CONTENTFORMAT
  1
CONTENTFORMAT_BEGIN
 90
        0
 91
        0
 92
      512
 93
        0
300

 40
0.0
140
1.0
 94
        5
 62
     0
340
11
144
0.18
309
CONTENTFORMAT_END
171
     0
 94
        0
309
TABLEFORMAT_END
  1
CELLSTYLE_BEGIN
 90
        2
 91
        1
300
_HEADER
309
CELLSTYLE_END
300
CELLSTYLE
  1
TABLEFORMAT_BEGIN
 90
        5
170
     1
 91
        0
 92
        0
 62
   257
 93
        1
300
CONTENTFORMAT
  1
CONTENTFORMAT_BEGIN
 90
        0
 91
        0
 92
      512
 93
        0
300

 40
0.0
140
1.0
 94
        2
 62
     0
340
11
144
0.18
309
CONTENTFORMAT_END
171
     0
 94
        0
309
TABLEFORMAT_END
  1
CELLSTYLE_BEGIN
 90
        3
 91
        2
300
_DATA
309
CELLSTYLE_END
  0
XRECORD
  5
11E
102
{ACAD_REACTORS
330
11D
102
}
330
11D
100
AcDbXrecord
280
     1
102
RTVSPost2010Prop28
280
     1
102
RTVSPost2010PropOp28
 70
     1
102
RTVSPost2010Prop29
280
     1
102
RTVSPost2010PropOp29
 70
     1
102
RTVSPost2010Prop30
280
     0
102
RTVSPost2010PropOp30
 70
     1
102
RTVSPost2010Prop31
280
     0
102
RTVSPost2010PropOp31
 70
     1
102
RTVSPost2010Prop32
280
     0
102
RTVSPost2010PropOp32
 70
     1
102
RTVSPost2010Prop33
280
     0
102
RTVSPost2010PropOp33
 70
     1
102
RTVSPost2010Prop34
280
     0
102
RTVSPost2010PropOp34
 70
     1
102
RTVSPost2010Prop35
280
     0
102
RTVSPost2010PropOp35
 70
     1
102
RTVSPost2010Prop36
280
     0
102
RTVSPost2010PropOp36
 70
     1
102
RTVSPost2010Prop37
 90
       50
102
RTVSPost2010PropOp37
 70
     1
102
RTVSPost2010Prop38
140
0.0
102
RTVSPost2010PropOp38
 70
     1
102
RTVSPost2010Prop39
140
1.0
102
RTVSPost2010PropOp39
 70
     1
102
RTVSPost2010Prop40
 90
        0
102
RTVSPost2010PropOp40
 70
     1
102
RTVSPost2010Prop41ColorIndex
 90
       18
102
RTVSPost2010Prop41ColorRGB
 90
        0
102
RTVSPost2010PropOp41
 70
     1
102
RTVSPost2010Prop42
 90
       50
102
RTVSPost2010PropOp42
 70
     1
102
RTVSPost2010Prop43
 90
        3
102
RTVSPost2010PropOp43
 70
     1
102
RTVSPost2010Prop44ColorIndex
 90
        5
102
RTVSPost2010Prop44ColorRGB
 90
      255
102
RTVSPost2010PropOp44
 70
     1
102
RTVSPost2010Prop45
280
     0
102
RTVSPost2010PropOp45
 70
     1
102
RTVSPost2010Prop46
 90
       50
102
RTVSPost2010PropOp46
 70
     1
102
RTVSPost2010Prop47
 90
       50
102
RTVSPost2010PropOp47
 70
     1
102
RTVSPost2010Prop48
 90
       50
102
RTVSPost2010PropOp48
 70
     1
102
RTVSPost2010Prop49
280
     0
102
RTVSPost2010PropOp49
 70
     1
102
RTVSPost2010Prop50
 90
       50
102
RTVSPost2010PropOp50
 70
     1
102
RTVSPost2010Prop51ColorIndex
 90
      256
102
RTVSPost2010Prop51ColorRGB
 90
-16777216
102
RTVSPost2010PropOp51
 70
     0
102
RTVSPost2010Prop52
140
1.0
102
RTVSPost2010PropOp52
 70
     0
102
RTVSPost2010Prop53
 90
        2
102
RTVSPost2010PropOp53
 70
     1
102
RTVSPost2010Prop54
  1
strokes_ogs.tif
102
RTVSPost2010PropOp54
 70
     1
102
RTVSPost2010Prop55
280
     0
102
RTVSPost2010PropOp55
 70
     1
102
RTVSPost2010Prop56
140
1.0
102
RTVSPost2010PropOp56
 70
     1
102
RTVSPost2010Prop57
140
1.0
102
RTVSPost2010PropOp57
 70
     1
  0
XRECORD
  5
11C
102
{ACAD_REACTORS
330
11B
102
}
330
11B
100
AcDbXrecord
280
     1
102
RTVSPost2010Prop28
280
     0
102
RTVSPost2010PropOp28
 70
     1
102
RTVSPost2010Prop29
280
     1
102
RTVSPost2010PropOp29
 70
     1
102
RTVSPost2010Prop30
280
     1
102
RTVSPost2010PropOp30
 70
     1
102
RTVSPost2010Prop31
280
     0
102
RTVSPost2010PropOp31
 70
     1
102
RTVSPost2010Prop32
280
     0
102
RTVSPost2010PropOp32
 70
     1
102
RTVSPost2010Prop33
280
     0
102
RTVSPost2010PropOp33
 70
     1
102
RTVSPost2010Prop34
280
     0
102
RTVSPost2010PropOp34
 70
     1
102
RTVSPost2010Prop35
280
     0
102
RTVSPost2010PropOp35
 70
     1
102
RTVSPost2010Prop36
280
     0
102
RTVSPost2010PropOp36
 70
     1
102
RTVSPost2010Prop37
 90
       50
102
RTVSPost2010PropOp37
 70
     1
102
RTVSPost2010Prop38
140
0.0
102
RTVSPost2010PropOp38
 70
     1
102
RTVSPost2010Prop39
140
1.0
102
RTVSPost2010PropOp39
 70
     1
102
RTVSPost2010Prop40
 90
        0
102
RTVSPost2010PropOp40
 70
     1
102
RTVSPost2010Prop41ColorIndex
 90
       18
102
RTVSPost2010Prop41ColorRGB
 90
        0
102
RTVSPost2010PropOp41
 70
     1
102
RTVSPost2010Prop42
 90
       50
102
RTVSPost2010PropOp42
 70
     1
102
RTVSPost2010Prop43
 90
        3
102
RTVSPost2010PropOp43
 70
     1
102
RTVSPost2010Prop44ColorIndex
 90
        5
102
RTVSPost2010Prop44ColorRGB
 90
      255
102
RTVSPost2010PropOp44
 70
     1
102
RTVSPost2010Prop45
280
     0
102
RTVSPost2010PropOp45
 70
     1
102
RTVSPost2010Prop46
 90
       50
102
RTVSPost2010PropOp46
 70
     1
102
RTVSPost2010Prop47
 90
       50
102
RTVSPost2010PropOp47
 70
     1
102
RTVSPost2010Prop48
 90
       50
102
RTVSPost2010PropOp48
 70
     1
102
RTVSPost2010Prop49
280
     0
102
RTVSPost2010PropOp49
 70
     1
102
RTVSPost2010Prop50
 90
       50
102
RTVSPost2010PropOp50
 70
     1
102
RTVSPost2010Prop51ColorIndex
 90
      256
102
RTVSPost2010Prop51ColorRGB
 90
-16777216
102
RTVSPost2010PropOp51
 70
     0
102
RTVSPost2010Prop52
140
1.0
102
RTVSPost2010PropOp52
 70
     0
102
RTVSPost2010Prop53
 90
        2
102
RTVSPost2010PropOp53
 70
     1
102
RTVSPost2010Prop54
  1
strokes_ogs.tif
102
RTVSPost2010PropOp54
 70
     1
102
RTVSPost2010Prop55
280
     0
102
RTVSPost2010PropOp55
 70
     1
102
RTVSPost2010Prop56
140
1.0
102
RTVSPost2010PropOp56
 70
     1
102
RTVSPost2010Prop57
140
1.0
102
RTVSPost2010PropOp57
 70
     1
  0
XRECORD
  5
12A
102
{ACAD_REACTORS
330
129
102
}
330
129
100
AcDbXrecord
280
     1
102
RTVSPost2010Prop28
280
     0
102
RTVSPost2010PropOp28
 70
     1
102
RTVSPost2010Prop29
280
     1
102
RTVSPost2010PropOp29
 70
     1
102
RTVSPost2010Prop30
280
     1
102
RTVSPost2010PropOp30
 70
     1
102
RTVSPost2010Prop31
280
     0
102
RTVSPost2010PropOp31
 70
     1
102
RTVSPost2010Prop32
280
     0
102
RTVSPost2010PropOp32
 70
     1
102
RTVSPost2010Prop33
280
     0
102
RTVSPost2010PropOp33
 70
     1
102
RTVSPost2010Prop34
280
     0
102
RTVSPost2010PropOp34
 70
     1
102
RTVSPost2010Prop35
280
     0
102
RTVSPost2010PropOp35
 70
     1
102
RTVSPost2010Prop36
280
     0
102
RTVSPost2010PropOp36
 70
     1
102
RTVSPost2010Prop37
 90
       50
102
RTVSPost2010PropOp37
 70
     1
102
RTVSPost2010Prop38
140
0.0
102
RTVSPost2010PropOp38
 70
     1
102
RTVSPost2010Prop39
140
1.0
102
RTVSPost2010PropOp39
 70
     1
102
RTVSPost2010Prop40
 90
        0
102
RTVSPost2010PropOp40
 70
     1
102
RTVSPost2010Prop41ColorIndex
 90
       18
102
RTVSPost2010Prop41ColorRGB
 90
        0
102
RTVSPost2010PropOp41
 70
     1
102
RTVSPost2010Prop42
 90
       50
102
RTVSPost2010PropOp42
 70
     1
102
RTVSPost2010Prop43
 90
        3
102
RTVSPost2010PropOp43
 70
     1
102
RTVSPost2010Prop44ColorIndex
 90
        5
102
RTVSPost2010Prop44ColorRGB
 90
      255
102
RTVSPost2010PropOp44
 70
     1
102
RTVSPost2010Prop45
280
     0
102
RTVSPost2010PropOp45
 70
     1
102
RTVSPost2010Prop46
 90
       50
102
RTVSPost2010PropOp46
 70
     1
102
RTVSPost2010Prop47
 90
       50
102
RTVSPost2010PropOp47
 70
     1
102
RTVSPost2010Prop48
 90
       50
102
RTVSPost2010PropOp48
 70
     1
102
RTVSPost2010Prop49
280
     0
102
RTVSPost2010PropOp49
 70
     1
102
RTVSPost2010Prop50
 90
       50
102
RTVSPost2010PropOp50
 70
     1
102
RTVSPost2010Prop51ColorIndex
 90
      256
102
RTVSPost2010Prop51ColorRGB
 90
-16777216
102
RTVSPost2010PropOp51
 70
     0
102
RTVSPost2010Prop52
140
1.0
102
RTVSPost2010PropOp52
 70
     0
102
RTVSPost2010Prop53
 90
        2
102
RTVSPost2010PropOp53
 70
     1
102
RTVSPost2010Prop54
  1
strokes_ogs.tif
102
RTVSPost2010PropOp54
 70
     1
102
RTVSPost2010Prop55
280
     0
102
RTVSPost2010PropOp55
 70
     1
102
RTVSPost2010Prop56
140
1.0
102
RTVSPost2010PropOp56
 70
     1
102
RTVSPost2010Prop57
140
1.0
102
RTVSPost2010PropOp57
 70
     1
  0
XRECORD
  5
132
102
{ACAD_REACTORS
330
131
102
}
330
131
100
AcDbXrecord
280
     1
102
RTVSPost2010Prop28
280
     0
102
RTVSPost2010PropOp28
 70
     1
102
RTVSPost2010Prop29
280
     1
102
RTVSPost2010PropOp29
 70
     1
102
RTVSPost2010Prop30
280
     1
102
RTVSPost2010PropOp30
 70
     1
102
RTVSPost2010Prop31
280
     0
102
RTVSPost2010PropOp31
 70
     1
102
RTVSPost2010Prop32
280
     0
102
RTVSPost2010PropOp32
 70
     1
102
RTVSPost2010Prop33
280
     0
102
RTVSPost2010PropOp33
 70
     1
102
RTVSPost2010Prop34
280
     0
102
RTVSPost2010PropOp34
 70
     1
102
RTVSPost2010Prop35
280
     0
102
RTVSPost2010PropOp35
 70
     1
102
RTVSPost2010Prop36
280
     0
102
RTVSPost2010PropOp36
 70
     1
102
RTVSPost2010Prop37
 90
       50
102
RTVSPost2010PropOp37
 70
     1
102
RTVSPost2010Prop38
140
0.0
102
RTVSPost2010PropOp38
 70
     1
102
RTVSPost2010Prop39
140
1.0
102
RTVSPost2010PropOp39
 70
     1
102
RTVSPost2010Prop40
 90
        0
102
RTVSPost2010PropOp40
 70
     1
102
RTVSPost2010Prop41ColorIndex
 90
       18
102
RTVSPost2010Prop41ColorRGB
 90
        0
102
RTVSPost2010PropOp41
 70
     1
102
RTVSPost2010Prop42
 90
       50
102
RTVSPost2010PropOp42
 70
     1
102
RTVSPost2010Prop43
 90
        3
102
RTVSPost2010PropOp43
 70
     1
102
RTVSPost2010Prop44ColorIndex
 90
        5
102
RTVSPost2010Prop44ColorRGB
 90
      255
102
RTVSPost2010PropOp44
 70
     1
102
RTVSPost2010Prop45
280
     0
102
RTVSPost2010PropOp45
 70
     1
102
RTVSPost2010Prop46
 90
       50
102
RTVSPost2010PropOp46
 70
     1
102
RTVSPost2010Prop47
 90
       50
102
RTVSPost2010PropOp47
 70
     1
102
RTVSPost2010Prop48
 90
       50
102
RTVSPost2010PropOp48
 70
     1
102
RTVSPost2010Prop49
280
     0
102
RTVSPost2010PropOp49
 70
     1
102
RTVSPost2010Prop50
 90
       50
102
RTVSPost2010PropOp50
 70
     1
102
RTVSPost2010Prop51ColorIndex
 90
      256
102
RTVSPost2010Prop51ColorRGB
 90
-16777216
102
RTVSPost2010PropOp51
 70
     0
102
RTVSPost2010Prop52
140
1.0
102
RTVSPost2010PropOp52
 70
     0
102
RTVSPost2010Prop53
 90
        2
102
RTVSPost2010PropOp53
 70
     1
102
RTVSPost2010Prop54
  1
strokes_ogs.tif
102
RTVSPost2010PropOp54
 70
     1
102
RTVSPost2010Prop55
280
     0
102
RTVSPost2010PropOp55
 70
     1
102
RTVSPost2010Prop56
140
1.0
102
RTVSPost2010PropOp56
 70
     1
102
RTVSPost2010Prop57
140
1.0
102
RTVSPost2010PropOp57
 70
     1
  0
XRECORD
  5
124
102
{ACAD_REACTORS
330
123
102
}
330
123
100
AcDbXrecord
280
     1
102
RTVSPost2010Prop28
280
     0
102
RTVSPost2010PropOp28
 70
     1
102
RTVSPost2010Prop29
280
     1
102
RTVSPost2010PropOp29
 70
     1
102
RTVSPost2010Prop30
280
     1
102
RTVSPost2010PropOp30
 70
     1
102
RTVSPost2010Prop31
280
     0
102
RTVSPost2010PropOp31
 70
     1
102
RTVSPost2010Prop32
280
     0
102
RTVSPost2010PropOp32
 70
     1
102
RTVSPost2010Prop33
280
     0
102
RTVSPost2010PropOp33
 70
     1
102
RTVSPost2010Prop34
280
     0
102
RTVSPost2010PropOp34
 70
     1
102
RTVSPost2010Prop35
280
     0
102
RTVSPost2010PropOp35
 70
     1
102
RTVSPost2010Prop36
280
     0
102
RTVSPost2010PropOp36
 70
     1
102
RTVSPost2010Prop37
 90
       50
102
RTVSPost2010PropOp37
 70
     1
102
RTVSPost2010Prop38
140
0.0
102
RTVSPost2010PropOp38
 70
     1
102
RTVSPost2010Prop39
140
1.0
102
RTVSPost2010PropOp39
 70
     1
102
RTVSPost2010Prop40
 90
        0
102
RTVSPost2010PropOp40
 70
     1
102
RTVSPost2010Prop41ColorIndex
 90
       18
102
RTVSPost2010Prop41ColorRGB
 90
        0
102
RTVSPost2010PropOp41
 70
     1
102
RTVSPost2010Prop42
 90
       50
102
RTVSPost2010PropOp42
 70
     1
102
RTVSPost2010Prop43
 90
        3
102
RTVSPost2010PropOp43
 70
     1
102
RTVSPost2010Prop44ColorIndex
 90
        5
102
RTVSPost2010Prop44ColorRGB
 90
      255
102
RTVSPost2010PropOp44
 70
     1
102
RTVSPost2010Prop45
280
     0
102
RTVSPost2010PropOp45
 70
     1
102
RTVSPost2010Prop46
 90
       50
102
RTVSPost2010PropOp46
 70
     1
102
RTVSPost2010Prop47
 90
       50
102
RTVSPost2010PropOp47
 70
     1
102
RTVSPost2010Prop48
 90
       50
102
RTVSPost2010PropOp48
 70
     1
102
RTVSPost2010Prop49
280
     0
102
RTVSPost2010PropOp49
 70
     1
102
RTVSPost2010Prop50
 90
       50
102
RTVSPost2010PropOp50
 70
     1
102
RTVSPost2010Prop51ColorIndex
 90
      256
102
RTVSPost2010Prop51ColorRGB
 90
-16777216
102
RTVSPost2010PropOp51
 70
     0
102
RTVSPost2010Prop52
140
1.0
102
RTVSPost2010PropOp52
 70
     0
102
RTVSPost2010Prop53
 90
        2
102
RTVSPost2010PropOp53
 70
     1
102
RTVSPost2010Prop54
  1
strokes_ogs.tif
102
RTVSPost2010PropOp54
 70
     1
102
RTVSPost2010Prop55
280
     0
102
RTVSPost2010PropOp55
 70
     1
102
RTVSPost2010Prop56
140
1.0
102
RTVSPost2010PropOp56
 70
     1
102
RTVSPost2010Prop57
140
1.0
102
RTVSPost2010PropOp57
 70
     1
  0
XRECORD
  5
128
102
{ACAD_REACTORS
330
127
102
}
330
127
100
AcDbXrecord
280
     1
102
RTVSPost2010Prop28
280
     0
102
RTVSPost2010PropOp28
 70
     1
102
RTVSPost2010Prop29
280
     1
102
RTVSPost2010PropOp29
 70
     1
102
RTVSPost2010Prop30
280
     1
102
RTVSPost2010PropOp30
 70
     1
102
RTVSPost2010Prop31
280
     0
102
RTVSPost2010PropOp31
 70
     1
102
RTVSPost2010Prop32
280
     0
102
RTVSPost2010PropOp32
 70
     1
102
RTVSPost2010Prop33
280
     0
102
RTVSPost2010PropOp33
 70
     1
102
RTVSPost2010Prop34
280
     0
102
RTVSPost2010PropOp34
 70
     1
102
RTVSPost2010Prop35
280
     0
102
RTVSPost2010PropOp35
 70
     1
102
RTVSPost2010Prop36
280
     0
102
RTVSPost2010PropOp36
 70
     1
102
RTVSPost2010Prop37
 90
       50
102
RTVSPost2010PropOp37
 70
     1
102
RTVSPost2010Prop38
140
0.0
102
RTVSPost2010PropOp38
 70
     1
102
RTVSPost2010Prop39
140
1.0
102
RTVSPost2010PropOp39
 70
     1
102
RTVSPost2010Prop40
 90
        0
102
RTVSPost2010PropOp40
 70
     1
102
RTVSPost2010Prop41ColorIndex
 90
       18
102
RTVSPost2010Prop41ColorRGB
 90
        0
102
RTVSPost2010PropOp41
 70
     1
102
RTVSPost2010Prop42
 90
       50
102
RTVSPost2010PropOp42
 70
     1
102
RTVSPost2010Prop43
 90
        3
102
RTVSPost2010PropOp43
 70
     1
102
RTVSPost2010Prop44ColorIndex
 90
        5
102
RTVSPost2010Prop44ColorRGB
 90
      255
102
RTVSPost2010PropOp44
 70
     1
102
RTVSPost2010Prop45
280
     0
102
RTVSPost2010PropOp45
 70
     1
102
RTVSPost2010Prop46
 90
       50
102
RTVSPost2010PropOp46
 70
     1
102
RTVSPost2010Prop47
 90
       50
102
RTVSPost2010PropOp47
 70
     1
102
RTVSPost2010Prop48
 90
       50
102
RTVSPost2010PropOp48
 70
     1
102
RTVSPost2010Prop49
280
     0
102
RTVSPost2010PropOp49
 70
     1
102
RTVSPost2010Prop50
 90
       50
102
RTVSPost2010PropOp50
 70
     1
102
RTVSPost2010Prop51ColorIndex
 90
      256
102
RTVSPost2010Prop51ColorRGB
 90
-16777216
102
RTVSPost2010PropOp51
 70
     0
102
RTVSPost2010Prop52
140
1.0
102
RTVSPost2010PropOp52
 70
     0
102
RTVSPost2010Prop53
 90
        2
102
RTVSPost2010PropOp53
 70
     1
102
RTVSPost2010Prop54
  1
strokes_ogs.tif
102
RTVSPost2010PropOp54
 70
     1
102
RTVSPost2010Prop55
280
     0
102
RTVSPost2010PropOp55
 70
     1
102
RTVSPost2010Prop56
140
1.0
102
RTVSPost2010PropOp56
 70
     1
102
RTVSPost2010Prop57
140
1.0
102
RTVSPost2010PropOp57
 70
     1
  0
XRECORD
  5
142
102
{ACAD_REACTORS
330
141
102
}
330
141
100
AcDbXrecord
280
     1
102
RTVSPost2010Prop28
280
     0
102
RTVSPost2010PropOp28
 70
     0
102
RTVSPost2010Prop29
280
     1
102
RTVSPost2010PropOp29
 70
     0
102
RTVSPost2010Prop30
280
     1
102
RTVSPost2010PropOp30
 70
     0
102
RTVSPost2010Prop31
280
     0
102
RTVSPost2010PropOp31
 70
     0
102
RTVSPost2010Prop32
280
     0
102
RTVSPost2010PropOp32
 70
     0
102
RTVSPost2010Prop33
280
     0
102
RTVSPost2010PropOp33
 70
     0
102
RTVSPost2010Prop34
280
     0
102
RTVSPost2010PropOp34
 70
     0
102
RTVSPost2010Prop35
280
     0
102
RTVSPost2010PropOp35
 70
     0
102
RTVSPost2010Prop36
280
     0
102
RTVSPost2010PropOp36
 70
     0
102
RTVSPost2010Prop37
 90
       50
102
RTVSPost2010PropOp37
 70
     0
102
RTVSPost2010Prop38
140
0.0
102
RTVSPost2010PropOp38
 70
     0
102
RTVSPost2010Prop39
140
1.0
102
RTVSPost2010PropOp39
 70
     0
102
RTVSPost2010Prop40
 90
        0
102
RTVSPost2010PropOp40
 70
     0
102
RTVSPost2010Prop41ColorIndex
 90
       18
102
RTVSPost2010Prop41ColorRGB
 90
        0
102
RTVSPost2010PropOp41
 70
     0
102
RTVSPost2010Prop42
 90
       50
102
RTVSPost2010PropOp42
 70
     0
102
RTVSPost2010Prop43
 90
        3
102
RTVSPost2010PropOp43
 70
     0
102
RTVSPost2010Prop44ColorIndex
 90
        5
102
RTVSPost2010Prop44ColorRGB
 90
      255
102
RTVSPost2010PropOp44
 70
     0
102
RTVSPost2010Prop45
280
     0
102
RTVSPost2010PropOp45
 70
     0
102
RTVSPost2010Prop46
 90
       50
102
RTVSPost2010PropOp46
 70
     0
102
RTVSPost2010Prop47
 90
       50
102
RTVSPost2010PropOp47
 70
     0
102
RTVSPost2010Prop48
 90
       50
102
RTVSPost2010PropOp48
 70
     0
102
RTVSPost2010Prop49
280
     0
102
RTVSPost2010PropOp49
 70
     0
102
RTVSPost2010Prop50
 90
       50
102
RTVSPost2010PropOp50
 70
     0
102
RTVSPost2010Prop51ColorIndex
 90
      256
102
RTVSPost2010Prop51ColorRGB
 90
-16777216
102
RTVSPost2010PropOp51
 70
     0
102
RTVSPost2010Prop52
140
1.0
102
RTVSPost2010PropOp52
 70
     0
102
RTVSPost2010Prop53
 90
        2
102
RTVSPost2010PropOp53
 70
     0
102
RTVSPost2010Prop54
  1
strokes_ogs.tif
102
RTVSPost2010PropOp54
 70
     0
102
RTVSPost2010Prop55
280
     0
102
RTVSPost2010PropOp55
 70
     0
102
RTVSPost2010Prop56
140
1.0
102
RTVSPost2010PropOp56
 70
     0
102
RTVSPost2010Prop57
140
1.0
102
RTVSPost2010PropOp57
 70
     0
  0
XRECORD
  5
130
102
{ACAD_REACTORS
330
12F
102
}
330
12F
100
AcDbXrecord
280
     1
102
RTVSPost2010Prop28
280
     0
102
RTVSPost2010PropOp28
 70
     1
102
RTVSPost2010Prop29
280
     1
102
RTVSPost2010PropOp29
 70
     1
102
RTVSPost2010Prop30
280
     1
102
RTVSPost2010PropOp30
 70
     1
102
RTVSPost2010Prop31
280
     0
102
RTVSPost2010PropOp31
 70
     1
102
RTVSPost2010Prop32
280
     0
102
RTVSPost2010PropOp32
 70
     1
102
RTVSPost2010Prop33
280
     0
102
RTVSPost2010PropOp33
 70
     1
102
RTVSPost2010Prop34
280
     0
102
RTVSPost2010PropOp34
 70
     1
102
RTVSPost2010Prop35
280
     0
102
RTVSPost2010PropOp35
 70
     1
102
RTVSPost2010Prop36
280
     0
102
RTVSPost2010PropOp36
 70
     1
102
RTVSPost2010Prop37
 90
       50
102
RTVSPost2010PropOp37
 70
     1
102
RTVSPost2010Prop38
140
0.0
102
RTVSPost2010PropOp38
 70
     1
102
RTVSPost2010Prop39
140
1.0
102
RTVSPost2010PropOp39
 70
     1
102
RTVSPost2010Prop40
 90
        0
102
RTVSPost2010PropOp40
 70
     1
102
RTVSPost2010Prop41ColorIndex
 90
       18
102
RTVSPost2010Prop41ColorRGB
 90
        0
102
RTVSPost2010PropOp41
 70
     1
102
RTVSPost2010Prop42
 90
       50
102
RTVSPost2010PropOp42
 70
     1
102
RTVSPost2010Prop43
 90
        3
102
RTVSPost2010PropOp43
 70
     1
102
RTVSPost2010Prop44ColorIndex
 90
        5
102
RTVSPost2010Prop44ColorRGB
 90
      255
102
RTVSPost2010PropOp44
 70
     1
102
RTVSPost2010Prop45
280
     0
102
RTVSPost2010PropOp45
 70
     1
102
RTVSPost2010Prop46
 90
       50
102
RTVSPost2010PropOp46
 70
     1
102
RTVSPost2010Prop47
 90
       50
102
RTVSPost2010PropOp47
 70
     1
102
RTVSPost2010Prop48
 90
       50
102
RTVSPost2010PropOp48
 70
     1
102
RTVSPost2010Prop49
280
     0
102
RTVSPost2010PropOp49
 70
     1
102
RTVSPost2010Prop50
 90
       50
102
RTVSPost2010PropOp50
 70
     1
102
RTVSPost2010Prop51ColorIndex
 90
      256
102
RTVSPost2010Prop51ColorRGB
 90
-16777216
102
RTVSPost2010PropOp51
 70
     0
102
RTVSPost2010Prop52
140
1.0
102
RTVSPost2010PropOp52
 70
     0
102
RTVSPost2010Prop53
 90
        2
102
RTVSPost2010PropOp53
 70
     1
102
RTVSPost2010Prop54
  1
strokes_ogs.tif
102
RTVSPost2010PropOp54
 70
     1
102
RTVSPost2010Prop55
280
     0
102
RTVSPost2010PropOp55
 70
     1
102
RTVSPost2010Prop56
140
1.0
102
RTVSPost2010PropOp56
 70
     1
102
RTVSPost2010Prop57
140
1.0
102
RTVSPost2010PropOp57
 70
     1
  0
XRECORD
  5
114
102
{ACAD_REACTORS
330
113
102
}
330
113
100
AcDbXrecord
280
     1
102
RTVSPost2010Prop28
280
     0
102
RTVSPost2010PropOp28
 70
     1
102
RTVSPost2010Prop29
280
     1
102
RTVSPost2010PropOp29
 70
     1
102
RTVSPost2010Prop30
280
     1
102
RTVSPost2010PropOp30
 70
     1
102
RTVSPost2010Prop31
280
     0
102
RTVSPost2010PropOp31
 70
     1
102
RTVSPost2010Prop32
280
     0
102
RTVSPost2010PropOp32
 70
     1
102
RTVSPost2010Prop33
280
     0
102
RTVSPost2010PropOp33
 70
     1
102
RTVSPost2010Prop34
280
     0
102
RTVSPost2010PropOp34
 70
     1
102
RTVSPost2010Prop35
280
     0
102
RTVSPost2010PropOp35
 70
     1
102
RTVSPost2010Prop36
280
     0
102
RTVSPost2010PropOp36
 70
     1
102
RTVSPost2010Prop37
 90
       50
102
RTVSPost2010PropOp37
 70
     1
102
RTVSPost2010Prop38
140
0.0
102
RTVSPost2010PropOp38
 70
     1
102
RTVSPost2010Prop39
140
1.0
102
RTVSPost2010PropOp39
 70
     1
102
RTVSPost2010Prop40
 90
        0
102
RTVSPost2010PropOp40
 70
     1
102
RTVSPost2010Prop41ColorIndex
 90
       18
102
RTVSPost2010Prop41ColorRGB
 90
        0
102
RTVSPost2010PropOp41
 70
     1
102
RTVSPost2010Prop42
 90
       50
102
RTVSPost2010PropOp42
 70
     1
102
RTVSPost2010Prop43
 90
        3
102
RTVSPost2010PropOp43
 70
     1
102
RTVSPost2010Prop44ColorIndex
 90
        5
102
RTVSPost2010Prop44ColorRGB
 90
      255
102
RTVSPost2010PropOp44
 70
     1
102
RTVSPost2010Prop45
280
     0
102
RTVSPost2010PropOp45
 70
     1
102
RTVSPost2010Prop46
 90
       50
102
RTVSPost2010PropOp46
 70
     1
102
RTVSPost2010Prop47
 90
       50
102
RTVSPost2010PropOp47
 70
     1
102
RTVSPost2010Prop48
 90
       50
102
RTVSPost2010PropOp48
 70
     1
102
RTVSPost2010Prop49
280
     0
102
RTVSPost2010PropOp49
 70
     1
102
RTVSPost2010Prop50
 90
       50
102
RTVSPost2010PropOp50
 70
     1
102
RTVSPost2010Prop51ColorIndex
 90
      256
102
RTVSPost2010Prop51ColorRGB
 90
-16777216
102
RTVSPost2010PropOp51
 70
     0
102
RTVSPost2010Prop52
140
1.0
102
RTVSPost2010PropOp52
 70
     0
102
RTVSPost2010Prop53
 90
        2
102
RTVSPost2010PropOp53
 70
     1
102
RTVSPost2010Prop54
  1
strokes_ogs.tif
102
RTVSPost2010PropOp54
 70
     1
102
RTVSPost2010Prop55
280
     0
102
RTVSPost2010PropOp55
 70
     1
102
RTVSPost2010Prop56
140
1.0
102
RTVSPost2010PropOp56
 70
     1
102
RTVSPost2010Prop57
140
1.0
102
RTVSPost2010PropOp57
 70
     1
  0
XRECORD
  5
116
102
{ACAD_REACTORS
330
115
102
}
330
115
100
AcDbXrecord
280
     1
102
RTVSPost2010Prop28
280
     0
102
RTVSPost2010PropOp28
 70
     1
102
RTVSPost2010Prop29
280
     1
102
RTVSPost2010PropOp29
 70
     1
102
RTVSPost2010Prop30
280
     1
102
RTVSPost2010PropOp30
 70
     1
102
RTVSPost2010Prop31
280
     0
102
RTVSPost2010PropOp31
 70
     1
102
RTVSPost2010Prop32
280
     0
102
RTVSPost2010PropOp32
 70
     1
102
RTVSPost2010Prop33
280
     0
102
RTVSPost2010PropOp33
 70
     1
102
RTVSPost2010Prop34
280
     0
102
RTVSPost2010PropOp34
 70
     1
102
RTVSPost2010Prop35
280
     0
102
RTVSPost2010PropOp35
 70
     1
102
RTVSPost2010Prop36
280
     0
102
RTVSPost2010PropOp36
 70
     1
102
RTVSPost2010Prop37
 90
       50
102
RTVSPost2010PropOp37
 70
     1
102
RTVSPost2010Prop38
140
0.0
102
RTVSPost2010PropOp38
 70
     1
102
RTVSPost2010Prop39
140
1.0
102
RTVSPost2010PropOp39
 70
     1
102
RTVSPost2010Prop40
 90
        0
102
RTVSPost2010PropOp40
 70
     1
102
RTVSPost2010Prop41ColorIndex
 90
       18
102
RTVSPost2010Prop41ColorRGB
 90
        0
102
RTVSPost2010PropOp41
 70
     1
102
RTVSPost2010Prop42
 90
       50
102
RTVSPost2010PropOp42
 70
     1
102
RTVSPost2010Prop43
 90
        3
102
RTVSPost2010PropOp43
 70
     1
102
RTVSPost2010Prop44ColorIndex
 90
        5
102
RTVSPost2010Prop44ColorRGB
 90
      255
102
RTVSPost2010PropOp44
 70
     1
102
RTVSPost2010Prop45
280
     0
102
RTVSPost2010PropOp45
 70
     1
102
RTVSPost2010Prop46
 90
       50
102
RTVSPost2010PropOp46
 70
     1
102
RTVSPost2010Prop47
 90
       50
102
RTVSPost2010PropOp47
 70
     1
102
RTVSPost2010Prop48
 90
       50
102
RTVSPost2010PropOp48
 70
     1
102
RTVSPost2010Prop49
280
     0
102
RTVSPost2010PropOp49
 70
     1
102
RTVSPost2010Prop50
 90
       50
102
RTVSPost2010PropOp50
 70
     1
102
RTVSPost2010Prop51ColorIndex
 90
      256
102
RTVSPost2010Prop51ColorRGB
 90
-16777216
102
RTVSPost2010PropOp51
 70
     0
102
RTVSPost2010Prop52
140
1.0
102
RTVSPost2010PropOp52
 70
     0
102
RTVSPost2010Prop53
 90
        2
102
RTVSPost2010PropOp53
 70
     1
102
RTVSPost2010Prop54
  1
strokes_ogs.tif
102
RTVSPost2010PropOp54
 70
     1
102
RTVSPost2010Prop55
280
     0
102
RTVSPost2010PropOp55
 70
     1
102
RTVSPost2010Prop56
140
1.0
102
RTVSPost2010PropOp56
 70
     1
102
RTVSPost2010Prop57
140
1.0
102
RTVSPost2010PropOp57
 70
     1
  0
XRECORD
  5
118
102
{ACAD_REACTORS
330
117
102
}
330
117
100
AcDbXrecord
280
     1
102
RTVSPost2010Prop28
280
     0
102
RTVSPost2010PropOp28
 70
     1
102
RTVSPost2010Prop29
280
     1
102
RTVSPost2010PropOp29
 70
     1
102
RTVSPost2010Prop30
280
     1
102
RTVSPost2010PropOp30
 70
     1
102
RTVSPost2010Prop31
280
     0
102
RTVSPost2010PropOp31
 70
     1
102
RTVSPost2010Prop32
280
     0
102
RTVSPost2010PropOp32
 70
     1
102
RTVSPost2010Prop33
280
     0
102
RTVSPost2010PropOp33
 70
     1
102
RTVSPost2010Prop34
280
     0
102
RTVSPost2010PropOp34
 70
     1
102
RTVSPost2010Prop35
280
     0
102
RTVSPost2010PropOp35
 70
     1
102
RTVSPost2010Prop36
280
     0
102
RTVSPost2010PropOp36
 70
     1
102
RTVSPost2010Prop37
 90
       50
102
RTVSPost2010PropOp37
 70
     1
102
RTVSPost2010Prop38
140
0.0
102
RTVSPost2010PropOp38
 70
     1
102
RTVSPost2010Prop39
140
1.0
102
RTVSPost2010PropOp39
 70
     1
102
RTVSPost2010Prop40
 90
        0
102
RTVSPost2010PropOp40
 70
     1
102
RTVSPost2010Prop41ColorIndex
 90
       18
102
RTVSPost2010Prop41ColorRGB
 90
        0
102
RTVSPost2010PropOp41
 70
     1
102
RTVSPost2010Prop42
 90
       50
102
RTVSPost2010PropOp42
 70
     1
102
RTVSPost2010Prop43
 90
        3
102
RTVSPost2010PropOp43
 70
     1
102
RTVSPost2010Prop44ColorIndex
 90
        5
102
RTVSPost2010Prop44ColorRGB
 90
      255
102
RTVSPost2010PropOp44
 70
     1
102
RTVSPost2010Prop45
280
     0
102
RTVSPost2010PropOp45
 70
     1
102
RTVSPost2010Prop46
 90
       50
102
RTVSPost2010PropOp46
 70
     1
102
RTVSPost2010Prop47
 90
       50
102
RTVSPost2010PropOp47
 70
     1
102
RTVSPost2010Prop48
 90
       50
102
RTVSPost2010PropOp48
 70
     1
102
RTVSPost2010Prop49
280
     0
102
RTVSPost2010PropOp49
 70
     1
102
RTVSPost2010Prop50
 90
       50
102
RTVSPost2010PropOp50
 70
     1
102
RTVSPost2010Prop51ColorIndex
 90
      256
102
RTVSPost2010Prop51ColorRGB
 90
-16777216
102
RTVSPost2010PropOp51
 70
     0
102
RTVSPost2010Prop52
140
1.0
102
RTVSPost2010PropOp52
 70
     0
102
RTVSPost2010Prop53
 90
        2
102
RTVSPost2010PropOp53
 70
     1
102
RTVSPost2010Prop54
  1
strokes_ogs.tif
102
RTVSPost2010PropOp54
 70
     1
102
RTVSPost2010Prop55
280
     0
102
RTVSPost2010PropOp55
 70
     1
102
RTVSPost2010Prop56
140
1.0
102
RTVSPost2010PropOp56
 70
     1
102
RTVSPost2010Prop57
140
1.0
102
RTVSPost2010PropOp57
 70
     1
  0
XRECORD
  5
11A
102
{ACAD_REACTORS
330
119
102
}
330
119
100
AcDbXrecord
280
     1
102
RTVSPost2010Prop28
280
     0
102
RTVSPost2010PropOp28
 70
     1
102
RTVSPost2010Prop29
280
     1
102
RTVSPost2010PropOp29
 70
     1
102
RTVSPost2010Prop30
280
     1
102
RTVSPost2010PropOp30
 70
     1
102
RTVSPost2010Prop31
280
     0
102
RTVSPost2010PropOp31
 70
     1
102
RTVSPost2010Prop32
280
     0
102
RTVSPost2010PropOp32
 70
     1
102
RTVSPost2010Prop33
280
     0
102
RTVSPost2010PropOp33
 70
     1
102
RTVSPost2010Prop34
280
     0
102
RTVSPost2010PropOp34
 70
     1
102
RTVSPost2010Prop35
280
     0
102
RTVSPost2010PropOp35
 70
     1
102
RTVSPost2010Prop36
280
     0
102
RTVSPost2010PropOp36
 70
     1
102
RTVSPost2010Prop37
 90
       50
102
RTVSPost2010PropOp37
 70
     1
102
RTVSPost2010Prop38
140
0.0
102
RTVSPost2010PropOp38
 70
     1
102
RTVSPost2010Prop39
140
1.0
102
RTVSPost2010PropOp39
 70
     1
102
RTVSPost2010Prop40
 90
        0
102
RTVSPost2010PropOp40
 70
     1
102
RTVSPost2010Prop41ColorIndex
 90
       18
102
RTVSPost2010Prop41ColorRGB
 90
        0
102
RTVSPost2010PropOp41
 70
     1
102
RTVSPost2010Prop42
 90
       50
102
RTVSPost2010PropOp42
 70
     1
102
RTVSPost2010Prop43
 90
        3
102
RTVSPost2010PropOp43
 70
     1
102
RTVSPost2010Prop44ColorIndex
 90
        5
102
RTVSPost2010Prop44ColorRGB
 90
      255
102
RTVSPost2010PropOp44
 70
     1
102
RTVSPost2010Prop45
280
     0
102
RTVSPost2010PropOp45
 70
     1
102
RTVSPost2010Prop46
 90
       50
102
RTVSPost2010PropOp46
 70
     1
102
RTVSPost2010Prop47
 90
       50
102
RTVSPost2010PropOp47
 70
     1
102
RTVSPost2010Prop48
 90
       50
102
RTVSPost2010PropOp48
 70
     1
102
RTVSPost2010Prop49
280
     0
102
RTVSPost2010PropOp49
 70
     1
102
RTVSPost2010Prop50
 90
       50
102
RTVSPost2010PropOp50
 70
     1
102
RTVSPost2010Prop51ColorIndex
 90
      256
102
RTVSPost2010Prop51ColorRGB
 90
-16777216
102
RTVSPost2010PropOp51
 70
     0
102
RTVSPost2010Prop52
140
1.0
102
RTVSPost2010PropOp52
 70
     0
102
RTVSPost2010Prop53
 90
        2
102
RTVSPost2010PropOp53
 70
     1
102
RTVSPost2010Prop54
  1
strokes_ogs.tif
102
RTVSPost2010PropOp54
 70
     1
102
RTVSPost2010Prop55
280
     0
102
RTVSPost2010PropOp55
 70
     1
102
RTVSPost2010Prop56
140
1.0
102
RTVSPost2010PropOp56
 70
     1
102
RTVSPost2010Prop57
140
1.0
102
RTVSPost2010PropOp57
 70
     1
  0
XRECORD
  5
122
102
{ACAD_REACTORS
330
121
102
}
330
121
100
AcDbXrecord
280
     1
102
RTVSPost2010Prop28
280
     0
102
RTVSPost2010PropOp28
 70
     1
102
RTVSPost2010Prop29
280
     1
102
RTVSPost2010PropOp29
 70
     1
102
RTVSPost2010Prop30
280
     1
102
RTVSPost2010PropOp30
 70
     1
102
RTVSPost2010Prop31
280
     0
102
RTVSPost2010PropOp31
 70
     1
102
RTVSPost2010Prop32
280
     0
102
RTVSPost2010PropOp32
 70
     1
102
RTVSPost2010Prop33
280
     0
102
RTVSPost2010PropOp33
 70
     1
102
RTVSPost2010Prop34
280
     0
102
RTVSPost2010PropOp34
 70
     1
102
RTVSPost2010Prop35
280
     0
102
RTVSPost2010PropOp35
 70
     1
102
RTVSPost2010Prop36
280
     0
102
RTVSPost2010PropOp36
 70
     1
102
RTVSPost2010Prop37
 90
       50
102
RTVSPost2010PropOp37
 70
     1
102
RTVSPost2010Prop38
140
0.0
102
RTVSPost2010PropOp38
 70
     1
102
RTVSPost2010Prop39
140
1.0
102
RTVSPost2010PropOp39
 70
     1
102
RTVSPost2010Prop40
 90
        0
102
RTVSPost2010PropOp40
 70
     1
102
RTVSPost2010Prop41ColorIndex
 90
       18
102
RTVSPost2010Prop41ColorRGB
 90
        0
102
RTVSPost2010PropOp41
 70
     1
102
RTVSPost2010Prop42
 90
       50
102
RTVSPost2010PropOp42
 70
     1
102
RTVSPost2010Prop43
 90
        3
102
RTVSPost2010PropOp43
 70
     1
102
RTVSPost2010Prop44ColorIndex
 90
        5
102
RTVSPost2010Prop44ColorRGB
 90
      255
102
RTVSPost2010PropOp44
 70
     1
102
RTVSPost2010Prop45
280
     0
102
RTVSPost2010PropOp45
 70
     1
102
RTVSPost2010Prop46
 90
       50
102
RTVSPost2010PropOp46
 70
     1
102
RTVSPost2010Prop47
 90
       50
102
RTVSPost2010PropOp47
 70
     1
102
RTVSPost2010Prop48
 90
       50
102
RTVSPost2010PropOp48
 70
     1
102
RTVSPost2010Prop49
280
     0
102
RTVSPost2010PropOp49
 70
     1
102
RTVSPost2010Prop50
 90
       50
102
RTVSPost2010PropOp50
 70
     1
102
RTVSPost2010Prop51ColorIndex
 90
      256
102
RTVSPost2010Prop51ColorRGB
 90
-16777216
102
RTVSPost2010PropOp51
 70
     0
102
RTVSPost2010Prop52
140
1.0
102
RTVSPost2010PropOp52
 70
     0
102
RTVSPost2010Prop53
 90
        2
102
RTVSPost2010PropOp53
 70
     1
102
RTVSPost2010Prop54
  1
strokes_ogs.tif
102
RTVSPost2010PropOp54
 70
     1
102
RTVSPost2010Prop55
280
     0
102
RTVSPost2010PropOp55
 70
     1
102
RTVSPost2010Prop56
140
1.0
102
RTVSPost2010PropOp56
 70
     1
102
RTVSPost2010Prop57
140
1.0
102
RTVSPost2010PropOp57
 70
     1
  0
XRECORD
  5
13E
102
{ACAD_REACTORS
330
13D
102
}
330
13D
100
AcDbXrecord
280
     1
102
RTVSPost2010Prop28
280
     0
102
RTVSPost2010PropOp28
 70
     0
102
RTVSPost2010Prop29
280
     1
102
RTVSPost2010PropOp29
 70
     0
102
RTVSPost2010Prop30
280
     1
102
RTVSPost2010PropOp30
 70
     0
102
RTVSPost2010Prop31
280
     0
102
RTVSPost2010PropOp31
 70
     0
102
RTVSPost2010Prop32
280
     0
102
RTVSPost2010PropOp32
 70
     0
102
RTVSPost2010Prop33
280
     0
102
RTVSPost2010PropOp33
 70
     0
102
RTVSPost2010Prop34
280
     0
102
RTVSPost2010PropOp34
 70
     0
102
RTVSPost2010Prop35
280
     0
102
RTVSPost2010PropOp35
 70
     0
102
RTVSPost2010Prop36
280
     0
102
RTVSPost2010PropOp36
 70
     0
102
RTVSPost2010Prop37
 90
       50
102
RTVSPost2010PropOp37
 70
     0
102
RTVSPost2010Prop38
140
0.0
102
RTVSPost2010PropOp38
 70
     0
102
RTVSPost2010Prop39
140
1.0
102
RTVSPost2010PropOp39
 70
     0
102
RTVSPost2010Prop40
 90
        0
102
RTVSPost2010PropOp40
 70
     0
102
RTVSPost2010Prop41ColorIndex
 90
       18
102
RTVSPost2010Prop41ColorRGB
 90
        0
102
RTVSPost2010PropOp41
 70
     0
102
RTVSPost2010Prop42
 90
       50
102
RTVSPost2010PropOp42
 70
     0
102
RTVSPost2010Prop43
 90
        3
102
RTVSPost2010PropOp43
 70
     0
102
RTVSPost2010Prop44ColorIndex
 90
        5
102
RTVSPost2010Prop44ColorRGB
 90
      255
102
RTVSPost2010PropOp44
 70
     0
102
RTVSPost2010Prop45
280
     0
102
RTVSPost2010PropOp45
 70
     0
102
RTVSPost2010Prop46
 90
       50
102
RTVSPost2010PropOp46
 70
     0
102
RTVSPost2010Prop47
 90
       50
102
RTVSPost2010PropOp47
 70
     0
102
RTVSPost2010Prop48
 90
       50
102
RTVSPost2010PropOp48
 70
     0
102
RTVSPost2010Prop49
280
     0
102
RTVSPost2010PropOp49
 70
     0
102
RTVSPost2010Prop50
 90
       50
102
RTVSPost2010PropOp50
 70
     0
102
RTVSPost2010Prop51ColorIndex
 90
      256
102
RTVSPost2010Prop51ColorRGB
 90
-16777216
102
RTVSPost2010PropOp51
 70
     0
102
RTVSPost2010Prop52
140
1.0
102
RTVSPost2010PropOp52
 70
     0
102
RTVSPost2010Prop53
 90
        2
102
RTVSPost2010PropOp53
 70
     0
102
RTVSPost2010Prop54
  1
strokes_ogs.tif
102
RTVSPost2010PropOp54
 70
     0
102
RTVSPost2010Prop55
280
     0
102
RTVSPost2010PropOp55
 70
     0
102
RTVSPost2010Prop56
140
1.0
102
RTVSPost2010PropOp56
 70
     0
102
RTVSPost2010Prop57
140
1.0
102
RTVSPost2010PropOp57
 70
     0
  0
XRECORD
  5
12E
102
{ACAD_REACTORS
330
12D
102
}
330
12D
100
AcDbXrecord
280
     1
102
RTVSPost2010Prop28
280
     0
102
RTVSPost2010PropOp28
 70
     1
102
RTVSPost2010Prop29
280
     1
102
RTVSPost2010PropOp29
 70
     1
102
RTVSPost2010Prop30
280
     1
102
RTVSPost2010PropOp30
 70
     1
102
RTVSPost2010Prop31
280
     0
102
RTVSPost2010PropOp31
 70
     1
102
RTVSPost2010Prop32
280
     0
102
RTVSPost2010PropOp32
 70
     1
102
RTVSPost2010Prop33
280
     0
102
RTVSPost2010PropOp33
 70
     1
102
RTVSPost2010Prop34
280
     0
102
RTVSPost2010PropOp34
 70
     1
102
RTVSPost2010Prop35
280
     0
102
RTVSPost2010PropOp35
 70
     1
102
RTVSPost2010Prop36
280
     0
102
RTVSPost2010PropOp36
 70
     1
102
RTVSPost2010Prop37
 90
       50
102
RTVSPost2010PropOp37
 70
     1
102
RTVSPost2010Prop38
140
0.0
102
RTVSPost2010PropOp38
 70
     1
102
RTVSPost2010Prop39
140
1.0
102
RTVSPost2010PropOp39
 70
     1
102
RTVSPost2010Prop40
 90
        0
102
RTVSPost2010PropOp40
 70
     1
102
RTVSPost2010Prop41ColorIndex
 90
       18
102
RTVSPost2010Prop41ColorRGB
 90
        0
102
RTVSPost2010PropOp41
 70
     1
102
RTVSPost2010Prop42
 90
       50
102
RTVSPost2010PropOp42
 70
     1
102
RTVSPost2010Prop43
 90
        3
102
RTVSPost2010PropOp43
 70
     1
102
RTVSPost2010Prop44ColorIndex
 90
        5
102
RTVSPost2010Prop44ColorRGB
 90
      255
102
RTVSPost2010PropOp44
 70
     1
102
RTVSPost2010Prop45
280
     0
102
RTVSPost2010PropOp45
 70
     1
102
RTVSPost2010Prop46
 90
       50
102
RTVSPost2010PropOp46
 70
     1
102
RTVSPost2010Prop47
 90
       50
102
RTVSPost2010PropOp47
 70
     1
102
RTVSPost2010Prop48
 90
       50
102
RTVSPost2010PropOp48
 70
     1
102
RTVSPost2010Prop49
280
     0
102
RTVSPost2010PropOp49
 70
     1
102
RTVSPost2010Prop50
 90
       50
102
RTVSPost2010PropOp50
 70
     1
102
RTVSPost2010Prop51ColorIndex
 90
      256
102
RTVSPost2010Prop51ColorRGB
 90
-16777216
102
RTVSPost2010PropOp51
 70
     0
102
RTVSPost2010Prop52
140
1.0
102
RTVSPost2010PropOp52
 70
     0
102
RTVSPost2010Prop53
 90
        2
102
RTVSPost2010PropOp53
 70
     1
102
RTVSPost2010Prop54
  1
strokes_ogs.tif
102
RTVSPost2010PropOp54
 70
     1
102
RTVSPost2010Prop55
280
     0
102
RTVSPost2010PropOp55
 70
     1
102
RTVSPost2010Prop56
140
1.0
102
RTVSPost2010PropOp56
 70
     1
102
RTVSPost2010Prop57
140
1.0
102
RTVSPost2010PropOp57
 70
     1
  0
XRECORD
  5
140
102
{ACAD_REACTORS
330
13F
102
}
330
13F
100
AcDbXrecord
280
     1
102
RTVSPost2010Prop28
280
     0
102
RTVSPost2010PropOp28
 70
     0
102
RTVSPost2010Prop29
280
     1
102
RTVSPost2010PropOp29
 70
     0
102
RTVSPost2010Prop30
280
     1
102
RTVSPost2010PropOp30
 70
     0
102
RTVSPost2010Prop31
280
     0
102
RTVSPost2010PropOp31
 70
     0
102
RTVSPost2010Prop32
280
     0
102
RTVSPost2010PropOp32
 70
     0
102
RTVSPost2010Prop33
280
     0
102
RTVSPost2010PropOp33
 70
     0
102
RTVSPost2010Prop34
280
     0
102
RTVSPost2010PropOp34
 70
     0
102
RTVSPost2010Prop35
280
     0
102
RTVSPost2010PropOp35
 70
     0
102
RTVSPost2010Prop36
280
     0
102
RTVSPost2010PropOp36
 70
     0
102
RTVSPost2010Prop37
 90
       50
102
RTVSPost2010PropOp37
 70
     0
102
RTVSPost2010Prop38
140
0.0
102
RTVSPost2010PropOp38
 70
     0
102
RTVSPost2010Prop39
140
1.0
102
RTVSPost2010PropOp39
 70
     0
102
RTVSPost2010Prop40
 90
        0
102
RTVSPost2010PropOp40
 70
     0
102
RTVSPost2010Prop41ColorIndex
 90
       18
102
RTVSPost2010Prop41ColorRGB
 90
        0
102
RTVSPost2010PropOp41
 70
     0
102
RTVSPost2010Prop42
 90
       50
102
RTVSPost2010PropOp42
 70
     0
102
RTVSPost2010Prop43
 90
        3
102
RTVSPost2010PropOp43
 70
     0
102
RTVSPost2010Prop44ColorIndex
 90
        5
102
RTVSPost2010Prop44ColorRGB
 90
      255
102
RTVSPost2010PropOp44
 70
     0
102
RTVSPost2010Prop45
280
     0
102
RTVSPost2010PropOp45
 70
     0
102
RTVSPost2010Prop46
 90
       50
102
RTVSPost2010PropOp46
 70
     0
102
RTVSPost2010Prop47
 90
       50
102
RTVSPost2010PropOp47
 70
     0
102
RTVSPost2010Prop48
 90
       50
102
RTVSPost2010PropOp48
 70
     0
102
RTVSPost2010Prop49
280
     0
102
RTVSPost2010PropOp49
 70
     0
102
RTVSPost2010Prop50
 90
       50
102
RTVSPost2010PropOp50
 70
     0
102
RTVSPost2010Prop51ColorIndex
 90
      256
102
RTVSPost2010Prop51ColorRGB
 90
-16777216
102
RTVSPost2010PropOp51
 70
     0
102
RTVSPost2010Prop52
140
1.0
102
RTVSPost2010PropOp52
 70
     0
102
RTVSPost2010Prop53
 90
        2
102
RTVSPost2010PropOp53
 70
     0
102
RTVSPost2010Prop54
  1
strokes_ogs.tif
102
RTVSPost2010PropOp54
 70
     0
102
RTVSPost2010Prop55
280
     0
102
RTVSPost2010PropOp55
 70
     0
102
RTVSPost2010Prop56
140
1.0
102
RTVSPost2010PropOp56
 70
     0
102
RTVSPost2010Prop57
140
1.0
102
RTVSPost2010PropOp57
 70
     0
  0
XRECORD
  5
126
102
{ACAD_REACTORS
330
125
102
}
330
125
100
AcDbXrecord
280
     1
102
RTVSPost2010Prop28
280
     0
102
RTVSPost2010PropOp28
 70
     1
102
RTVSPost2010Prop29
280
     1
102
RTVSPost2010PropOp29
 70
     1
102
RTVSPost2010Prop30
280
     1
102
RTVSPost2010PropOp30
 70
     1
102
RTVSPost2010Prop31
280
     0
102
RTVSPost2010PropOp31
 70
     1
102
RTVSPost2010Prop32
280
     0
102
RTVSPost2010PropOp32
 70
     1
102
RTVSPost2010Prop33
280
     0
102
RTVSPost2010PropOp33
 70
     1
102
RTVSPost2010Prop34
280
     0
102
RTVSPost2010PropOp34
 70
     1
102
RTVSPost2010Prop35
280
     0
102
RTVSPost2010PropOp35
 70
     1
102
RTVSPost2010Prop36
280
     0
102
RTVSPost2010PropOp36
 70
     1
102
RTVSPost2010Prop37
 90
       50
102
RTVSPost2010PropOp37
 70
     1
102
RTVSPost2010Prop38
140
0.0
102
RTVSPost2010PropOp38
 70
     1
102
RTVSPost2010Prop39
140
1.0
102
RTVSPost2010PropOp39
 70
     1
102
RTVSPost2010Prop40
 90
        0
102
RTVSPost2010PropOp40
 70
     1
102
RTVSPost2010Prop41ColorIndex
 90
       18
102
RTVSPost2010Prop41ColorRGB
 90
        0
102
RTVSPost2010PropOp41
 70
     1
102
RTVSPost2010Prop42
 90
       50
102
RTVSPost2010PropOp42
 70
     1
102
RTVSPost2010Prop43
 90
        3
102
RTVSPost2010PropOp43
 70
     1
102
RTVSPost2010Prop44ColorIndex
 90
        5
102
RTVSPost2010Prop44ColorRGB
 90
      255
102
RTVSPost2010PropOp44
 70
     1
102
RTVSPost2010Prop45
280
     0
102
RTVSPost2010PropOp45
 70
     1
102
RTVSPost2010Prop46
 90
       50
102
RTVSPost2010PropOp46
 70
     1
102
RTVSPost2010Prop47
 90
       50
102
RTVSPost2010PropOp47
 70
     1
102
RTVSPost2010Prop48
 90
       50
102
RTVSPost2010PropOp48
 70
     1
102
RTVSPost2010Prop49
280
     0
102
RTVSPost2010PropOp49
 70
     1
102
RTVSPost2010Prop50
 90
       50
102
RTVSPost2010PropOp50
 70
     1
102
RTVSPost2010Prop51ColorIndex
 90
      256
102
RTVSPost2010Prop51ColorRGB
 90
-16777216
102
RTVSPost2010PropOp51
 70
     0
102
RTVSPost2010Prop52
140
1.0
102
RTVSPost2010PropOp52
 70
     0
102
RTVSPost2010Prop53
 90
        2
102
RTVSPost2010PropOp53
 70
     1
102
RTVSPost2010Prop54
  1
strokes_ogs.tif
102
RTVSPost2010PropOp54
 70
     1
102
RTVSPost2010Prop55
280
     0
102
RTVSPost2010PropOp55
 70
     1
102
RTVSPost2010Prop56
140
1.0
102
RTVSPost2010PropOp56
 70
     1
102
RTVSPost2010Prop57
140
1.0
102
RTVSPost2010PropOp57
 70
     1
  0
XRECORD
  5
13C
102
{ACAD_REACTORS
330
13B
102
}
330
13B
100
AcDbXrecord
280
     1
102
RTVSPost2010Prop28
280
     0
102
RTVSPost2010PropOp28
 70
     1
102
RTVSPost2010Prop29
280
     1
102
RTVSPost2010PropOp29
 70
     1
102
RTVSPost2010Prop30
280
     1
102
RTVSPost2010PropOp30
 70
     1
102
RTVSPost2010Prop31
280
     0
102
RTVSPost2010PropOp31
 70
     1
102
RTVSPost2010Prop32
280
     0
102
RTVSPost2010PropOp32
 70
     1
102
RTVSPost2010Prop33
280
     0
102
RTVSPost2010PropOp33
 70
     1
102
RTVSPost2010Prop34
280
     0
102
RTVSPost2010PropOp34
 70
     1
102
RTVSPost2010Prop35
280
     0
102
RTVSPost2010PropOp35
 70
     1
102
RTVSPost2010Prop36
280
     0
102
RTVSPost2010PropOp36
 70
     1
102
RTVSPost2010Prop37
 90
       50
102
RTVSPost2010PropOp37
 70
     1
102
RTVSPost2010Prop38
140
0.0
102
RTVSPost2010PropOp38
 70
     1
102
RTVSPost2010Prop39
140
1.0
102
RTVSPost2010PropOp39
 70
     1
102
RTVSPost2010Prop40
 90
        0
102
RTVSPost2010PropOp40
 70
     1
102
RTVSPost2010Prop41ColorIndex
 90
       18
102
RTVSPost2010Prop41ColorRGB
 90
        0
102
RTVSPost2010PropOp41
 70
     1
102
RTVSPost2010Prop42
 90
       50
102
RTVSPost2010PropOp42
 70
     1
102
RTVSPost2010Prop43
 90
        3
102
RTVSPost2010PropOp43
 70
     1
102
RTVSPost2010Prop44ColorIndex
 90
        5
102
RTVSPost2010Prop44ColorRGB
 90
      255
102
RTVSPost2010PropOp44
 70
     1
102
RTVSPost2010Prop45
280
     0
102
RTVSPost2010PropOp45
 70
     1
102
RTVSPost2010Prop46
 90
       50
102
RTVSPost2010PropOp46
 70
     1
102
RTVSPost2010Prop47
 90
       50
102
RTVSPost2010PropOp47
 70
     1
102
RTVSPost2010Prop48
 90
       50
102
RTVSPost2010PropOp48
 70
     1
102
RTVSPost2010Prop49
280
     0
102
RTVSPost2010PropOp49
 70
     1
102
RTVSPost2010Prop50
 90
       50
102
RTVSPost2010PropOp50
 70
     1
102
RTVSPost2010Prop51ColorIndex
 90
      256
102
RTVSPost2010Prop51ColorRGB
 90
-16777216
102
RTVSPost2010PropOp51
 70
     0
102
RTVSPost2010Prop52
140
1.0
102
RTVSPost2010PropOp52
 70
     0
102
RTVSPost2010Prop53
 90
        2
102
RTVSPost2010PropOp53
 70
     1
102
RTVSPost2010Prop54
  1
strokes_ogs.tif
102
RTVSPost2010PropOp54
 70
     1
102
RTVSPost2010Prop55
280
     0
102
RTVSPost2010PropOp55
 70
     1
102
RTVSPost2010Prop56
140
1.0
102
RTVSPost2010PropOp56
 70
     1
102
RTVSPost2010Prop57
140
1.0
102
RTVSPost2010PropOp57
 70
     1
  0
XRECORD
  5
13A
102
{ACAD_REACTORS
330
139
102
}
330
139
100
AcDbXrecord
280
     1
102
RTVSPost2010Prop28
280
     0
102
RTVSPost2010PropOp28
 70
     1
102
RTVSPost2010Prop29
280
     1
102
RTVSPost2010PropOp29
 70
     1
102
RTVSPost2010Prop30
280
     1
102
RTVSPost2010PropOp30
 70
     1
102
RTVSPost2010Prop31
280
     0
102
RTVSPost2010PropOp31
 70
     1
102
RTVSPost2010Prop32
280
     0
102
RTVSPost2010PropOp32
 70
     1
102
RTVSPost2010Prop33
280
     0
102
RTVSPost2010PropOp33
 70
     1
102
RTVSPost2010Prop34
280
     0
102
RTVSPost2010PropOp34
 70
     1
102
RTVSPost2010Prop35
280
     0
102
RTVSPost2010PropOp35
 70
     1
102
RTVSPost2010Prop36
280
     0
102
RTVSPost2010PropOp36
 70
     1
102
RTVSPost2010Prop37
 90
       50
102
RTVSPost2010PropOp37
 70
     1
102
RTVSPost2010Prop38
140
0.0
102
RTVSPost2010PropOp38
 70
     1
102
RTVSPost2010Prop39
140
1.0
102
RTVSPost2010PropOp39
 70
     1
102
RTVSPost2010Prop40
 90
        0
102
RTVSPost2010PropOp40
 70
     1
102
RTVSPost2010Prop41ColorIndex
 90
       18
102
RTVSPost2010Prop41ColorRGB
 90
        0
102
RTVSPost2010PropOp41
 70
     1
102
RTVSPost2010Prop42
 90
       50
102
RTVSPost2010PropOp42
 70
     1
102
RTVSPost2010Prop43
 90
        3
102
RTVSPost2010PropOp43
 70
     1
102
RTVSPost2010Prop44ColorIndex
 90
        5
102
RTVSPost2010Prop44ColorRGB
 90
      255
102
RTVSPost2010PropOp44
 70
     1
102
RTVSPost2010Prop45
280
     0
102
RTVSPost2010PropOp45
 70
     1
102
RTVSPost2010Prop46
 90
       50
102
RTVSPost2010PropOp46
 70
     1
102
RTVSPost2010Prop47
 90
       50
102
RTVSPost2010PropOp47
 70
     1
102
RTVSPost2010Prop48
 90
       50
102
RTVSPost2010PropOp48
 70
     1
102
RTVSPost2010Prop49
280
     0
102
RTVSPost2010PropOp49
 70
     1
102
RTVSPost2010Prop50
 90
       50
102
RTVSPost2010PropOp50
 70
     1
102
RTVSPost2010Prop51ColorIndex
 90
      256
102
RTVSPost2010Prop51ColorRGB
 90
-16777216
102
RTVSPost2010PropOp51
 70
     0
102
RTVSPost2010Prop52
140
1.0
102
RTVSPost2010PropOp52
 70
     0
102
RTVSPost2010Prop53
 90
        2
102
RTVSPost2010PropOp53
 70
     1
102
RTVSPost2010Prop54
  1
strokes_ogs.tif
102
RTVSPost2010PropOp54
 70
     1
102
RTVSPost2010Prop55
280
     0
102
RTVSPost2010PropOp55
 70
     1
102
RTVSPost2010Prop56
140
1.0
102
RTVSPost2010PropOp56
 70
     1
102
RTVSPost2010Prop57
140
1.0
102
RTVSPost2010PropOp57
 70
     1
  0
XRECORD
  5
134
102
{ACAD_REACTORS
330
133
102
}
330
133
100
AcDbXrecord
280
     1
102
RTVSPost2010Prop28
280
     0
102
RTVSPost2010PropOp28
 70
     1
102
RTVSPost2010Prop29
280
     1
102
RTVSPost2010PropOp29
 70
     1
102
RTVSPost2010Prop30
280
     1
102
RTVSPost2010PropOp30
 70
     1
102
RTVSPost2010Prop31
280
     0
102
RTVSPost2010PropOp31
 70
     1
102
RTVSPost2010Prop32
280
     0
102
RTVSPost2010PropOp32
 70
     1
102
RTVSPost2010Prop33
280
     0
102
RTVSPost2010PropOp33
 70
     1
102
RTVSPost2010Prop34
280
     0
102
RTVSPost2010PropOp34
 70
     1
102
RTVSPost2010Prop35
280
     0
102
RTVSPost2010PropOp35
 70
     1
102
RTVSPost2010Prop36
280
     0
102
RTVSPost2010PropOp36
 70
     1
102
RTVSPost2010Prop37
 90
       50
102
RTVSPost2010PropOp37
 70
     1
102
RTVSPost2010Prop38
140
0.0
102
RTVSPost2010PropOp38
 70
     1
102
RTVSPost2010Prop39
140
1.0
102
RTVSPost2010PropOp39
 70
     1
102
RTVSPost2010Prop40
 90
        0
102
RTVSPost2010PropOp40
 70
     1
102
RTVSPost2010Prop41ColorIndex
 90
       18
102
RTVSPost2010Prop41ColorRGB
 90
        0
102
RTVSPost2010PropOp41
 70
     1
102
RTVSPost2010Prop42
 90
       50
102
RTVSPost2010PropOp42
 70
     1
102
RTVSPost2010Prop43
 90
        3
102
RTVSPost2010PropOp43
 70
     1
102
RTVSPost2010Prop44ColorIndex
 90
        5
102
RTVSPost2010Prop44ColorRGB
 90
      255
102
RTVSPost2010PropOp44
 70
     1
102
RTVSPost2010Prop45
280
     0
102
RTVSPost2010PropOp45
 70
     1
102
RTVSPost2010Prop46
 90
       50
102
RTVSPost2010PropOp46
 70
     1
102
RTVSPost2010Prop47
 90
       50
102
RTVSPost2010PropOp47
 70
     1
102
RTVSPost2010Prop48
 90
       50
102
RTVSPost2010PropOp48
 70
     1
102
RTVSPost2010Prop49
280
     0
102
RTVSPost2010PropOp49
 70
     1
102
RTVSPost2010Prop50
 90
       50
102
RTVSPost2010PropOp50
 70
     1
102
RTVSPost2010Prop51ColorIndex
 90
      256
102
RTVSPost2010Prop51ColorRGB
 90
-16777216
102
RTVSPost2010PropOp51
 70
     0
102
RTVSPost2010Prop52
140
1.0
102
RTVSPost2010PropOp52
 70
     0
102
RTVSPost2010Prop53
 90
        2
102
RTVSPost2010PropOp53
 70
     1
102
RTVSPost2010Prop54
  1
strokes_ogs.tif
102
RTVSPost2010PropOp54
 70
     1
102
RTVSPost2010Prop55
280
     0
102
RTVSPost2010PropOp55
 70
     1
102
RTVSPost2010Prop56
140
1.0
102
RTVSPost2010PropOp56
 70
     1
102
RTVSPost2010Prop57
140
1.0
102
RTVSPost2010PropOp57
 70
     1
  0
XRECORD
  5
136
102
{ACAD_REACTORS
330
135
102
}
330
135
100
AcDbXrecord
280
     1
102
RTVSPost2010Prop28
280
     0
102
RTVSPost2010PropOp28
 70
     1
102
RTVSPost2010Prop29
280
     1
102
RTVSPost2010PropOp29
 70
     1
102
RTVSPost2010Prop30
280
     1
102
RTVSPost2010PropOp30
 70
     1
102
RTVSPost2010Prop31
280
     0
102
RTVSPost2010PropOp31
 70
     1
102
RTVSPost2010Prop32
280
     0
102
RTVSPost2010PropOp32
 70
     1
102
RTVSPost2010Prop33
280
     0
102
RTVSPost2010PropOp33
 70
     1
102
RTVSPost2010Prop34
280
     0
102
RTVSPost2010PropOp34
 70
     1
102
RTVSPost2010Prop35
280
     0
102
RTVSPost2010PropOp35
 70
     1
102
RTVSPost2010Prop36
280
     0
102
RTVSPost2010PropOp36
 70
     1
102
RTVSPost2010Prop37
 90
       50
102
RTVSPost2010PropOp37
 70
     1
102
RTVSPost2010Prop38
140
0.0
102
RTVSPost2010PropOp38
 70
     1
102
RTVSPost2010Prop39
140
1.0
102
RTVSPost2010PropOp39
 70
     1
102
RTVSPost2010Prop40
 90
        0
102
RTVSPost2010PropOp40
 70
     1
102
RTVSPost2010Prop41ColorIndex
 90
       18
102
RTVSPost2010Prop41ColorRGB
 90
        0
102
RTVSPost2010PropOp41
 70
     1
102
RTVSPost2010Prop42
 90
       50
102
RTVSPost2010PropOp42
 70
     1
102
RTVSPost2010Prop43
 90
        3
102
RTVSPost2010PropOp43
 70
     1
102
RTVSPost2010Prop44ColorIndex
 90
        5
102
RTVSPost2010Prop44ColorRGB
 90
      255
102
RTVSPost2010PropOp44
 70
     1
102
RTVSPost2010Prop45
280
     0
102
RTVSPost2010PropOp45
 70
     1
102
RTVSPost2010Prop46
 90
       50
102
RTVSPost2010PropOp46
 70
     1
102
RTVSPost2010Prop47
 90
       50
102
RTVSPost2010PropOp47
 70
     1
102
RTVSPost2010Prop48
 90
       50
102
RTVSPost2010PropOp48
 70
     1
102
RTVSPost2010Prop49
280
     0
102
RTVSPost2010PropOp49
 70
     1
102
RTVSPost2010Prop50
 90
       50
102
RTVSPost2010PropOp50
 70
     1
102
RTVSPost2010Prop51ColorIndex
 90
      256
102
RTVSPost2010Prop51ColorRGB
 90
-16777216
102
RTVSPost2010PropOp51
 70
     0
102
RTVSPost2010Prop52
140
1.0
102
RTVSPost2010PropOp52
 70
     0
102
RTVSPost2010Prop53
 90
        2
102
RTVSPost2010PropOp53
 70
     1
102
RTVSPost2010Prop54
  1
strokes_ogs.tif
102
RTVSPost2010PropOp54
 70
     1
102
RTVSPost2010Prop55
280
     0
102
RTVSPost2010PropOp55
 70
     1
102
RTVSPost2010Prop56
140
1.0
102
RTVSPost2010PropOp56
 70
     1
102
RTVSPost2010Prop57
140
1.0
102
RTVSPost2010PropOp57
 70
     1
  0
XRECORD
  5
12C
102
{ACAD_REACTORS
330
12B
102
}
330
12B
100
AcDbXrecord
280
     1
102
RTVSPost2010Prop28
280
     0
102
RTVSPost2010PropOp28
 70
     1
102
RTVSPost2010Prop29
280
     1
102
RTVSPost2010PropOp29
 70
     1
102
RTVSPost2010Prop30
280
     1
102
RTVSPost2010PropOp30
 70
     1
102
RTVSPost2010Prop31
280
     0
102
RTVSPost2010PropOp31
 70
     1
102
RTVSPost2010Prop32
280
     0
102
RTVSPost2010PropOp32
 70
     1
102
RTVSPost2010Prop33
280
     0
102
RTVSPost2010PropOp33
 70
     1
102
RTVSPost2010Prop34
280
     0
102
RTVSPost2010PropOp34
 70
     1
102
RTVSPost2010Prop35
280
     0
102
RTVSPost2010PropOp35
 70
     1
102
RTVSPost2010Prop36
280
     0
102
RTVSPost2010PropOp36
 70
     1
102
RTVSPost2010Prop37
 90
       50
102
RTVSPost2010PropOp37
 70
     1
102
RTVSPost2010Prop38
140
0.0
102
RTVSPost2010PropOp38
 70
     1
102
RTVSPost2010Prop39
140
1.0
102
RTVSPost2010PropOp39
 70
     1
102
RTVSPost2010Prop40
 90
        0
102
RTVSPost2010PropOp40
 70
     1
102
RTVSPost2010Prop41ColorIndex
 90
       18
102
RTVSPost2010Prop41ColorRGB
 90
        0
102
RTVSPost2010PropOp41
 70
     1
102
RTVSPost2010Prop42
 90
       50
102
RTVSPost2010PropOp42
 70
     1
102
RTVSPost2010Prop43
 90
        3
102
RTVSPost2010PropOp43
 70
     1
102
RTVSPost2010Prop44ColorIndex
 90
        5
102
RTVSPost2010Prop44ColorRGB
 90
      255
102
RTVSPost2010PropOp44
 70
     1
102
RTVSPost2010Prop45
280
     0
102
RTVSPost2010PropOp45
 70
     1
102
RTVSPost2010Prop46
 90
       50
102
RTVSPost2010PropOp46
 70
     1
102
RTVSPost2010Prop47
 90
       50
102
RTVSPost2010PropOp47
 70
     1
102
RTVSPost2010Prop48
 90
       50
102
RTVSPost2010PropOp48
 70
     1
102
RTVSPost2010Prop49
280
     0
102
RTVSPost2010PropOp49
 70
     1
102
RTVSPost2010Prop50
 90
       50
102
RTVSPost2010PropOp50
 70
     1
102
RTVSPost2010Prop51ColorIndex
 90
      256
102
RTVSPost2010Prop51ColorRGB
 90
-16777216
102
RTVSPost2010PropOp51
 70
     0
102
RTVSPost2010Prop52
140
1.0
102
RTVSPost2010PropOp52
 70
     0
102
RTVSPost2010Prop53
 90
        2
102
RTVSPost2010PropOp53
 70
     1
102
RTVSPost2010Prop54
  1
strokes_ogs.tif
102
RTVSPost2010PropOp54
 70
     1
102
RTVSPost2010Prop55
280
     0
102
RTVSPost2010PropOp55
 70
     1
102
RTVSPost2010Prop56
140
1.0
102
RTVSPost2010PropOp56
 70
     1
102
RTVSPost2010Prop57
140
1.0
102
RTVSPost2010PropOp57
 70
     1
  0
XRECORD
  5
120
102
{ACAD_REACTORS
330
11F
102
}
330
11F
100
AcDbXrecord
280
     1
102
RTVSPost2010Prop28
280
     0
102
RTVSPost2010PropOp28
 70
     1
102
RTVSPost2010Prop29
280
     1
102
RTVSPost2010PropOp29
 70
     1
102
RTVSPost2010Prop30
280
     1
102
RTVSPost2010PropOp30
 70
     1
102
RTVSPost2010Prop31
280
     0
102
RTVSPost2010PropOp31
 70
     1
102
RTVSPost2010Prop32
280
     0
102
RTVSPost2010PropOp32
 70
     1
102
RTVSPost2010Prop33
280
     0
102
RTVSPost2010PropOp33
 70
     1
102
RTVSPost2010Prop34
280
     0
102
RTVSPost2010PropOp34
 70
     1
102
RTVSPost2010Prop35
280
     0
102
RTVSPost2010PropOp35
 70
     1
102
RTVSPost2010Prop36
280
     0
102
RTVSPost2010PropOp36
 70
     1
102
RTVSPost2010Prop37
 90
       50
102
RTVSPost2010PropOp37
 70
     1
102
RTVSPost2010Prop38
140
0.0
102
RTVSPost2010PropOp38
 70
     1
102
RTVSPost2010Prop39
140
1.0
102
RTVSPost2010PropOp39
 70
     1
102
RTVSPost2010Prop40
 90
        0
102
RTVSPost2010PropOp40
 70
     1
102
RTVSPost2010Prop41ColorIndex
 90
       18
102
RTVSPost2010Prop41ColorRGB
 90
        0
102
RTVSPost2010PropOp41
 70
     1
102
RTVSPost2010Prop42
 90
       50
102
RTVSPost2010PropOp42
 70
     1
102
RTVSPost2010Prop43
 90
        3
102
RTVSPost2010PropOp43
 70
     1
102
RTVSPost2010Prop44ColorIndex
 90
        5
102
RTVSPost2010Prop44ColorRGB
 90
      255
102
RTVSPost2010PropOp44
 70
     1
102
RTVSPost2010Prop45
280
     0
102
RTVSPost2010PropOp45
 70
     1
102
RTVSPost2010Prop46
 90
       50
102
RTVSPost2010PropOp46
 70
     1
102
RTVSPost2010Prop47
 90
       50
102
RTVSPost2010PropOp47
 70
     1
102
RTVSPost2010Prop48
 90
       50
102
RTVSPost2010PropOp48
 70
     1
102
RTVSPost2010Prop49
280
     0
102
RTVSPost2010PropOp49
 70
     1
102
RTVSPost2010Prop50
 90
       50
102
RTVSPost2010PropOp50
 70
     1
102
RTVSPost2010Prop51ColorIndex
 90
      256
102
RTVSPost2010Prop51ColorRGB
 90
-16777216
102
RTVSPost2010PropOp51
 70
     0
102
RTVSPost2010Prop52
140
1.0
102
RTVSPost2010PropOp52
 70
     0
102
RTVSPost2010Prop53
 90
        2
102
RTVSPost2010PropOp53
 70
     1
102
RTVSPost2010Prop54
  1
strokes_ogs.tif
102
RTVSPost2010PropOp54
 70
     1
102
RTVSPost2010Prop55
280
     0
102
RTVSPost2010PropOp55
 70
     1
102
RTVSPost2010Prop56
140
1.0
102
RTVSPost2010PropOp56
 70
     1
102
RTVSPost2010Prop57
140
1.0
102
RTVSPost2010PropOp57
 70
     1
  0
XRECORD
  5
138
102
{ACAD_REACTORS
330
137
102
}
330
137
100
AcDbXrecord
280
     1
102
RTVSPost2010Prop28
280
     0
102
RTVSPost2010PropOp28
 70
     1
102
RTVSPost2010Prop29
280
     1
102
RTVSPost2010PropOp29
 70
     1
102
RTVSPost2010Prop30
280
     1
102
RTVSPost2010PropOp30
 70
     1
102
RTVSPost2010Prop31
280
     0
102
RTVSPost2010PropOp31
 70
     1
102
RTVSPost2010Prop32
280
     0
102
RTVSPost2010PropOp32
 70
     1
102
RTVSPost2010Prop33
280
     0
102
RTVSPost2010PropOp33
 70
     1
102
RTVSPost2010Prop34
280
     0
102
RTVSPost2010PropOp34
 70
     1
102
RTVSPost2010Prop35
280
     0
102
RTVSPost2010PropOp35
 70
     1
102
RTVSPost2010Prop36
280
     0
102
RTVSPost2010PropOp36
 70
     1
102
RTVSPost2010Prop37
 90
       50
102
RTVSPost2010PropOp37
 70
     1
102
RTVSPost2010Prop38
140
0.0
102
RTVSPost2010PropOp38
 70
     1
102
RTVSPost2010Prop39
140
1.0
102
RTVSPost2010PropOp39
 70
     1
102
RTVSPost2010Prop40
 90
        0
102
RTVSPost2010PropOp40
 70
     1
102
RTVSPost2010Prop41ColorIndex
 90
       18
102
RTVSPost2010Prop41ColorRGB
 90
        0
102
RTVSPost2010PropOp41
 70
     1
102
RTVSPost2010Prop42
 90
       50
102
RTVSPost2010PropOp42
 70
     1
102
RTVSPost2010Prop43
 90
        3
102
RTVSPost2010PropOp43
 70
     1
102
RTVSPost2010Prop44ColorIndex
 90
        5
102
RTVSPost2010Prop44ColorRGB
 90
      255
102
RTVSPost2010PropOp44
 70
     1
102
RTVSPost2010Prop45
280
     0
102
RTVSPost2010PropOp45
 70
     1
102
RTVSPost2010Prop46
 90
       50
102
RTVSPost2010PropOp46
 70
     1
102
RTVSPost2010Prop47
 90
       50
102
RTVSPost2010PropOp47
 70
     1
102
RTVSPost2010Prop48
 90
       50
102
RTVSPost2010PropOp48
 70
     1
102
RTVSPost2010Prop49
280
     0
102
RTVSPost2010PropOp49
 70
     1
102
RTVSPost2010Prop50
 90
       50
102
RTVSPost2010PropOp50
 70
     1
102
RTVSPost2010Prop51ColorIndex
 90
      256
102
RTVSPost2010Prop51ColorRGB
 90
-16777216
102
RTVSPost2010PropOp51
 70
     0
102
RTVSPost2010Prop52
140
1.0
102
RTVSPost2010PropOp52
 70
     0
102
RTVSPost2010Prop53
 90
        2
102
RTVSPost2010PropOp53
 70
     1
102
RTVSPost2010Prop54
  1
strokes_ogs.tif
102
RTVSPost2010PropOp54
 70
     1
102
RTVSPost2010Prop55
280
     0
102
RTVSPost2010PropOp55
 70
     1
102
RTVSPost2010Prop56
140
1.0
102
RTVSPost2010PropOp56
 70
     1
102
RTVSPost2010Prop57
140
1.0
102
RTVSPost2010PropOp57
 70
     1
  0
ENDSEC
  0
EOF
