  0
SECTION
  2
HEADER
  9
$ACADVER
  1
AC1024
  9
$ACADMAINTVER
 70
   226
  9
$DWGCODEPAGE
  3
ANSI_1252
  9
$INSBASE
 10
0.0
 20
0.0
 30
0.0
  9
$EXTMIN
 10
1.000000000000000E+20
 20
1.000000000000000E+20
 30
1.000000000000000E+20
  9
$EXTMAX
 10
-1.000000000000000E+20
 20
-1.000000000000000E+20
 30
-1.000000000000000E+20
  9
$LIMMIN
 10
0.0
 20
0.0
  9
$LIMMAX
 10
12.0
 20
9.0
  9
$ORTHOMODE
 70
     0
  9
$REGENMODE
 70
     1
  9
$FILLMODE
 70
     1
  9
$QTEXTMODE
 70
     0
  9
$MIRRTEXT
 70
     1
  9
$LTSCALE
 40
1.0
  9
$ATTMODE
 70
     1
  9
$TEXTSIZE
 40
0.2
  9
$TRACEWID
 40
0.05
  9
$TEXTSTYLE
  7
Standard
  9
$CLAYER
  8
WandProfileHorizontal_01
  9
$CELTYPE
  6
ByLayer
  9
$CECOLOR
 62
   256
  9
$CELTSCALE
 40
1.0
  9
$DISPSILH
 70
     0
  9
$DIMSCALE
 40
1.0
  9
$DIMASZ
 40
0.18
  9
$DIMEXO
 40
0.0625
  9
$DIMDLI
 40
0.38
  9
$DIMRND
 40
0.0
  9
$DIMDLE
 40
0.0
  9
$DIMEXE
 40
0.18
  9
$DIMTP
 40
0.0
  9
$DIMTM
 40
0.0
  9
$DIMTXT
 40
0.18
  9
$DIMCEN
 40
0.09
  9
$DIMTSZ
 40
0.0
  9
$DIMTOL
 70
     0
  9
$DIMLIM
 70
     0
  9
$DIMTIH
 70
     1
  9
$DIMTOH
 70
     1
  9
$DIMSE1
 70
     0
  9
$DIMSE2
 70
     0
  9
$DIMTAD
 70
     0
  9
$DIMZIN
 70
     0
  9
$DIMBLK
  1

  9
$DIMASO
 70
     1
  9
$DIMSHO
 70
     1
  9
$DIMPOST
  1

  9
$DIMAPOST
  1

  9
$DIMALT
 70
     0
  9
$DIMALTD
 70
     2
  9
$DIMALTF
 40
25.4
  9
$DIMLFAC
 40
1.0
  9
$DIMTOFL
 70
     0
  9
$DIMTVP
 40
0.0
  9
$DIMTIX
 70
     0
  9
$DIMSOXD
 70
     0
  9
$DIMSAH
 70
     0
  9
$DIMBLK1
  1

  9
$DIMBLK2
  1

  9
$DIMSTYLE
  2
Standard
  9
$DIMCLRD
 70
     0
  9
$DIMCLRE
 70
     0
  9
$DIMCLRT
 70
     0
  9
$DIMTFAC
 40
1.0
  9
$DIMGAP
 40
0.09
  9
$DIMJUST
 70
     0
  9
$DIMSD1
 70
     0
  9
$DIMSD2
 70
     0
  9
$DIMTOLJ
 70
     1
  9
$DIMTZIN
 70
     0
  9
$DIMALTZ
 70
     0
  9
$DIMALTTZ
 70
     0
  9
$DIMUPT
 70
     0
  9
$DIMDEC
 70
     4
  9
$DIMTDEC
 70
     4
  9
$DIMALTU
 70
     2
  9
$DIMALTTD
 70
     2
  9
$DIMTXSTY
  7
Standard
  9
$DIMAUNIT
 70
     0
  9
$DIMADEC
 70
     0
  9
$DIMALTRND
 40
0.0
  9
$DIMAZIN
 70
     0
  9
$DIMDSEP
 70
    46
  9
$DIMATFIT
 70
     3
  9
$DIMFRAC
 70
     0
  9
$DIMLDRBLK
  1

  9
$DIMLUNIT
 70
     2
  9
$DIMLWD
 70
    -2
  9
$DIMLWE
 70
    -2
  9
$DIMTMOVE
 70
     0
  9
$DIMFXL
 40
1.0
  9
$DIMFXLON
 70
     0
  9
$DIMJOGANG
 40
0.7853981633974483
  9
$DIMTFILL
 70
     0
  9
$DIMTFILLCLR
 70
     0
  9
$DIMARCSYM
 70
     0
  9
$DIMLTYPE
  6

  9
$DIMLTEX1
  6

  9
$DIMLTEX2
  6

  9
$DIMTXTDIRECTION
 70
     0
  9
$LUNITS
 70
     2
  9
$LUPREC
 70
     4
  9
$SKETCHINC
 40
0.1
  9
$FILLETRAD
 40
0.5
  9
$AUNITS
 70
     0
  9
$AUPREC
 70
     0
  9
$MENU
  1
.
  9
$ELEVATION
 40
0.0
  9
$PELEVATION
 40
0.0
  9
$THICKNESS
 40
0.0
  9
$LIMCHECK
 70
     0
  9
$CHAMFERA
 40
0.5
  9
$CHAMFERB
 40
0.5
  9
$CHAMFERC
 40
1.0
  9
$CHAMFERD
 40
0.0
  9
$SKPOLY
 70
     0
  9
$TDCREATE
 40
2451380.888761574
  9
$TDUCREATE
 40
2451380.805432396
  9
$TDUPDATE
 40
2451380.924513889
  9
$TDUUPDATE
 40
2451380.841180556
  9
$TDINDWG
 40
0.0075602199
  9
$TDUSRTIMER
 40
0.0075511806
  9
$USRTIMER
 70
     1
  9
$ANGBASE
 50
0.0
  9
$ANGDIR
 70
     0
  9
$PDMODE
 70
     0
  9
$PDSIZE
 40
0.0
  9
$PLINEWID
 40
0.0
  9
$SPLFRAME
 70
     0
  9
$SPLINETYPE
 70
     6
  9
$SPLINESEGS
 70
     8
  9
$HANDSEED
  5
1C2
  9
$SURFTAB1
 70
     6
  9
$SURFTAB2
 70
     6
  9
$SURFTYPE
 70
     6
  9
$SURFU
 70
     6
  9
$SURFV
 70
     6
  9
$UCSBASE
  2

  9
$UCSNAME
  2

  9
$UCSORG
 10
0.0
 20
0.0
 30
0.0
  9
$UCSXDIR
 10
1.0
 20
0.0
 30
0.0
  9
$UCSYDIR
 10
0.0
 20
1.0
 30
0.0
  9
$UCSORTHOREF
  2

  9
$UCSORTHOVIEW
 70
     0
  9
$UCSORGTOP
 10
0.0
 20
0.0
 30
0.0
  9
$UCSORGBOTTOM
 10
0.0
 20
0.0
 30
0.0
  9
$UCSORGLEFT
 10
0.0
 20
0.0
 30
0.0
  9
$UCSORGRIGHT
 10
0.0
 20
0.0
 30
0.0
  9
$UCSORGFRONT
 10
0.0
 20
0.0
 30
0.0
  9
$UCSORGBACK
 10
0.0
 20
0.0
 30
0.0
  9
$PUCSBASE
  2

  9
$PUCSNAME
  2

  9
$PUCSORG
 10
0.0
 20
0.0
 30
0.0
  9
$PUCSXDIR
 10
1.0
 20
0.0
 30
0.0
  9
$PUCSYDIR
 10
0.0
 20
1.0
 30
0.0
  9
$PUCSORTHOREF
  2

  9
$PUCSORTHOVIEW
 70
     0
  9
$PUCSORGTOP
 10
0.0
 20
0.0
 30
0.0
  9
$PUCSORGBOTTOM
 10
0.0
 20
0.0
 30
0.0
  9
$PUCSORGLEFT
 10
0.0
 20
0.0
 30
0.0
  9
$PUCSORGRIGHT
 10
0.0
 20
0.0
 30
0.0
  9
$PUCSORGFRONT
 10
0.0
 20
0.0
 30
0.0
  9
$PUCSORGBACK
 10
0.0
 20
0.0
 30
0.0
  9
$USERI1
 70
     0
  9
$USERI2
 70
     0
  9
$USERI3
 70
     0
  9
$USERI4
 70
     0
  9
$USERI5
 70
     0
  9
$USERR1
 40
0.0
  9
$USERR2
 40
0.0
  9
$USERR3
 40
0.0
  9
$USERR4
 40
0.0
  9
$USERR5
 40
0.0
  9
$WORLDVIEW
 70
     1
  9
$SHADEDGE
 70
     3
  9
$SHADEDIF
 70
    70
  9
$TILEMODE
 70
     1
  9
$MAXACTVP
 70
    64
  9
$PINSBASE
 10
0.0
 20
0.0
 30
0.0
  9
$PLIMCHECK
 70
     0
  9
$PEXTMIN
 10
1.000000000000000E+20
 20
1.000000000000000E+20
 30
1.000000000000000E+20
  9
$PEXTMAX
 10
-1.000000000000000E+20
 20
-1.000000000000000E+20
 30
-1.000000000000000E+20
  9
$PLIMMIN
 10
0.0
 20
0.0
  9
$PLIMMAX
 10
12.0
 20
9.0
  9
$UNITMODE
 70
     0
  9
$VISRETAIN
 70
     1
  9
$PLINEGEN
 70
     0
  9
$PSLTSCALE
 70
     1
  9
$TREEDEPTH
 70
  3020
  9
$CMLSTYLE
  2
Standard
  9
$CMLJUST
 70
     0
  9
$CMLSCALE
 40
1.0
  9
$PROXYGRAPHICS
 70
     1
  9
$MEASUREMENT
 70
     1
  9
$CELWEIGHT
370
    -1
  9
$ENDCAPS
280
     0
  9
$JOINSTYLE
280
     0
  9
$LWDISPLAY
290
     0
  9
$INSUNITS
 70
     4
  9
$HYPERLINKBASE
  1

  9
$STYLESHEET
  1

  9
$XEDIT
290
     1
  9
$CEPSNTYPE
380
     0
  9
$PSTYLEMODE
290
     1
  9
$FINGERPRINTGUID
  2
{12F50282-3ED8-11D3-A8B7-0060B0F84BC6}
  9
$VERSIONGUID
  2
{12F50293-3ED8-11D3-A8B7-0060B0F84BC6}
  9
$EXTNAMES
290
     1
  9
$PSVPSCALE
 40
0.0
  9
$OLESTARTUP
290
     0
  9
$SORTENTS
280
   127
  9
$INDEXCTL
280
     0
  9
$HIDETEXT
280
     0
  9
$XCLIPFRAME
280
     2
  9
$HALOGAP
280
     0
  9
$OBSCOLOR
 70
   257
  9
$OBSLTYPE
280
     0
  9
$INTERSECTIONDISPLAY
280
     0
  9
$INTERSECTIONCOLOR
 70
   257
  9
$DIMASSOC
280
     1
  9
$PROJECTNAME
  1

  9
$CAMERADISPLAY
290
     0
  9
$LENSLENGTH
 40
50.0
  9
$CAMERAHEIGHT
 40
0.0
  9
$STEPSPERSEC
 40
2.0
  9
$STEPSIZE
 40
6.0
  9
$3DDWFPREC
 40
2.0
  9
$PSOLWIDTH
 40
0.25
  9
$PSOLHEIGHT
 40
4.0
  9
$LOFTANG1
 40
1.570796326794896
  9
$LOFTANG2
 40
1.570796326794896
  9
$LOFTMAG1
 40
0.0
  9
$LOFTMAG2
 40
0.0
  9
$LOFTPARAM
 70
     7
  9
$LOFTNORMALS
280
     1
  9
$LATITUDE
 40
37.795
  9
$LONGITUDE
 40
-122.394
  9
$NORTHDIRECTION
 40
0.0
  9
$TIMEZONE
 70
 -8000
  9
$LIGHTGLYPHDISPLAY
280
     1
  9
$TILEMODELIGHTSYNCH
280
     1
  9
$CMATERIAL
347
AB
  9
$SOLIDHIST
280
     0
  9
$SHOWHIST
280
     1
  9
$DWFFRAME
280
     2
  9
$DGNFRAME
280
     0
  9
$REALWORLDSCALE
290
     1
  9
$INTERFERECOLOR
 62
     1
  9
$INTERFEREOBJVS
345
CD
  9
$INTERFEREVPVS
346
CA
  9
$CSHADOW
280
     0
  9
$SHADOWPLANELOCATION
 40
0.0
  0
ENDSEC
  0
SECTION
  2
CLASSES
  0
CLASS
  1
ACDBDICTIONARYWDFLT
  2
AcDbDictionaryWithDefault
  3
ObjectDBX Classes
 90
        0
 91
        1
280
     0
281
     0
  0
CLASS
  1
ACDBPLACEHOLDER
  2
AcDbPlaceHolder
  3
ObjectDBX Classes
 90
        0
 91
        2
280
     0
281
     0
  0
CLASS
  1
LAYOUT
  2
AcDbLayout
  3
ObjectDBX Classes
 90
        0
 91
        3
280
     0
281
     0
  0
CLASS
  1
MATERIAL
  2
AcDbMaterial
  3
ObjectDBX Classes
 90
     1153
 91
        3
280
     0
281
     0
  0
CLASS
  1
VISUALSTYLE
  2
AcDbVisualStyle
  3
ObjectDBX Classes
 90
     4095
 91
       24
280
     0
281
     0
  0
CLASS
  1
TABLESTYLE
  2
AcDbTableStyle
  3
ObjectDBX Classes
 90
     4095
 91
        1
280
     0
281
     0
  0
CLASS
  1
SCALE
  2
AcDbScale
  3
ObjectDBX Classes
 90
     1153
 91
       17
280
     0
281
     0
  0
CLASS
  1
MLEADERSTYLE
  2
AcDbMLeaderStyle
  3
ACDB_MLEADERSTYLE_CLASS
 90
     4095
 91
        1
280
     0
281
     0
  0
CLASS
  1
ACDBSECTIONVIEWSTYLE
  2
AcDbSectionViewStyle
  3
ObjectDBX Classes
 90
     1025
 91
        1
280
     0
281
     0
  0
CLASS
  1
ACDBDETAILVIEWSTYLE
  2
AcDbDetailViewStyle
  3
ObjectDBX Classes
 90
     1025
 91
        1
280
     0
281
     0
  0
CLASS
  1
MESH
  2
AcDbSubDMesh
  3
ObjectDBX Classes
 90
        0
 91
        2
280
     0
281
     1
  0
CLASS
  1
DICTIONARYVAR
  2
AcDbDictionaryVar
  3
ObjectDBX Classes
 90
        0
 91
        9
280
     0
281
     0
  0
CLASS
  1
CELLSTYLEMAP
  2
AcDbCellStyleMap
  3
ObjectDBX Classes
 90
     1152
 91
        1
280
     0
281
     0
  0
ENDSEC
  0
SECTION
  2
TABLES
  0
TABLE
  2
VPORT
  5
8
330
0
100
AcDbSymbolTable
 70
     1
  0
VPORT
  5
A8
330
8
100
AcDbSymbolTableRecord
100
AcDbViewportTableRecord
  2
*Active
 70
     0
 10
0.0
 20
0.0
 11
1.0
 21
1.0
 12
0.0
 22
408.2483215332031
 13
0.0
 23
0.0
 14
0.5
 24
0.5
 15
0.5
 25
0.5
 16
-1.0
 26
-1.0
 36
1.0
 17
0.0
 27
0.0
 37
0.0
 40
1120.000064782947
 41
0.1855768619399712
 42
50.0
 43
0.0
 44
0.0
 50
0.0
 51
0.0
 71
     0
 72
   100
 73
     1
 74
     3
 75
     0
 76
     0
 77
     0
 78
     0
281
     0
 65
     1
110
0.0
120
0.0
130
0.0
111
1.0
121
0.0
131
0.0
112
0.0
122
1.0
132
0.0
 79
     0
146
0.0
348
C9
 60
     3
 61
     5
292
     1
282
     1
141
0.0
142
0.0
 63
   250
421
  3355443
  0
ENDTAB
  0
TABLE
  2
LTYPE
  5
5
330
0
100
AcDbSymbolTable
 70
     1
  0
LTYPE
  5
14
330
5
100
AcDbSymbolTableRecord
100
AcDbLinetypeTableRecord
  2
ByBlock
 70
     0
  3

 72
    65
 73
     0
 40
0.0
  0
LTYPE
  5
15
330
5
100
AcDbSymbolTableRecord
100
AcDbLinetypeTableRecord
  2
ByLayer
 70
     0
  3

 72
    65
 73
     0
 40
0.0
  0
LTYPE
  5
16
330
5
100
AcDbSymbolTableRecord
100
AcDbLinetypeTableRecord
  2
Continuous
 70
     0
  3
Solid line
 72
    65
 73
     0
 40
0.0
  0
ENDTAB
  0
TABLE
  2
LAYER
  5
2
330
0
100
AcDbSymbolTable
 70
     4
  0
LAYER
  5
10
330
2
100
AcDbSymbolTableRecord
100
AcDbLayerTableRecord
  2
0
 70
     0
 62
   153
420
  7507413
  6
Continuous
370
    -3
390
F
347
BB
  0
LAYER
  5
2B
330
2
100
AcDbSymbolTableRecord
100
AcDbLayerTableRecord
  2
ASHADE
 70
     4
 62
     7
  6
Continuous
370
    -3
390
2D
347
BB
  0
LAYER
  5
F9
330
2
100
AcDbSymbolTableRecord
100
AcDbLayerTableRecord
  2
WandProfileHorizontal_01
 70
     0
 62
     7
420
 16777215
  6
Continuous
370
    -3
390
F
347
BB
  0
LAYER
  5
FA
330
2
100
AcDbSymbolTableRecord
100
AcDbLayerTableRecord
  2
Insert Point
 70
     0
 62
    41
420
 16768895
  6
Continuous
370
    -3
390
F
347
BB
  0
ENDTAB
  0
TABLE
  2
STYLE
  5
3
330
0
100
AcDbSymbolTable
 70
     2
  0
STYLE
  5
11
330
3
100
AcDbSymbolTableRecord
100
AcDbTextStyleTableRecord
  2
Standard
 70
     0
 40
0.0
 41
1.0
 50
0.0
 71
     0
 42
0.2
  3
txt
  4

  0
STYLE
  5
2C
330
3
100
AcDbSymbolTableRecord
100
AcDbTextStyleTableRecord
  2
ASHADE
 70
     0
 40
0.2
 41
1.0
 50
0.0
 71
     0
 42
0.2
  3
simplex
  4

  0
ENDTAB
  0
TABLE
  2
VIEW
  5
6
330
0
100
AcDbSymbolTable
 70
     0
  0
ENDTAB
  0
TABLE
  2
UCS
  5
7
330
0
100
AcDbSymbolTable
 70
     0
  0
ENDTAB
  0
TABLE
  2
APPID
  5
9
330
0
100
AcDbSymbolTable
 70
     6
  0
APPID
  5
12
330
9
100
AcDbSymbolTableRecord
100
AcDbRegAppTableRecord
  2
ACAD
 70
     0
  0
APPID
  5
8F
330
9
100
AcDbSymbolTableRecord
100
AcDbRegAppTableRecord
  2
AVE_RENDER
 70
     0
  0
APPID
  5
90
330
9
100
AcDbSymbolTableRecord
100
AcDbRegAppTableRecord
  2
AVE_ENTITY_MATERIAL
 70
     0
  0
APPID
  5
9C
330
9
100
AcDbSymbolTableRecord
100
AcDbRegAppTableRecord
  2
AVE_FINISH
 70
     0
  0
APPID
  5
9D
330
9
100
AcDbSymbolTableRecord
100
AcDbRegAppTableRecord
  2
AVE_MATERIAL
 70
     0
  0
APPID
  5
9E
330
9
100
AcDbSymbolTableRecord
100
AcDbRegAppTableRecord
  2
AVE_GLOBAL
 70
     0
  0
ENDTAB
  0
TABLE
  2
DIMSTYLE
  5
A
330
0
100
AcDbSymbolTable
 70
     1
100
AcDbDimStyleTable
 71
     0
  0
DIMSTYLE
105
27
330
A
100
AcDbSymbolTableRecord
100
AcDbDimStyleTableRecord
  2
Standard
 70
     0
340
11
  0
ENDTAB
  0
TABLE
  2
BLOCK_RECORD
  5
1
330
0
100
AcDbSymbolTable
 70
     6
  0
BLOCK_RECORD
  5
1F
330
1
100
AcDbSymbolTableRecord
100
AcDbBlockTableRecord
  2
*Model_Space
340
22
 70
     0
280
     1
281
     0
  0
BLOCK_RECORD
  5
1B
330
1
100
AcDbSymbolTableRecord
100
AcDbBlockTableRecord
  2
*Paper_Space
340
1E
 70
     0
280
     1
281
     0
  0
BLOCK_RECORD
  5
23
330
1
100
AcDbSymbolTableRecord
100
AcDbBlockTableRecord
  2
*Paper_Space0
340
26
 70
     0
280
     1
281
     0
  0
BLOCK_RECORD
  5
2E
330
1
100
AcDbSymbolTableRecord
100
AcDbBlockTableRecord
  2
direct
340
0
 70
     0
280
     1
281
     0
  0
BLOCK_RECORD
  5
42
330
1
100
AcDbSymbolTableRecord
100
AcDbBlockTableRecord
  2
overhead
340
0
 70
     0
280
     1
281
     0
  0
BLOCK_RECORD
  5
5F
330
1
100
AcDbSymbolTableRecord
100
AcDbBlockTableRecord
  2
sh_spot
340
0
 70
     0
280
     1
281
     0
  0
BLOCK_RECORD
  5
91
330
1
100
AcDbSymbolTableRecord
100
AcDbBlockTableRecord
  2
AVE_RENDER
340
0
102
{BLKREFS
331
94
331
95
331
96
331
97
331
98
331
99
331
9A
331
9B
102
}
 70
     0
280
     1
281
     0
  0
BLOCK_RECORD
  5
9F
330
1
100
AcDbSymbolTableRecord
100
AcDbBlockTableRecord
  2
AVE_GLOBAL
340
0
102
{BLKREFS
331
A2
102
}
 70
     0
280
     1
281
     0
  0
ENDTAB
  0
ENDSEC
  0
SECTION
  2
BLOCKS
  0
BLOCK
  5
20
330
1F
100
AcDbEntity
  8
0
100
AcDbBlockBegin
  2
*Model_Space
 70
     0
 10
0.0
 20
0.0
 30
0.0
  3
*Model_Space
  1

  0
ENDBLK
  5
21
330
1F
100
AcDbEntity
  8
0
100
AcDbBlockEnd
  0
BLOCK
  5
1C
330
1B
100
AcDbEntity
 67
     1
  8
0
100
AcDbBlockBegin
  2
*Paper_Space
 70
     0
 10
0.0
 20
0.0
 30
0.0
  3
*Paper_Space
  1

  0
ENDBLK
  5
1D
330
1B
100
AcDbEntity
 67
     1
  8
0
100
AcDbBlockEnd
  0
BLOCK
  5
24
330
23
100
AcDbEntity
 67
     1
  8
0
100
AcDbBlockBegin
  2
*Paper_Space0
 70
     0
 10
0.0
 20
0.0
 30
0.0
  3
*Paper_Space0
  1

  0
ENDBLK
  5
25
330
23
100
AcDbEntity
 67
     1
  8
0
100
AcDbBlockEnd
  0
BLOCK
  5
40
330
2E
100
AcDbEntity
  8
0
100
AcDbBlockBegin
  2
direct
 70
     2
 10
0.0
 20
0.0
 30
0.0
  3
direct
  1

  0
ATTDEF
  5
2F
330
2E
100
AcDbEntity
  8
ASHADE
  6
Continuous
 62
     1
100
AcDbText
 10
0.0
 20
-0.1
 30
0.0
 40
0.2
  1

  7
ASHADE
 72
     1
 11
0.0
 21
-0.1
 31
0.0
100
AcDbAttributeDefinition
280
     0
  3
Light Name
  2
SNAME
 70
     0
280
     0
  0
ARC
  5
30
330
2E
100
AcDbEntity
  8
ASHADE
  6
Continuous
 62
     7
100
AcDbCircle
 10
0.0
 20
0.0
 30
0.0
 40
0.3
100
AcDbArc
 50
205.6792886194569
 51
334.3207113805431
  0
ARC
  5
31
330
2E
100
AcDbEntity
  8
ASHADE
  6
Continuous
 62
     7
100
AcDbCircle
 10
0.0
 20
0.0
 30
0.0
 40
0.3
100
AcDbArc
 50
25.67928861945685
 51
154.3207113805431
  0
LINE
  5
32
330
2E
100
AcDbEntity
  8
ASHADE
  6
Continuous
 62
     7
100
AcDbLine
 10
-0.21
 20
0.2142428528562855
 30
0.0
 11
-0.21
 21
0.5
 31
0.0
  0
LINE
  5
33
330
2E
100
AcDbEntity
  8
ASHADE
  6
Continuous
 62
     7
100
AcDbLine
 10
-0.11
 20
0.2791057147390572
 30
0.0
 11
-0.11
 21
0.5
 31
0.0
  0
LINE
  5
34
330
2E
100
AcDbEntity
  8
ASHADE
  6
Continuous
 62
     7
100
AcDbLine
 10
0.21
 20
0.2142428528562855
 30
0.0
 11
0.21
 21
0.5
 31
0.0
  0
ATTDEF
  5
35
330
2E
100
AcDbEntity
  8
ASHADE
  6
Continuous
 62
     7
100
AcDbText
 10
0.0
 20
0.25
 30
0.0
 40
0.01
  1

100
AcDbAttributeDefinition
280
     0
  3
Look-at Y
  2
LAY
 70
     1
280
     0
  0
ATTDEF
  5
36
330
2E
100
AcDbEntity
  8
ASHADE
  6
Continuous
 62
     7
100
AcDbText
 10
0.0
 20
0.22
 30
0.0
 40
0.01
  1
1
100
AcDbAttributeDefinition
280
     0
  3
Light Intensity
  2
INTENSITY
 70
     1
280
     0
  0
ATTDEF
  5
37
330
2E
100
AcDbEntity
  8
ASHADE
  6
Continuous
 62
     7
100
AcDbText
 10
0.0
 20
0.16
 30
0.0
 40
0.01
  1
-1
100
AcDbAttributeDefinition
280
     0
  3
*not used*
  2
BEAMD
 70
     1
280
     0
  0
ATTDEF
  5
38
330
2E
100
AcDbEntity
  8
ASHADE
  6
Continuous
 62
     7
100
AcDbText
 10
0.0
 20
0.175
 30
0.0
 40
0.01
  1
-1
100
AcDbAttributeDefinition
280
     0
  3
*not used*
  2
CONED
 70
     1
280
     0
  0
ATTDEF
  5
39
330
2E
100
AcDbEntity
  8
ASHADE
  6
Continuous
 62
     7
100
AcDbText
 10
0.0
 20
0.19
 30
0.0
 40
0.01
  1
0
100
AcDbAttributeDefinition
280
     0
  3
Depth Map Size
  2
CONEA
 70
     1
280
     0
  0
ATTDEF
  5
3A
330
2E
100
AcDbEntity
  8
ASHADE
  6
Continuous
 62
     7
100
AcDbText
 10
0.0
 20
0.2050000000000001
 30
0.0
 40
0.01
  1
1,1,1
100
AcDbAttributeDefinition
280
     0
  3
Light Color (RGB)
  2
COLOR
 70
     1
280
     0
  0
ATTDEF
  5
3B
330
2E
100
AcDbEntity
  8
ASHADE
  6
Continuous
 62
     7
100
AcDbText
 10
0.0
 20
0.235
 30
0.0
 40
0.01
  1

100
AcDbAttributeDefinition
280
     0
  3
Look-at Z
  2
LAZ
 70
     1
280
     0
  0
LINE
  5
3C
330
2E
100
AcDbEntity
  8
ASHADE
  6
Continuous
 62
     7
100
AcDbLine
 10
0.0
 20
0.3
 30
0.0
 11
0.0
 21
0.5
 31
0.0
  0
LINE
  5
3D
330
2E
100
AcDbEntity
  8
ASHADE
  6
Continuous
 62
     7
100
AcDbLine
 10
0.11
 20
0.2791057147390572
 30
0.0
 11
0.11
 21
0.5
 31
0.0
  0
ATTDEF
  5
3E
330
2E
100
AcDbEntity
  8
ASHADE
  6
Continuous
 62
     7
100
AcDbText
 10
0.0
 20
0.265
 30
0.0
 40
0.01
  1

100
AcDbAttributeDefinition
280
     0
  3
Look-at X
  2
LAX
 70
     1
280
     0
  0
ATTDEF
  5
3F
330
2E
100
AcDbEntity
  8
ASHADE
  6
Continuous
 62
     7
100
AcDbText
 10
0.0
 20
0.28
 30
0.0
 40
0.01
  1

100
AcDbAttributeDefinition
280
     0
  3

  2
GNAME
 70
     1
280
     0
  0
ENDBLK
  5
41
330
2E
100
AcDbEntity
  8
0
100
AcDbBlockEnd
  0
BLOCK
  5
5D
330
42
100
AcDbEntity
  8
0
100
AcDbBlockBegin
  2
overhead
 70
     2
 10
0.0
 20
0.0
 30
0.0
  3
overhead
  1

  0
ATTDEF
  5
43
330
42
100
AcDbEntity
  8
ASHADE
  6
Continuous
 62
     1
100
AcDbText
 10
0.0
 20
-0.1
 30
0.0
 40
0.2
  1

  7
ASHADE
 72
     1
 11
0.0
 21
-0.1
 31
0.0
100
AcDbAttributeDefinition
280
     0
  3
Light Name
  2
SNAME
 70
     0
280
     0
  0
ARC
  5
44
330
42
100
AcDbEntity
  8
ASHADE
  6
Continuous
 62
     7
100
AcDbCircle
 10
0.0
 20
0.0
 30
0.0
 40
0.3
100
AcDbArc
 50
205.6792886194569
 51
334.3207113805431
  0
LINE
  5
45
330
42
100
AcDbEntity
  8
ASHADE
  6
Continuous
 62
     7
100
AcDbLine
 10
-0.2041413561583015
 20
-0.2198324514393848
 30
0.0
 11
-0.2721884748777353
 21
-0.2931099352525131
 31
0.0
  0
LINE
  5
46
330
42
100
AcDbEntity
  8
ASHADE
  6
Continuous
 62
     7
100
AcDbLine
 10
-0.1096591641591904
 20
-0.2792398032442862
 30
0.0
 11
-0.1279356915190555
 21
-0.3257797704516673
 31
0.0
  0
LINE
  5
47
330
42
100
AcDbEntity
  8
ASHADE
  6
Continuous
 62
     7
100
AcDbLine
 10
0.0
 20
-0.2999999999999999
 30
0.0
 11
0.0
 21
-0.4
 31
0.0
  0
LINE
  5
48
330
42
100
AcDbEntity
  8
ASHADE
  6
Continuous
 62
     7
100
AcDbLine
 10
0.1096591641591904
 20
-0.2792398032442862
 30
0.0
 11
0.1279356915190555
 21
-0.3257797704516673
 31
0.0
  0
LINE
  5
49
330
42
100
AcDbEntity
  8
ASHADE
  6
Continuous
 62
     7
100
AcDbLine
 10
0.2041413561583015
 20
-0.2198324514393848
 30
0.0
 11
0.2721884748777353
 21
-0.2931099352525131
 31
0.0
  0
ARC
  5
4A
330
42
100
AcDbEntity
  8
ASHADE
  6
Continuous
 62
     7
100
AcDbCircle
 10
0.0
 20
0.0
 30
0.0
 40
0.3
100
AcDbArc
 50
25.67928861945685
 51
154.3207113805431
  0
LINE
  5
4B
330
42
100
AcDbEntity
  8
ASHADE
  6
Continuous
 62
     7
100
AcDbLine
 10
-0.2703701166919155
 20
0.13
 30
0.0
 11
-0.3154318028072347
 21
0.1516666666666666
 31
0.0
  0
LINE
  5
4C
330
42
100
AcDbEntity
  8
ASHADE
  6
Continuous
 62
     7
100
AcDbLine
 10
-0.2703701166919155
 20
-0.13
 30
0.0
 11
-0.3154318028072347
 21
-0.1516666666666666
 31
0.0
  0
LINE
  5
4D
330
42
100
AcDbEntity
  8
ASHADE
  6
Continuous
 62
     7
100
AcDbLine
 10
-0.2041413561583015
 20
0.2198324514393849
 30
0.0
 11
-0.2721884748777353
 21
0.2931099352525131
 31
0.0
  0
LINE
  5
4E
330
42
100
AcDbEntity
  8
ASHADE
  6
Continuous
 62
     7
100
AcDbLine
 10
-0.1096591641591904
 20
0.2792398032442862
 30
0.0
 11
-0.1279356915190555
 21
0.3257797704516674
 31
0.0
  0
LINE
  5
4F
330
42
100
AcDbEntity
  8
ASHADE
  6
Continuous
 62
     7
100
AcDbLine
 10
0.2703701166919155
 20
-0.13
 30
0.0
 11
0.3154318028072347
 21
-0.1516666666666666
 31
0.0
  0
LINE
  5
50
330
42
100
AcDbEntity
  8
ASHADE
  6
Continuous
 62
     7
100
AcDbLine
 10
0.2703701166919155
 20
0.13
 30
0.0
 11
0.3154318028072347
 21
0.1516666666666666
 31
0.0
  0
LINE
  5
51
330
42
100
AcDbEntity
  8
ASHADE
  6
Continuous
 62
     7
100
AcDbLine
 10
0.0
 20
0.3
 30
0.0
 11
0.0
 21
0.4
 31
0.0
  0
ATTDEF
  5
52
330
42
100
AcDbEntity
  8
ASHADE
  6
Continuous
 62
     7
100
AcDbText
 10
0.0
 20
0.22
 30
0.0
 40
0.01
  1
1
100
AcDbAttributeDefinition
280
     0
  3
Light Intensity
  2
INTENSITY
 70
     1
280
     0
  0
ATTDEF
  5
53
330
42
100
AcDbEntity
  8
ASHADE
  6
Continuous
 62
     7
100
AcDbText
 10
0.0
 20
0.16
 30
0.0
 40
0.01
  1
-1
100
AcDbAttributeDefinition
280
     0
  3
*not used*
  2
BEAMD
 70
     1
280
     0
  0
ATTDEF
  5
54
330
42
100
AcDbEntity
  8
ASHADE
  6
Continuous
 62
     7
100
AcDbText
 10
0.0
 20
0.175
 30
0.0
 40
0.01
  1
-1
100
AcDbAttributeDefinition
280
     0
  3
*not used*
  2
CONED
 70
     1
280
     0
  0
ATTDEF
  5
55
330
42
100
AcDbEntity
  8
ASHADE
  6
Continuous
 62
     7
100
AcDbText
 10
0.0
 20
0.19
 30
0.0
 40
0.01
  1
0
100
AcDbAttributeDefinition
280
     0
  3
Depth Map Size
  2
CONEA
 70
     1
280
     0
  0
ATTDEF
  5
56
330
42
100
AcDbEntity
  8
ASHADE
  6
Continuous
 62
     7
100
AcDbText
 10
0.0
 20
0.2050000000000001
 30
0.0
 40
0.01
  1
1,1,1
100
AcDbAttributeDefinition
280
     0
  3
Light Color (RGB)
  2
COLOR
 70
     1
280
     0
  0
ATTDEF
  5
57
330
42
100
AcDbEntity
  8
ASHADE
  6
Continuous
 62
     7
100
AcDbText
 10
0.0
 20
0.235
 30
0.0
 40
0.01
  1

100
AcDbAttributeDefinition
280
     0
  3
Look-at Z
  2
LAZ
 70
     1
280
     0
  0
ATTDEF
  5
58
330
42
100
AcDbEntity
  8
ASHADE
  6
Continuous
 62
     7
100
AcDbText
 10
0.0
 20
0.25
 30
0.0
 40
0.01
  1

100
AcDbAttributeDefinition
280
     0
  3
Look-at Y
  2
LAY
 70
     1
280
     0
  0
ATTDEF
  5
59
330
42
100
AcDbEntity
  8
ASHADE
  6
Continuous
 62
     7
100
AcDbText
 10
0.0
 20
0.265
 30
0.0
 40
0.01
  1

100
AcDbAttributeDefinition
280
     0
  3
Look-at X
  2
LAX
 70
     1
280
     0
  0
ATTDEF
  5
5A
330
42
100
AcDbEntity
  8
ASHADE
  6
Continuous
 62
     7
100
AcDbText
 10
0.0
 20
0.28
 30
0.0
 40
0.01
  1

100
AcDbAttributeDefinition
280
     0
  3

  2
GNAME
 70
     1
280
     0
  0
LINE
  5
5B
330
42
100
AcDbEntity
  8
ASHADE
  6
Continuous
 62
     7
100
AcDbLine
 10
0.1096591641591904
 20
0.2792398032442862
 30
0.0
 11
0.1279356915190555
 21
0.3257797704516674
 31
0.0
  0
LINE
  5
5C
330
42
100
AcDbEntity
  8
ASHADE
  6
Continuous
 62
     7
100
AcDbLine
 10
0.2041413561583015
 20
0.2198324514393849
 30
0.0
 11
0.2721884748777353
 21
0.2931099352525131
 31
0.0
  0
ENDBLK
  5
5E
330
42
100
AcDbEntity
  8
0
100
AcDbBlockEnd
  0
BLOCK
  5
85
330
5F
100
AcDbEntity
  8
0
100
AcDbBlockBegin
  2
sh_spot
 70
     2
 10
0.0
 20
0.0
 30
0.0
  3
sh_spot
  1

  0
LINE
  5
60
330
5F
100
AcDbEntity
  8
ASHADE
  6
Continuous
 62
     7
100
AcDbLine
 10
0.25
 20
0.26
 30
0.0
 11
-0.25
 21
0.26
 31
0.0
  0
LINE
  5
61
330
5F
100
AcDbEntity
  8
ASHADE
  6
Continuous
 62
     7
100
AcDbLine
 10
-0.25
 20
-0.3399999999999999
 30
0.0
 11
0.25
 21
-0.3399999999999999
 31
0.0
  0
ATTDEF
  5
62
330
5F
100
AcDbEntity
  8
ASHADE
  6
Continuous
 62
     1
100
AcDbText
 10
0.0
 20
-0.1
 30
0.0
 40
0.2
  1

  7
ASHADE
 72
     1
 11
0.0
 21
-0.1
 31
0.0
100
AcDbAttributeDefinition
280
     0
  3
Light Name
  2
SNAME
 70
     0
280
     0
  0
LINE
  5
63
330
5F
100
AcDbEntity
  8
ASHADE
  6
Continuous
 62
     7
100
AcDbLine
 10
-0.25
 20
-0.13
 30
0.0
 11
-0.25
 21
-0.3399999999999999
 31
0.0
  0
LINE
  5
64
330
5F
100
AcDbEntity
  8
ASHADE
  6
Continuous
 62
     7
100
AcDbLine
 10
-0.25
 20
-0.18
 30
0.0
 11
-0.29
 21
-0.18
 31
0.0
  0
LINE
  5
65
330
5F
100
AcDbEntity
  8
ASHADE
  6
Continuous
 62
     7
100
AcDbLine
 10
-0.29
 20
-0.22
 30
0.0
 11
-0.25
 21
-0.22
 31
0.0
  0
LINE
  5
66
330
5F
100
AcDbEntity
  8
ASHADE
  6
Continuous
 62
     7
100
AcDbLine
 10
-0.29
 20
-0.18
 30
0.0
 11
-0.29
 21
-0.22
 31
0.0
  0
LINE
  5
67
330
5F
100
AcDbEntity
  8
ASHADE
  6
Continuous
 62
     7
100
AcDbLine
 10
-0.1045454545454545
 20
0.26
 30
0.0
 11
-0.15
 21
0.46
 31
0.0
  0
LINE
  5
68
330
5F
100
AcDbEntity
  8
ASHADE
  6
Continuous
 62
     7
100
AcDbLine
 10
-0.21
 20
0.26
 30
0.0
 11
-0.301304347826087
 21
0.46
 31
0.0
  0
LINE
  5
69
330
5F
100
AcDbEntity
  8
ASHADE
  6
Continuous
 62
     7
100
AcDbLine
 10
-0.25
 20
0.26
 30
0.0
 11
-0.25
 21
0.13
 31
0.0
  0
LINE
  5
6A
330
5F
100
AcDbEntity
  8
ASHADE
  6
Continuous
 62
     7
100
AcDbLine
 10
-0.25
 20
0.22
 30
0.0
 11
-0.29
 21
0.22
 31
0.0
  0
LINE
  5
6B
330
5F
100
AcDbEntity
  8
ASHADE
  6
Continuous
 62
     7
100
AcDbLine
 10
-0.29
 20
0.1799999999999999
 30
0.0
 11
-0.25
 21
0.1799999999999999
 31
0.0
  0
LINE
  5
6C
330
5F
100
AcDbEntity
  8
ASHADE
  6
Continuous
 62
     7
100
AcDbLine
 10
-0.29
 20
0.22
 30
0.0
 11
-0.29
 21
0.1799999999999999
 31
0.0
  0
ATTDEF
  5
6D
330
5F
100
AcDbEntity
  8
ASHADE
  6
Continuous
 62
     7
100
AcDbText
 10
0.0
 20
-0.24
 30
0.0
 40
0.01
  1
0
100
AcDbAttributeDefinition
280
     0
  3
Depth Map Size
  2
ZSIZE
 70
     1
280
     0
  0
ATTDEF
  5
6E
330
5F
100
AcDbEntity
  8
ASHADE
  6
Continuous
 62
     7
100
AcDbText
 10
0.0
 20
-0.3300000000000001
 30
0.0
 40
0.01
  1
0,0,0
100
AcDbAttributeDefinition
280
     0
  3
Look-from XYZ
  2
LFXYZ
 70
     1
280
     0
  0
ATTDEF
  5
6F
330
5F
100
AcDbEntity
  8
ASHADE
  6
Continuous
 62
     7
100
AcDbText
 10
0.0
 20
-0.315
 30
0.0
 40
0.01
  1
0.0
100
AcDbAttributeDefinition
280
     0
  3
Beam Distribution
  2
BEAMDI
 70
     1
280
     0
  0
ATTDEF
  5
70
330
5F
100
AcDbEntity
  8
ASHADE
  6
Continuous
 62
     7
100
AcDbText
 10
0.0
 20
-0.3
 30
0.0
 40
0.01
  1
0.0
100
AcDbAttributeDefinition
280
     0
  3
Cone Delta
  2
CONEDE
 70
     1
280
     0
  0
ATTDEF
  5
71
330
5F
100
AcDbEntity
  8
ASHADE
  6
Continuous
 62
     7
100
AcDbText
 10
0.0
 20
-0.2850000000000001
 30
0.0
 40
0.01
  1
10.0
100
AcDbAttributeDefinition
280
     0
  3
Cone Angle
  2
CONEAN
 70
     1
280
     0
  0
ATTDEF
  5
72
330
5F
100
AcDbEntity
  8
ASHADE
  6
Continuous
 62
     7
100
AcDbText
 10
0.0
 20
-0.27
 30
0.0
 40
0.01
  1
-1
100
AcDbAttributeDefinition
280
     0
  3
*not used*
  2
BIASMAX
 70
     1
280
     0
  0
ATTDEF
  5
73
330
5F
100
AcDbEntity
  8
ASHADE
  6
Continuous
 62
     7
100
AcDbText
 10
0.0
 20
-0.255
 30
0.0
 40
0.01
  1
-1
100
AcDbAttributeDefinition
280
     0
  3
*not used*
  2
BIASMIN
 70
     1
280
     0
  0
ATTDEF
  5
74
330
5F
100
AcDbEntity
  8
ASHADE
  6
Continuous
 62
     7
100
AcDbText
 10
0.0
 20
-0.225
 30
0.0
 40
0.01
  1
1,1,1
100
AcDbAttributeDefinition
280
     0
  3
Light Color (RGB)
  2
COLOR
 70
     1
280
     0
  0
ATTDEF
  5
75
330
5F
100
AcDbEntity
  8
ASHADE
  6
Continuous
 62
     7
100
AcDbText
 10
0.0
 20
-0.21
 30
0.0
 40
0.01
  1
1
100
AcDbAttributeDefinition
280
     0
  3
Light Intensity
  2
INTENSITY
 70
     1
280
     0
  0
ATTDEF
  5
76
330
5F
100
AcDbEntity
  8
ASHADE
  6
Continuous
 62
     7
100
AcDbText
 10
0.0
 20
-0.15
 30
0.0
 40
0.01
  1

100
AcDbAttributeDefinition
280
     0
  3

  2
GNAME
 70
     1
280
     0
  0
ATTDEF
  5
77
330
5F
100
AcDbEntity
  8
ASHADE
  6
Continuous
 62
     7
100
AcDbText
 10
0.0
 20
-0.195
 30
0.0
 40
0.01
  1

100
AcDbAttributeDefinition
280
     0
  3
Look-at Z
  2
LAZ
 70
     1
280
     0
  0
ATTDEF
  5
78
330
5F
100
AcDbEntity
  8
ASHADE
  6
Continuous
 62
     7
100
AcDbText
 10
0.0
 20
-0.18
 30
0.0
 40
0.01
  1

100
AcDbAttributeDefinition
280
     0
  3
Look-at Y
  2
LAY
 70
     1
280
     0
  0
ATTDEF
  5
79
330
5F
100
AcDbEntity
  8
ASHADE
  6
Continuous
 62
     7
100
AcDbText
 10
0.0
 20
-0.165
 30
0.0
 40
0.01
  1

100
AcDbAttributeDefinition
280
     0
  3
Look-at X
  2
LAX
 70
     1
280
     0
  0
LINE
  5
7A
330
5F
100
AcDbEntity
  8
ASHADE
  6
Continuous
 62
     7
100
AcDbLine
 10
0.25
 20
-0.3399999999999999
 30
0.0
 11
0.25
 21
-0.13
 31
0.0
  0
LINE
  5
7B
330
5F
100
AcDbEntity
  8
ASHADE
  6
Continuous
 62
     7
100
AcDbLine
 10
0.25
 20
-0.18
 30
0.0
 11
0.29
 21
-0.18
 31
0.0
  0
LINE
  5
7C
330
5F
100
AcDbEntity
  8
ASHADE
  6
Continuous
 62
     7
100
AcDbLine
 10
0.29
 20
-0.22
 30
0.0
 11
0.25
 21
-0.22
 31
0.0
  0
LINE
  5
7D
330
5F
100
AcDbEntity
  8
ASHADE
  6
Continuous
 62
     7
100
AcDbLine
 10
0.29
 20
-0.18
 30
0.0
 11
0.29
 21
-0.22
 31
0.0
  0
LINE
  5
7E
330
5F
100
AcDbEntity
  8
ASHADE
  6
Continuous
 62
     7
100
AcDbLine
 10
0.21
 20
0.26
 30
0.0
 11
0.301304347826087
 21
0.46
 31
0.0
  0
LINE
  5
7F
330
5F
100
AcDbEntity
  8
ASHADE
  6
Continuous
 62
     7
100
AcDbLine
 10
0.1045454545454545
 20
0.26
 30
0.0
 11
0.15
 21
0.46
 31
0.0
  0
LINE
  5
80
330
5F
100
AcDbEntity
  8
ASHADE
  6
Continuous
 62
     7
100
AcDbLine
 10
0.0
 20
0.26
 30
0.0
 11
0.0
 21
0.46
 31
0.0
  0
LINE
  5
81
330
5F
100
AcDbEntity
  8
ASHADE
  6
Continuous
 62
     7
100
AcDbLine
 10
0.25
 20
0.13
 30
0.0
 11
0.25
 21
0.26
 31
0.0
  0
LINE
  5
82
330
5F
100
AcDbEntity
  8
ASHADE
  6
Continuous
 62
     7
100
AcDbLine
 10
0.25
 20
0.22
 30
0.0
 11
0.29
 21
0.22
 31
0.0
  0
LINE
  5
83
330
5F
100
AcDbEntity
  8
ASHADE
  6
Continuous
 62
     7
100
AcDbLine
 10
0.29
 20
0.1799999999999999
 30
0.0
 11
0.25
 21
0.1799999999999999
 31
0.0
  0
LINE
  5
84
330
5F
100
AcDbEntity
  8
ASHADE
  6
Continuous
 62
     7
100
AcDbLine
 10
0.29
 20
0.22
 30
0.0
 11
0.29
 21
0.1799999999999999
 31
0.0
  0
ENDBLK
  5
86
330
5F
100
AcDbEntity
  8
0
100
AcDbBlockEnd
  0
BLOCK
  5
92
330
91
100
AcDbEntity
  8
ASHADE
100
AcDbBlockBegin
  2
AVE_RENDER
 70
     0
 10
0.0
 20
0.0
 30
0.0
  3
AVE_RENDER
  1
AVE_RENDER
  0
ENDBLK
  5
93
330
91
100
AcDbEntity
  8
0
100
AcDbBlockEnd
  0
BLOCK
  5
A0
330
9F
100
AcDbEntity
  8
ASHADE
100
AcDbBlockBegin
  2
AVE_GLOBAL
 70
     0
 10
0.0
 20
0.0
 30
0.0
  3
AVE_GLOBAL
  1
AVE_GLOBAL
  0
ENDBLK
  5
A1
330
9F
100
AcDbEntity
  8
0
100
AcDbBlockEnd
  0
ENDSEC
  0
SECTION
  2
ENTITIES
  0
INSERT
  5
94
330
1F
100
AcDbEntity
  8
ASHADE
 62
     1
100
AcDbBlockReference
  2
AVE_RENDER
 10
0.0
 20
0.0
 30
0.0
1001
AVE_RENDER
1002
{
1070
     7
1000
Pref
1070
    30
1070
    20
1070
     1
1070
     0
1000

1070
    10
1070
     1
1070
    10
1040
1.0
1070
     1
1040
0.3
1040
0.7
1040
0.0
1040
10.0
1010
-1.0
1020
-1.0
1030
-1.0
1040
0.3
1070
    49
1070
     0
1070
     0
1010
1.0
1020
1.0
1030
1.0
1040
45.0
1070
     1
1070
     0
1000
WCS
1040
0.0
1070
     0
1040
10.0
1002
}
  0
INSERT
  5
95
330
1F
100
AcDbEntity
  8
ASHADE
 62
     3
100
AcDbBlockReference
  2
AVE_RENDER
 10
0.0
 20
0.0
 30
0.0
1001
AVE_RENDER
1002
{
1070
     0
1000
Full Opt
1070
     0
1070
     1
1070
     1
1070
     1
1070
     0
1070
     0
1070
     0
1070
     1
1070
     1
1040
0.0001
1040
0.0001
1002
}
  0
INSERT
  5
96
330
1F
100
AcDbEntity
  8
ASHADE
 62
     4
100
AcDbBlockReference
  2
AVE_RENDER
 10
0.0
 20
0.0
 30
0.0
1001
AVE_RENDER
1002
{
1070
     0
1000
Quick Opt
1070
     0
1070
     1
1070
     1
1070
     1
1070
     0
1070
     0
1070
     1
1002
}
  0
INSERT
  5
97
330
1F
100
AcDbEntity
  8
ASHADE
 62
     5
100
AcDbBlockReference
  2
AVE_RENDER
 10
0.0
 20
0.0
 30
0.0
1001
AVE_RENDER
1002
{
1070
     1
1000
Scanl Opt
1070
     2
1070
     0
1070
     2
1040
2.0
1040
4.0
1070
     0
1070
     1
1070
     0
1040
0.03
1002
}
  0
INSERT
  5
98
330
1F
100
AcDbEntity
  8
ASHADE
 62
     6
100
AcDbBlockReference
  2
AVE_RENDER
 10
0.0
 20
0.0
 30
0.0
1001
AVE_RENDER
1002
{
1070
     2
1000
Raytr Opt
1070
     2
1070
     0
1070
     2
1040
2.0
1040
4.0
1070
     0
1070
     1
1070
     1
1040
0.03
1070
     3
1040
0.03
1002
}
  0
INSERT
  5
99
330
1F
100
AcDbEntity
  8
ASHADE
 62
     7
100
AcDbBlockReference
  2
AVE_RENDER
 10
0.0
 20
0.0
 30
0.0
1001
AVE_RENDER
1002
{
1070
     0
1000
RFile Opt
1070
     1
1070
   640
1070
   480
1070
 10000
1070
     1
1070
     8
1070
     8
1070
     0
1070
     0
1070
     0
1070
     0
1070
     0
1070
     0
1070
     0
1002
}
  0
INSERT
  5
9A
330
1F
100
AcDbEntity
  8
ASHADE
 62
     8
100
AcDbBlockReference
  2
AVE_RENDER
 10
0.0
 20
0.0
 30
0.0
1001
AVE_RENDER
1002
{
1070
     0
1000
Fog Opt
1070
     0
1070
     0
1040
0.0
1040
1.0
1040
0.0
1040
1.0
1010
0.5
1020
0.5
1030
0.5
1002
}
  0
INSERT
  5
9B
330
1F
100
AcDbEntity
  8
ASHADE
 62
     9
100
AcDbBlockReference
  2
AVE_RENDER
 10
0.0
 20
0.0
 30
0.0
1001
AVE_RENDER
1002
{
1070
     0
1000
BG Opt
1070
     0
1070
     1
1010
0.0
1020
0.0
1030
0.0
1010
1.0
1020
0.0
1030
0.0
1010
0.0
1020
1.0
1030
0.0
1010
0.0
1020
0.0
1030
1.0
1040
0.5
1040
0.33
1040
0.0
1000

1070
     1
1000

1070
     1
1070
     1
1040
1.0
1040
1.0
1040
0.0
1040
0.0
1070
     0
1002
}
  0
INSERT
  5
A2
330
1F
100
AcDbEntity
  8
ASHADE
 62
     1
100
AcDbBlockReference
  2
AVE_GLOBAL
 10
0.0
 20
0.0
 30
0.0
1001
AVE_MATERIAL
1002
{
1000
*GLOBAL*
1000
2
1000
Global finish.
1002
{
1002
}
1002
{
1070
    63
1002
{
1002
{
1010
-1.0
1020
-1.0
1030
-1.0
1002
}
1040
0.1000000014901161
1000

1040
0.0
1002
{
1002
}
1040
0.0
1002
{
1002
}
1040
0.0
1002
}
1002
{
1002
{
1010
-1.0
1020
-1.0
1030
-1.0
1002
}
1040
0.6999999880790711
1000

1040
0.0
1002
{
1002
}
1040
0.0
1002
{
1002
}
1040
0.0
1002
}
1002
{
1002
{
1010
-1.0
1020
-1.0
1030
-1.0
1002
}
1040
0.2000000029802322
1000

1040
0.0
1002
{
1002
}
1040
0.0
1002
{
1002
}
1040
0.0
1002
}
1002
{
1070
     0
1002
{
1070
     1
1002
{
1040
1.0
1040
1.0
1000

1040
0.0
1002
{
1002
}
1040
0.0
1002
{
1002
}
1040
0.0
1002
}
1002
}
1040
1.0
1040
0.0
1040
0.0
1002
}
1002
{
1040
1.0
1040
1.0
1000

1040
0.0
1002
{
1002
}
1040
0.0
1002
{
1002
}
1040
0.0
1002
}
1002
{
1040
0.5
1040
1.0
1000

1040
0.0
1002
{
1002
}
1040
0.0
1002
{
1002
}
1040
0.0
1002
}
1002
{
1070
     0
1040
0.0
1002
{
1002
}
1040
1.0
1002
{
1002
}
1040
0.0
1002
}
1002
{
1040
0.0
1002
{
1002
{
1010
0.0
1020
0.0
1030
0.0
1002
}
1040
1.0
1000

1040
0.0
1002
{
1002
}
1040
0.0
1002
{
1002
}
1040
0.0
1002
}
1002
}
1002
{
1002
{
1070
     1
1002
{
1040
0.0
1040
1.0
1000

1040
0.0
1002
{
1002
}
1040
0.0
1002
{
1002
}
1040
0.0
1002
}
1002
}
1040
0.0
1002
{
1002
}
1010
1.0
1020
0.0
1030
0.0
1010
0.0
1020
1.0
1030
0.0
1010
0.0
1020
0.0
1030
1.0
1070
     0
1002
}
1002
{
1002
{
1040
1.0
1040
1.0
1002
{
1070
     1
1002
{
1040
1.0
1040
1.0
1000

1040
0.0
1002
{
1002
}
1040
0.0
1002
{
1002
}
1040
0.0
1002
}
1002
}
1002
}
1070
     0
1040
0.0
1002
{
1002
}
1002
}
1002
{
1002
}
1002
}
1002
{
1071
        3
1070
     3
1070
     0
1002
{
1070
     2
1070
     0
1070
     0
1040
0.0
1002
}
1070
     0
1070
     2
1002
{
1002
}
1002
}
1002
{
1040
8030.0
1040
190.3000030517578
1040
0.3050000071525574
1040
228.0
1040
545.0
1040
14.0
1040
17.39999961853027
1040
0.4560000002384186
1002
}
1002
}
  0
MESH
  5
FB
330
1F
100
AcDbEntity
  8
WandProfileHorizontal_01
 62
     7
420
 16777215
160
             18152
310
E8460000F80100000C00000013000000020000003C0000000600000002000000000000009B321B40000000800E9DFA3F0000000000408F4000000060C6341A40000000A065B803400000000000408F400C000000130000000A0000003C000000060000000200000000000060C6341A40000000A065B803400000000000408F
310
40000000A088D61840000000A0B8D909400000000000408F400C00000013000000120000003C0000000600000002000000000000009B321B40000000800E9DFA3F0000000000408F40000000A088D61840000000A0B8D909400000000000408F400C000000130000001A0000003C0000000600000002000000000000009B32
310
1B40000000800E9DFA3F0000000000408F40000000A060CC1B40000000C0D5CEEA3F0000000000408F400C00000013000000220000003C0000000600000002000000000000A088D61840000000A0B8D909400000000000408F40000000A060CC1B40000000C0D5CEEA3F0000000000408F400C000000130000002A0000003C
310
0000000600000002000000000000A060CC1B40000000C0D5CEEA3F0000000000408F40000000C0E1FF1B40000000601B4F1E3F0000000000408F400C00000013000000320000003C0000000600000002000000000000A088D61840000000A0B8D909400000000000408F40000000C0E1FF1B40000000601B4F1E3F00000000
310
00408F400C000000130000003A0000003C0000000600000002000000000000C0E1FF1B40000000601B4F1E3F0000000000408F40000000A060CC1B40000000A0F0CCEABF0000000000408F400C00000013000000420000003C0000000600000002000000000000A088D61840000000A0B8D909400000000000408F40000000
310
A060CC1B40000000A0F0CCEABF0000000000408F400C000000130000004A0000003C0000000600000002000000000000A060CC1B40000000A0F0CCEABF0000000000408F40000000E0C7CD104000000020D00DF2BF0000000000408F400C00000013000000520000003C0000000600000002000000000000A088D618400000
310
00A0B8D909400000000000408F40000000E0C7CD104000000020D00DF2BF0000000000408F400C000000130000005A0000003C0000000600000002000000000000E0C7CD104000000020D00DF2BF0000000000408F4000000020A418144000000020477F13400000000000408F400C00000013000000620000003C00000006
310
00000002000000000000A088D61840000000A0B8D909400000000000408F4000000020A418144000000020477F13400000000000408F400C000000130000006A0000003C0000000600000002000000000000A088D61840000000A0B8D909400000000000408F4000000080F8FF3140000000001B0B2E400000000000408F40
310
0C00000013000000720000003C000000060000000200000000000080F8FF3140000000001B0B2E400000000000408F4000000060F8FF334000000040A1D933400000000000408F400C000000130000007A0000003C0000000600000002000000000000A088D61840000000A0B8D909400000000000408F4000000060F8FF33
310
4000000040A1D933400000000000408F400C00000013000000820000003C000000060000000200000000000020A418144000000020477F13400000000000408F4000000060F8FF334000000040A1D933400000000000408F400C000000130000008A0000003C0000000600000002000000000000005FE63140000000A0E1FF
310
17C00000002000408F4000000080F8FF334000000020F63201C00000000000408F400C00000013000000920000003C000000060000000200000000000080F8FF334000000020F63201C00000000000408F40000000E05EE6314000000040F63201C00000000000408F400C000000130000009A0000003C0000000600000002
310
000000000000005FE63140000000A0E1FF17C00000002000408F40000000E05EE6314000000040F63201C00000000000408F400C00000013000000A20000003C0000000600000002000000000000005FE63140000000A0E1FF17C00000002000408F4000000080F8FF31400000004009A81FC00000000000408F400C000000
310
13000000AA0000003C000000060000000200000000000080F8FF334000000020F63201C00000000000408F4000000080F8FF31400000004009A81FC00000000000408F400C00000013000000B20000003C000000060000000200000000000080F8FF31400000004009A81FC00000000000408F4000000080F8FF3140000000
310
80FC0A2EC00000002000408F400C00000013000000BA0000003C000000060000000200000000000080F8FF334000000020F63201C00000000000408F4000000080F8FF314000000080FC0A2EC00000002000408F400C00000013000000C20000003C000000060000000200000000000080F8FF334000000020F63201C00000
310
000000408F40000000A0F8FF33400000000092D933C00000002000408F400C00000013000000CA0000003C000000060000000200000000000080F8FF314000000080FC0A2EC00000002000408F40000000A0F8FF33400000000092D933C00000002000408F400C00000013000000D20000003C000000060000000200000000
310
000080F8FF314000000080FC0A2EC00000002000408F40000000A088D61840000000603FD909C00000000000408F400C00000013000000DA0000003C0000000600000002000000000000A0F8FF33400000000092D933C00000002000408F40000000A088D61840000000603FD909C00000000000408F400C00000013000000
310
E20000003C0000000600000002000000000000A0F8FF33400000000092D933C00000002000408F4000000000F7320940000000A0C3FF07C00000002000408F400C00000013000000EA0000003C0000000600000002000000000000A088D61840000000603FD909C00000000000408F4000000000F7320940000000A0C3FF07
310
C00000002000408F400C00000013000000F20000003C0000000600000002000000000000A088D61840000000603FD909C00000000000408F4000000060C6341A4000000060ECB703C00000000000408F400C00000013000000FA0000003C000000060000000200000000000060C6341A4000000060ECB703C0000000000040
310
8F40000000009B321B40000000001C9CFABF0000000000408F400C00000013000000020100003C0000000600000002000000000000A088D61840000000603FD909C00000000000408F40000000009B321B40000000001C9CFABF0000000000408F400C000000130000000A0100003C0000000600000002000000000000A060
310
CC1B40000000A0F0CCEABF0000000000408F40000000009B321B40000000001C9CFABF0000000000408F400C00000013000000120100003C0000000600000002000000000000A060CC1B40000000A0F0CCEABF0000000000408F40000000A088D61840000000603FD909C00000000000408F400C000000130000001A010000
310
3C0000000600000002000000000000A060CC1B40000000A0F0CCEABF0000000000408F4000000000F7320940000000A0C3FF07C00000002000408F400C00000013000000220100003C0000000600000002000000000000E0C7CD104000000020D00DF2BF0000000000408F4000000000F7320940000000A0C3FF07C0000000
310
2000408F400C000000130000002A0100003C0000000600000002000000000000005FE63140000000A0E1FF17C00000002000408F40000000E0F0FF2F4000000080E1FF17C00000000000408F400C00000013000000320100003C000000060000000200000000000080F8FF31400000004009A81FC00000000000408F400000
310
00E0F0FF2F4000000080E1FF17C00000000000408F400C000000130000003A0100003C0000000600000002000000000000E0F0FF2F4000000080E1FF17C00000000000408F40000000E0F0FF2F400000002009A81FC00000000000408F400C00000013000000420100003C000000060000000200000000000080F8FF314000
310
00004009A81FC00000000000408F40000000E0F0FF2F400000002009A81FC00000000000408F400C000000130000004A0100003C000000060000000200000000000020EE101AC0000000C0B87304C00000000000408F4000000040045611C00000008028EFD7BF0000000000408F400C00000013000000520100003C000000
310
060000000200000000000040045611C00000008028EFD7BF0000000000408F40000000C0D4E10FC00000008052E7FB3F0000002000408F400C000000130000005A0100003C000000060000000200000000000020EE101AC0000000C0B87304C00000000000408F40000000C0D4E10FC00000008052E7FB3F0000002000408F
310
400C00000013000000620100003C000000060000000200000000000020EE101AC0000000C0B87304C00000000000408F4000000040BCFC1BC0000000805583CBBF0000002000408F400C000000130000006A0100003C0000000600000002000000000000C0D4E10FC00000008052E7FB3F0000002000408F4000000040BCFC
310
1BC0000000805583CBBF0000002000408F400C00000013000000720100003C0000000600000002000000000000C0D4E10FC00000008052E7FB3F0000002000408F40000000206B5405C000000080A27F0B400000002000408F400C000000130000007A0100003C000000060000000200000000000040BCFC1BC00000008055
310
83CBBF0000002000408F40000000206B5405C000000080A27F0B400000002000408F400C00000013000000820100003C000000060000000200000000000040BCFC1BC0000000805583CBBF0000002000408F40000000001FA51AC0000000C0A93601400000002000408F400C000000130000008A0100003C00000006000000
310
02000000000000206B5405C000000080A27F0B400000002000408F40000000001FA51AC0000000C0A93601400000002000408F400C00000013000000920100003C0000000600000002000000000000206B5405C000000080A27F0B400000002000408F40000000402B56E6BF000000E0D02C11400000000000408F400C0000
310
00130000009A0100003C0000000600000002000000000000001FA51AC0000000C0A93601400000002000408F40000000402B56E6BF000000E0D02C11400000000000408F400C00000013000000A20100003C0000000600000002000000000000001FA51AC0000000C0A93601400000002000408F40000000C0273216C00000
310
0040DD1111400000000000408F400C00000013000000AA0100003C0000000600000002000000000000402B56E6BF000000E0D02C11400000000000408F40000000C0273216C000000040DD1111400000000000408F400C00000013000000B20100003C0000000600000002000000000000C0273216C000000040DD11114000
310
00000000408F40000000C049510EC0000000E0DE8A17400000002000408F400C00000013000000BA0100003C0000000600000002000000000000402B56E6BF000000E0D02C11400000000000408F40000000C049510EC0000000E0DE8A17400000002000408F400C00000013000000C20100003C0000000600000002000000
310
000000402B56E6BF000000E0D02C11400000000000408F4000000060B10AF73F000000C04A6B10400000002000408F400C00000013000000CA0100003C0000000600000002000000000000C049510EC0000000E0DE8A17400000002000408F4000000060B10AF73F000000C04A6B10400000002000408F400C000000130000
310
00D20100003C0000000600000002000000000000C049510EC0000000E0DE8A17400000002000408F40000000809A6AF9BF000000E022451B400000002000408F400C00000013000000DA0100003C000000060000000200000000000060B10AF73F000000C04A6B10400000002000408F40000000809A6AF9BF000000E02245
310
1B400000002000408F400C00000013000000E20100003C000000060000000200000000000060B10AF73F000000C04A6B10400000002000408F40000000800FD2094000000040BB5407400000000000408F400C00000013000000EA0100003C0000000600000002000000000000809A6AF9BF000000E022451B400000002000
310
408F40000000800FD2094000000040BB5407400000000000408F400C00000013000000F20100003C0000000600000002000000000000809A6AF9BF000000E022451B400000002000408F40000000E00288E93F0000008064D11B400000000000408F400C00000013000000FA0100003C000000060000000200000000000080
310
0FD2094000000040BB5407400000000000408F40000000E00288E93F0000008064D11B400000000000408F400C00000013000000020200003C0000000600000002000000000000E00288E93F0000008064D11B400000000000408F4000000020C0BA084000000080481F19400000002000408F400C000000130000000A0200
310
003C0000000600000002000000000000800FD2094000000040BB5407400000000000408F4000000020C0BA084000000080481F19400000002000408F400C00000013000000120200003C0000000600000002000000000000800FD2094000000040BB5407400000000000408F40000000C0A3EA1040000000C05949F03F0000
310
002000408F400C000000130000001A0200003C000000060000000200000000000020C0BA084000000080481F19400000002000408F40000000C0A3EA1040000000C05949F03F0000002000408F400C00000013000000220200003C000000060000000200000000000020A418144000000020477F13400000000000408F4000
310
000020C0BA084000000080481F19400000002000408F400C000000130000002A0200003C000000060000000200000000000020A418144000000020477F13400000000000408F40000000C0A3EA1040000000C05949F03F0000002000408F400C00000013000000320200003C0000000600000002000000000000E0C7CD1040
310
00000020D00DF2BF0000000000408F40000000C0A3EA1040000000C05949F03F0000002000408F400C000000130000003A0200003C0000000600000002000000000000005FE63140000000A01E0018400000002000408F4000000080F8FF31400000004046A81F400000000000408F400C00000013000000420200003C0000
310
00060000000200000000000080F8FF31400000004046A81F400000000000408F40000000A0EE1530400000004046A81F400000000000408F400C000000130000004A0200003C0000000600000002000000000000005FE63140000000A01E0018400000002000408F40000000A0EE1530400000004046A81F40000000000040
310
8F400C00000013000000520200003C0000000600000002000000000000A0EE1530400000004046A81F400000000000408F40000000A0EE153040000000801E0018400000000000408F400C000000130000005A0200003C0000000600000002000000000000005FE63140000000A01E0018400000002000408F40000000A0EE
310
153040000000801E0018400000000000408F400C00000013000000620200003C000000060000000200000000000080F8FF3140000000001B0B2E400000000000408F4000000080F8FF31400000004046A81F400000000000408F400C000000130000006A0200003C000000060000000200000000000060F8FF334000000040
310
A1D933400000000000408F4000000080F8FF31400000004046A81F400000000000408F400C00000013000000720200003C0000000600000002000000000000005FE63140000000A01E0018400000002000408F40000000005FE6314000000040703301400000000000408F400C000000130000007A0200003C000000060000
310
000200000000000080F8FF31400000004046A81F400000000000408F40000000005FE6314000000040703301400000000000408F400C00000013000000820200003C0000000600000002000000000000005FE6314000000040703301400000000000408F4000000080F8FF334000000040703301400000000000408F400C00
310
0000130000008A0200003C000000060000000200000000000080F8FF31400000004046A81F400000000000408F4000000080F8FF334000000040703301400000000000408F400C00000013000000920200003C000000060000000200000000000060F8FF334000000040A1D933400000000000408F4000000080F8FF334000
310
000040703301400000000000408F400C000000130000009A0200003C000000060000000200000000000000000032400000002028A81F4000000060587EB33E0000008066E631400000004000001840000000600000B73E0C00000013000000A20200003C00000006000000020000000000008066E631400000004000001840
310
000000600000B73E00000020F61530400000004000001840000000A0587EB33E0C00000013000000AA0200003C000000060000000200000000000000000032400000002028A81F4000000060587EB33E00000020F61530400000004000001840000000A0587EB33E0C00000013000000B20200003C00000006000000020000
310
0000000020F61530400000004000001840000000A0587EB33E00000020F6153040000000E027A81F40000000806C96AF3E0C00000013000000BA0200003C000000060000000200000000000000000032400000002028A81F4000000060587EB33E00000020F6153040000000E027A81F40000000806C96AF3E0C0000001300
310
0000C20200003C00000006000000020000000000008066E631400000004000001840000000600000B73E0000008066E63140000000C033330140000000A0F170BE3E0C00000013000000CA0200003C000000060000000200000000000000000032400000002028A81F4000000060587EB33E0000008066E63140000000C033
310
330140000000A0F170BE3E0C00000013000000D20200003C00000006000000020000000000008066E63140000000C033330140000000A0F170BE3E0000000000003440000000E033330140000000600040C13E0C00000013000000DA0200003C000000060000000200000000000000000032400000002028A81F4000000060
310
587EB33E0000000000003440000000E033330140000000600040C13E0C00000013000000E20200003C000000060000000200000000000000000032400000002028A81F4000000060587EB33E0000000000003240000000E00B0B2E4000000080C506973E0C00000013000000EA0200003C0000000600000002000000000000
310
0000003240000000E00B0B2E4000000080C506973E000000E0FFFF3340000000C099D9334000000000C08D523E0C00000013000000F20200003C000000060000000200000000000000000032400000002028A81F4000000060587EB33E000000E0FFFF3340000000C099D9334000000000C08D523E0C00000013000000FA02
310
00003C00000006000000020000000000000000003440000000E033330140000000600040C13E000000E0FFFF3340000000C099D9334000000000C08D523E0C00000013000000020300003C0000000600000002000000000000004CD20940000000E07E54074000000000E542633E000000202A0BF73F000000802C6B104000
310
000080599994BE0C000000130000000A0300003C0000000600000002000000000000202A0BF73F000000802C6B104000000080599994BE00000040C218144000000020297F134000000000E88D523E0C00000013000000120300003C0000000600000002000000000000004CD20940000000E07E54074000000000E542633E
310
00000040C218144000000020297F134000000000E88D523E0C000000130000001A0300003C0000000600000002000000000000E0FFFF3340000000C099D9334000000000C08D523E00000040C218144000000020297F134000000000E88D523E0C00000013000000220300003C000000060000000200000000000000000032
310
40000000E00B0B2E4000000080C506973E00000040C218144000000020297F134000000000E88D523E0C000000130000002A0300003C00000006000000020000000000000000003240000000E00B0B2E4000000080C506973E000000E0A6D61840000000407CD9094000000080C806973E0C00000013000000320300003C00
310
0000060000000200000000000040C218144000000020297F134000000000E88D523E000000E0A6D61840000000407CD9094000000080C806973E0C000000130000003A0300003C0000000600000002000000000000004CD20940000000E07E54074000000000E542633E000000E0A6D61840000000407CD9094000000080C8
310
06973E0C00000013000000420300003C0000000600000002000000000000202A0BF73F000000802C6B104000000080599994BE000000C03955E6BF000000A0B22C1140000000408B4BA3BE0C000000130000004A0300003C000000060000000200000000000040C218144000000020297F134000000000E88D523E000000C0
310
3955E6BF000000A0B22C1140000000408B4BA3BE0C00000013000000520300003C0000000600000002000000000000C03955E6BF000000A0B22C1140000000408B4BA3BE000000A0216AF9BF000000E004451B40000000201D3FB0BE0C000000130000005A0300003C000000060000000200000000000040C2181440000000
310
20297F134000000000E88D523E000000A0216AF9BF000000E004451B40000000201D3FB0BE0C00000013000000620300003C000000060000000200000000000040C218144000000020297F134000000000E88D523E00000080FCBA0840000000402A1F194000000020CFA798BE0C000000130000006A0300003C0000000600
310
000002000000000000A0216AF9BF000000E004451B40000000201D3FB0BE00000080FCBA0840000000402A1F194000000020CFA798BE0C00000013000000720300003C0000000600000002000000000000A0216AF9BF000000E004451B40000000201D3FB0BE00000080F488E93F0000004046D11B400000006041CCA7BE0C
310
000000130000007A0300003C000000060000000200000000000080FCBA0840000000402A1F194000000020CFA798BE00000080F488E93F0000004046D11B400000006041CCA7BE0C00000013000000820300003C0000000600000002000000000000C03955E6BF000000A0B22C1140000000408B4BA3BE000000C02E5405C0
310
000000E0657F0B4000000080B797A7BE0C000000130000008A0300003C0000000600000002000000000000A0216AF9BF000000E004451B40000000201D3FB0BE000000C02E5405C0000000E0657F0B4000000080B797A7BE0C00000013000000920300003C0000000600000002000000000000C02E5405C0000000E0657F0B
310
4000000080B797A7BE0000004098E10FC0000000A0D9E6FB3F000000C05125A6BE0C000000130000009A0300003C0000000600000002000000000000A0216AF9BF000000E004451B40000000201D3FB0BE0000004098E10FC0000000A0D9E6FB3F000000C05125A6BE0C00000013000000A20300003C000000060000000200
310
0000000000A0216AF9BF000000E004451B40000000201D3FB0BE000000400D510EC0000000C0C08A17400000002022B3B2BE0C00000013000000AA0300003C00000006000000020000000000004098E10FC0000000A0D9E6FB3F000000C05125A6BE000000400D510EC0000000C0C08A17400000002022B3B2BE0C00000013
310
000000B20300003C00000006000000020000000000004098E10FC0000000A0D9E6FB3F000000C05125A6BE00000000E65511C0000000C00BF1D7BF00000060139D9EBE0C00000013000000BA0300003C000000060000000200000000000000E65511C0000000C00BF1D7BF00000060139D9EBE000000E0CF101AC000000040
310
F57304C0000000E0129D9EBE0C00000013000000C20300003C00000006000000020000000000004098E10FC0000000A0D9E6FB3F000000C05125A6BE000000E0CF101AC000000040F57304C0000000E0129D9EBE0C00000013000000CA0300003C0000000600000002000000000000E0CF101AC000000040F57304C0000000
310
E0129D9EBE000000009EFC1BC0000000E01B87CBBF00000020F936AABE0C00000013000000D20300003C00000006000000020000000000004098E10FC0000000A0D9E6FB3F000000C05125A6BE000000009EFC1BC0000000E01B87CBBF00000020F936AABE0C00000013000000DA0300003C00000006000000020000000000
310
00400D510EC0000000C0C08A17400000002022B3B2BE000000009EFC1BC0000000E01B87CBBF00000020F936AABE0C00000013000000E20300003C0000000600000002000000000000009EFC1BC0000000E01B87CBBF00000020F936AABE000000C000A51AC0000000406D360140000000607108B1BE0C00000013000000EA
310
0300003C0000000600000002000000000000400D510EC0000000C0C08A17400000002022B3B2BE000000C000A51AC0000000406D360140000000607108B1BE0C00000013000000F20300003C0000000600000002000000000000400D510EC0000000C0C08A17400000002022B3B2BE00000080093216C000000000BF111140
310
00000000F5F8B2BE0C00000013000000FA0300003C0000000600000002000000000000C000A51AC0000000406D360140000000607108B1BE00000080093216C000000000BF11114000000000F5F8B2BE0C00000013000000020400003C000000060000000200000000000040B9321B40000000E0949CFABF000000C04A5BB0
310
3E000000A0E4341A40000000C028B803C000000000506DB13E0C000000130000000A0400003C0000000600000002000000000000A0E4341A40000000C028B803C000000000506DB13E000000E0A6D61840000000C07BD909C0000000E0383FB23E0C00000013000000120400003C000000060000000200000000000040B932
310
1B40000000E0949CFABF000000C04A5BB03E000000E0A6D61840000000C07BD909C0000000E0383FB23E0C000000130000001A0400003C000000060000000200000000000040B9321B40000000E0949CFABF000000C04A5BB03E000000E07ECC1B4000000060E2CDEABF00000080311AAE3E0C00000013000000220400003C
310
0000000600000002000000000000E0A6D61840000000C07BD909C0000000E0383FB23E000000E07ECC1B4000000060E2CDEABF00000080311AAE3E0C000000130000002A0400003C0000000600000002000000000000E07ECC1B4000000060E2CDEABF00000080311AAE3E00000020E6CD104000000000490EF2BF00000040
310
079AA43E0C00000013000000320400003C0000000600000002000000000000E0A6D61840000000C07BD909C0000000E0383FB23E00000020E6CD104000000000490EF2BF00000040079AA43E0C000000130000003A0400003C000000060000000200000000000020E6CD104000000000490EF2BF00000040079AA43E000000
310
6033330940000000E0FFFF07C000000060EBC5A73E0C00000013000000420400003C0000000600000002000000000000E0A6D61840000000C07BD909C0000000E0383FB23E0000006033330940000000E0FFFF07C000000060EBC5A73E0C000000130000004A0400003C0000000600000002000000000000E0A6D618400000
310
00C07BD909C0000000E0383FB23E0000000000003240000000A00B0B2EC00000000060E9CF3E0C00000013000000520400003C00000006000000020000000000000000003240000000A00B0B2EC00000000060E9CF3E00000020000034400000008099D933C0000000E05841D33E0C000000130000005A0400003C00000006
310
00000002000000000000E0A6D61840000000C07BD909C0000000E0383FB23E00000020000034400000008099D933C0000000E05841D33E0C00000013000000620400003C00000006000000020000000000006033330940000000E0FFFF07C000000060EBC5A73E00000020000034400000008099D933C0000000E05841D33E
310
0C000000130000006A0400003C000000060000000200000000000020E6CD104000000000490EF2BF00000040079AA43E000000E0C1EA1040000000E0E048F03F000000C0FFD3983E0C00000013000000720400003C0000000600000002000000000000E07ECC1B4000000060E2CDEABF00000080311AAE3E000000E0C1EA10
310
40000000E0E048F03F000000C0FFD3983E0C000000130000007A0400003C0000000600000002000000000000004CD20940000000E07E54074000000000E542633E000000E0C1EA1040000000E0E048F03F000000C0FFD3983E0C00000013000000820400003C0000000600000002000000000000E0A6D61840000000407CD9
310
094000000080C806973E000000E0C1EA1040000000E0E048F03F000000C0FFD3983E0C000000130000008A0400003C0000000600000002000000000000E0A6D61840000000407CD9094000000080C806973E000000C0E4341A400000004029B80340000000C04B989F3E0C00000013000000920400003C0000000600000002
310
000000000000E0C1EA1040000000E0E048F03F000000C0FFD3983E000000C0E4341A400000004029B80340000000C04B989F3E0C000000130000009A0400003C0000000600000002000000000000E07ECC1B4000000060E2CDEABF00000080311AAE3E000000C0E4341A400000004029B80340000000C04B989F3E0C000000
310
13000000A20400003C0000000600000002000000000000C0E4341A400000004029B80340000000C04B989F3E00000040B9321B40000000A0959CFA3F00000060C9DAA33E0C00000013000000AA0400003C0000000600000002000000000000E07ECC1B4000000060E2CDEABF00000080311AAE3E00000040B9321B40000000
310
A0959CFA3F00000060C9DAA33E0C00000013000000B20400003C0000000600000002000000000000E07ECC1B4000000060E2CDEABF00000080311AAE3E0000000000001C400000002081029C3E000000C00F0FAB3E0C00000013000000BA0400003C000000060000000200000000000040B9321B40000000A0959CFA3F0000
310
0060C9DAA33E0000000000001C400000002081029C3E000000C00F0FAB3E0C00000013000000C20400003C000000060000000200000000000040B9321B40000000A0959CFA3F00000060C9DAA33E000000E07ECC1B4000000020E4CDEA3F0000000062A0A73E0C00000013000000CA0400003C000000060000000200000000
310
00000000001C400000002081029C3E000000C00F0FAB3E000000E07ECC1B4000000020E4CDEA3F0000000062A0A73E0C00000013000000D20400003C00000006000000020000000000008066E63140000000E0FFFF17C000000020BE18C73E00000000000032400000008027A81FC0000000800C0BC93E0C00000013000000
310
DA0400003C000000060000000200000000000000000032400000008027A81FC0000000800C0BC93E00000000000030400000008027A81FC000000040421CC73E0C00000013000000E20400003C00000006000000020000000000008066E63140000000E0FFFF17C000000020BE18C73E00000000000030400000008027A81F
310
C000000040421CC73E0C00000013000000EA0400003C000000060000000200000000000000000030400000008027A81FC000000040421CC73E0000000000003040000000C0FFFF17C000000000B142C53E0C00000013000000F20400003C00000006000000020000000000008066E63140000000E0FFFF17C000000020BE18
310
C73E0000000000003040000000C0FFFF17C000000000B142C53E0C00000013000000FA0400003C00000006000000020000000000000000003240000000A00B0B2EC00000000060E9CF3E00000000000032400000008027A81FC0000000800C0BC93E0C00000013000000020500003C00000006000000020000000000002000
310
0034400000008099D933C0000000E05841D33E00000000000032400000008027A81FC0000000800C0BC93E0C000000130000000A0500003C00000006000000020000000000008066E63140000000E0FFFF17C000000020BE18C73E0000008066E63140000000C0323301C0000000604560C33E0C0000001300000012050000
310
3C000000060000000200000000000000000032400000008027A81FC0000000800C0BC93E0000008066E63140000000C0323301C0000000604560C33E0C000000130000001A0500003C00000006000000020000000000008066E63140000000C0323301C0000000604560C33E0000000000003440000000A0323301C0000000
310
E0CC67C53E0C00000013000000220500003C000000060000000200000000000000000032400000008027A81FC0000000800C0BC93E0000000000003440000000A0323301C0000000E0CC67C53E0C000000130000002A0500003C000000060000000200000000000020000034400000008099D933C0000000E05841D33E0000
310
000000003440000000A0323301C0000000E0CC67C53E0C00000013000000320500003C000000060000000200000000000060C6341A40000000A065B803400000000000408F40000000C0E4341A400000004029B80340000000C04B989F3E0C000000130000003A0500003C0000000600000002000000000000A088D6184000
310
0000A0B8D909400000000000408F40000000C0E4341A400000004029B80340000000C04B989F3E0C00000013000000420500003C0000000600000002000000000000A088D61840000000A0B8D909400000000000408F40000000E0A6D61840000000407CD9094000000080C806973E0C000000130000004A0500003C000000
310
0600000002000000000000009B321B40000000800E9DFA3F0000000000408F4000000040B9321B40000000A0959CFA3F00000060C9DAA33E0C00000013000000520500003C000000060000000200000000000060C6341A40000000A065B803400000000000408F4000000040B9321B40000000A0959CFA3F00000060C9DAA3
310
3E0C000000130000005A0500003C0000000600000002000000000000A060CC1B40000000C0D5CEEA3F0000000000408F40000000E07ECC1B4000000020E4CDEA3F0000000062A0A73E0C00000013000000620500003C0000000600000002000000000000009B321B40000000800E9DFA3F0000000000408F40000000E07ECC
310
1B4000000020E4CDEA3F0000000062A0A73E0C000000130000006A0500003C0000000600000002000000000000C0E1FF1B40000000601B4F1E3F0000000000408F400000000000001C400000002081029C3E000000C00F0FAB3E0C00000013000000720500003C0000000600000002000000000000A060CC1B40000000C0D5
310
CEEA3F0000000000408F400000000000001C400000002081029C3E000000C00F0FAB3E0C000000130000007A0500003C0000000600000002000000000000A060CC1B40000000A0F0CCEABF0000000000408F40000000E07ECC1B4000000060E2CDEABF00000080311AAE3E0C00000013000000820500003C00000006000000
310
02000000000000C0E1FF1B40000000601B4F1E3F0000000000408F40000000E07ECC1B4000000060E2CDEABF00000080311AAE3E0C000000130000008A0500003C0000000600000002000000000000009B321B40000000001C9CFABF0000000000408F4000000040B9321B40000000E0949CFABF000000C04A5BB03E0C0000
310
0013000000920500003C0000000600000002000000000000A060CC1B40000000A0F0CCEABF0000000000408F4000000040B9321B40000000E0949CFABF000000C04A5BB03E0C000000130000009A0500003C000000060000000200000000000060C6341A4000000060ECB703C00000000000408F40000000A0E4341A400000
310
00C028B803C000000000506DB13E0C00000013000000A20500003C0000000600000002000000000000009B321B40000000001C9CFABF0000000000408F40000000A0E4341A40000000C028B803C000000000506DB13E0C00000013000000AA0500003C0000000600000002000000000000A088D61840000000603FD909C000
310
00000000408F40000000E0A6D61840000000C07BD909C0000000E0383FB23E0C00000013000000B20500003C000000060000000200000000000060C6341A4000000060ECB703C00000000000408F40000000E0A6D61840000000C07BD909C0000000E0383FB23E0C00000013000000BA0500003C0000000600000002000000
310
00000080F8FF314000000080FC0A2EC00000002000408F400000000000003240000000A00B0B2EC00000000060E9CF3E0C00000013000000C20500003C0000000600000002000000000000A088D61840000000603FD909C00000000000408F400000000000003240000000A00B0B2EC00000000060E9CF3E0C000000130000
310
00CA0500003C000000060000000200000000000080F8FF31400000004009A81FC00000000000408F4000000000000032400000008027A81FC0000000800C0BC93E0C00000013000000D20500003C000000060000000200000000000080F8FF314000000080FC0A2EC00000002000408F4000000000000032400000008027A8
310
1FC0000000800C0BC93E0C00000013000000DA0500003C0000000600000002000000000000E0F0FF2F400000002009A81FC00000000000408F4000000000000030400000008027A81FC000000040421CC73E0C00000013000000E20500003C000000060000000200000000000080F8FF31400000004009A81FC00000000000
310
408F4000000000000030400000008027A81FC000000040421CC73E0C00000013000000EA0500003C0000000600000002000000000000E0F0FF2F4000000080E1FF17C00000000000408F400000000000003040000000C0FFFF17C000000000B142C53E0C00000013000000F20500003C0000000600000002000000000000E0
310
F0FF2F400000002009A81FC00000000000408F400000000000003040000000C0FFFF17C000000000B142C53E0C00000013000000FA0500003C0000000600000002000000000000005FE63140000000A0E1FF17C00000002000408F400000008066E63140000000E0FFFF17C000000020BE18C73E0C00000013000000020600
310
003C0000000600000002000000000000E0F0FF2F4000000080E1FF17C00000000000408F400000008066E63140000000E0FFFF17C000000020BE18C73E0C000000130000000A0600003C0000000600000002000000000000E05EE6314000000040F63201C00000000000408F400000008066E63140000000C0323301C00000
310
00604560C33E0C00000013000000120600003C0000000600000002000000000000005FE63140000000A0E1FF17C00000002000408F400000008066E63140000000C0323301C0000000604560C33E0C000000130000001A0600003C000000060000000200000000000080F8FF334000000020F63201C00000000000408F4000
310
00000000003440000000A0323301C0000000E0CC67C53E0C00000013000000220600003C0000000600000002000000000000E05EE6314000000040F63201C00000000000408F400000000000003440000000A0323301C0000000E0CC67C53E0C000000130000002A0600003C0000000600000002000000000000A0F8FF3340
310
0000000092D933C00000002000408F4000000020000034400000008099D933C0000000E05841D33E0C00000013000000320600003C000000060000000200000000000080F8FF334000000020F63201C00000000000408F4000000020000034400000008099D933C0000000E05841D33E0C000000130000003A0600003C0000
310
00060000000200000000000000F7320940000000A0C3FF07C00000002000408F400000006033330940000000E0FFFF07C000000060EBC5A73E0C00000013000000420600003C0000000600000002000000000000A0F8FF33400000000092D933C00000002000408F400000006033330940000000E0FFFF07C000000060EBC5
310
A73E0C000000130000004A0600003C0000000600000002000000000000E0C7CD104000000020D00DF2BF0000000000408F4000000020E6CD104000000000490EF2BF00000040079AA43E0C00000013000000520600003C000000060000000200000000000000F7320940000000A0C3FF07C00000002000408F4000000020E6
310
CD104000000000490EF2BF00000040079AA43E0C000000130000005A0600003C0000000600000002000000000000C0A3EA1040000000C05949F03F0000002000408F40000000E0C1EA1040000000E0E048F03F000000C0FFD3983E0C00000013000000620600003C0000000600000002000000000000E0C7CD104000000020
310
D00DF2BF0000000000408F40000000E0C1EA1040000000E0E048F03F000000C0FFD3983E0C000000130000006A0600003C0000000600000002000000000000800FD2094000000040BB5407400000000000408F40000000004CD20940000000E07E54074000000000E542633E0C00000013000000720600003C000000060000
310
0002000000000000C0A3EA1040000000C05949F03F0000002000408F40000000004CD20940000000E07E54074000000000E542633E0C000000130000007A0600003C000000060000000200000000000060B10AF73F000000C04A6B10400000002000408F40000000202A0BF73F000000802C6B104000000080599994BE0C00
310
000013000000820600003C0000000600000002000000000000800FD2094000000040BB5407400000000000408F40000000202A0BF73F000000802C6B104000000080599994BE0C000000130000008A0600003C0000000600000002000000000000402B56E6BF000000E0D02C11400000000000408F40000000C03955E6BF00
310
0000A0B22C1140000000408B4BA3BE0C00000013000000920600003C000000060000000200000000000060B10AF73F000000C04A6B10400000002000408F40000000C03955E6BF000000A0B22C1140000000408B4BA3BE0C000000130000009A0600003C0000000600000002000000000000206B5405C000000080A27F0B40
310
0000002000408F40000000C02E5405C0000000E0657F0B4000000080B797A7BE0C00000013000000A20600003C0000000600000002000000000000402B56E6BF000000E0D02C11400000000000408F40000000C02E5405C0000000E0657F0B4000000080B797A7BE0C00000013000000AA0600003C00000006000000020000
310
00000000C0D4E10FC00000008052E7FB3F0000002000408F400000004098E10FC0000000A0D9E6FB3F000000C05125A6BE0C00000013000000B20600003C0000000600000002000000000000206B5405C000000080A27F0B400000002000408F400000004098E10FC0000000A0D9E6FB3F000000C05125A6BE0C0000001300
310
0000BA0600003C000000060000000200000000000040045611C00000008028EFD7BF0000000000408F4000000000E65511C0000000C00BF1D7BF00000060139D9EBE0C00000013000000C20600003C0000000600000002000000000000C0D4E10FC00000008052E7FB3F0000002000408F4000000000E65511C0000000C00B
310
F1D7BF00000060139D9EBE0C00000013000000CA0600003C000000060000000200000000000020EE101AC0000000C0B87304C00000000000408F40000000E0CF101AC000000040F57304C0000000E0129D9EBE0C00000013000000D20600003C000000060000000200000000000040045611C00000008028EFD7BF00000000
310
00408F40000000E0CF101AC000000040F57304C0000000E0129D9EBE0C00000013000000DA0600003C000000060000000200000000000040BCFC1BC0000000805583CBBF0000002000408F40000000009EFC1BC0000000E01B87CBBF00000020F936AABE0C00000013000000E20600003C0000000600000002000000000000
310
20EE101AC0000000C0B87304C00000000000408F40000000009EFC1BC0000000E01B87CBBF00000020F936AABE0C00000013000000EA0600003C0000000600000002000000000000001FA51AC0000000C0A93601400000002000408F40000000C000A51AC0000000406D360140000000607108B1BE0C00000013000000F206
310
00003C000000060000000200000000000040BCFC1BC0000000805583CBBF0000002000408F40000000C000A51AC0000000406D360140000000607108B1BE0C00000013000000FA0600003C0000000600000002000000000000C0273216C000000040DD1111400000000000408F4000000080093216C000000000BF11114000
310
000000F5F8B2BE0C00000013000000020700003C0000000600000002000000000000001FA51AC0000000C0A93601400000002000408F4000000080093216C000000000BF11114000000000F5F8B2BE0C000000130000000A0700003C0000000600000002000000000000C049510EC0000000E0DE8A17400000002000408F40
310
000000400D510EC0000000C0C08A17400000002022B3B2BE0C00000013000000120700003C0000000600000002000000000000C0273216C000000040DD1111400000000000408F40000000400D510EC0000000C0C08A17400000002022B3B2BE0C000000130000001A0700003C0000000600000002000000000000809A6AF9
310
BF000000E022451B400000002000408F40000000A0216AF9BF000000E004451B40000000201D3FB0BE0C00000013000000220700003C0000000600000002000000000000C049510EC0000000E0DE8A17400000002000408F40000000A0216AF9BF000000E004451B40000000201D3FB0BE0C000000130000002A0700003C00
310
00000600000002000000000000E00288E93F0000008064D11B400000000000408F4000000080F488E93F0000004046D11B400000006041CCA7BE0C00000013000000320700003C0000000600000002000000000000809A6AF9BF000000E022451B400000002000408F4000000080F488E93F0000004046D11B400000006041
310
CCA7BE0C000000130000003A0700003C000000060000000200000000000020C0BA084000000080481F19400000002000408F4000000080FCBA0840000000402A1F194000000020CFA798BE0C00000013000000420700003C0000000600000002000000000000E00288E93F0000008064D11B400000000000408F4000000080
310
FCBA0840000000402A1F194000000020CFA798BE0C000000130000004A0700003C000000060000000200000000000020A418144000000020477F13400000000000408F4000000040C218144000000020297F134000000000E88D523E0C00000013000000520700003C000000060000000200000000000020C0BA0840000000
310
80481F19400000002000408F4000000040C218144000000020297F134000000000E88D523E0C000000130000005A0700003C000000060000000200000000000060F8FF334000000040A1D933400000000000408F40000000E0FFFF3340000000C099D9334000000000C08D523E0C00000013000000620700003C0000000600
310
00000200000000000020A418144000000020477F13400000000000408F40000000E0FFFF3340000000C099D9334000000000C08D523E0C000000130000006A0700003C000000060000000200000000000080F8FF334000000040703301400000000000408F400000000000003440000000E033330140000000600040C13E0C
310
00000013000000720700003C000000060000000200000000000060F8FF334000000040A1D933400000000000408F400000000000003440000000E033330140000000600040C13E0C000000130000007A0700003C0000000600000002000000000000005FE6314000000040703301400000000000408F400000008066E63140
310
000000C033330140000000A0F170BE3E0C00000013000000820700003C000000060000000200000000000080F8FF334000000040703301400000000000408F400000008066E63140000000C033330140000000A0F170BE3E0C000000130000008A0700003C0000000600000002000000000000005FE63140000000A01E0018
310
400000002000408F400000008066E631400000004000001840000000600000B73E0C00000013000000920700003C0000000600000002000000000000005FE6314000000040703301400000000000408F400000008066E631400000004000001840000000600000B73E0C000000130000009A0700003C000000060000000200
310
0000000000A0EE153040000000801E0018400000000000408F4000000020F61530400000004000001840000000A0587EB33E0C00000013000000A20700003C0000000600000002000000000000005FE63140000000A01E0018400000002000408F4000000020F61530400000004000001840000000A0587EB33E0C00000013
310
000000AA0700003C0000000600000002000000000000A0EE1530400000004046A81F400000000000408F4000000020F6153040000000E027A81F40000000806C96AF3E0C00000013000000B20700003C0000000600000002000000000000A0EE153040000000801E0018400000000000408F4000000020F6153040000000E0
310
27A81F40000000806C96AF3E0C00000013000000BA0700003C000000060000000200000000000080F8FF31400000004046A81F400000000000408F4000000000000032400000002028A81F4000000060587EB33E0C00000013000000C20700003C0000000600000002000000000000A0EE1530400000004046A81F40000000
310
0000408F4000000000000032400000002028A81F4000000060587EB33E0C00000013000000CA0700003C000000060000000200000000000080F8FF3140000000001B0B2E400000000000408F400000000000003240000000E00B0B2E4000000080C506973E0C00000013000000D20700003C00000006000000020000000000
310
0080F8FF31400000004046A81F400000000000408F400000000000003240000000E00B0B2E4000000080C506973E0C00000013000000DA0700003C000000060000000200000000000080F8FF3140000000001B0B2E400000000000408F40000000E0A6D61840000000407CD9094000000080C806973E
100
AcDbSubDMesh
 71
     2
 72
     0
 91
        0
 92
       86
 10
6.799419403076171
 20
1.663343906402587
 30
1000.0
 10
6.551537990570068
 20
2.465037584304809
 30
1000.0
 10
6.209505558013916
 20
3.231309175491333
 30
1000.0
 10
6.949587345123291
 20
0.8377484083175659
 30
1000.0
 10
6.999884605407714
 20
0.0001156197031378
 30
1000.0
 10
6.949587345123291
 20
-0.8375170826911926
 30
1000.0
 10
4.200957775115966
 20
-1.128372311592102
 30
1000.0
 10
5.02406358718872
 20
4.874294757843017
 30
1000.0
 10
17.99988555908203
 20
15.02169036865234
 30
1000.0
 10
19.9998836517334
 20
19.85011672973633
 30
1000.0
 10
17.89988708496094
 20
-5.999884128570556
 30
1000.000061035156
 10
19.99988555908203
 20
-2.14988350868225
 30
1000.0
 10
17.8998851776123
 20
-2.14988374710083
 30
1000.0
 10
17.99988555908203
 20
-7.914097785949707
 30
1000.0
 10
17.99988555908203
 20
-15.02145767211914
 30
1000.000061035156
 10
19.99988746643066
 20
-19.84988403320312
 30
1000.000061035156
 10
6.209505558013916
 20
-3.231077909469604
 30
1000.0
 10
3.149885177612304
 20
-2.999884843826293
 30
1000.000061035156
 10
6.551537990570068
 20
-2.464806318283081
 30
1000.0
 10
6.799419403076171
 20
-1.663112640380859
 30
1000.0
 10
15.99988460540771
 20
-5.999883651733398
 30
1000.0
 10
15.99988460540771
 20
-7.914097309112548
 30
1000.0
 10
-6.516533374786376
 20
-2.556504726409912
 30
1000.0
 10
-4.334000587463378
 20
-0.3739720582962036
 30
1000.0
 10
-3.98526906967163
 20
1.743975162506103
 30
1000.000061035156
 10
-6.996811866760253
 20
-0.2149454951286316
 30
1000.000061035156
 10
-2.66621994972229
 20
3.437321662902832
 30
1000.000061035156
 10
-6.661251068115234
 20
2.151690959930419
 30
1000.000061035156
 10
-0.6980186700820923
 20
4.293765544891357
 30
1000.0
 10
-5.548979759216308
 20
4.267445564270019
 30
1000.0
 10
-3.789691448211669
 20
5.885615825653076
 30
1000.000061035156
 10
1.440110564231872
 20
4.104777336120605
 30
1000.000061035156
 10
-1.588526248931884
 20
6.817515850067138
 30
1000.000061035156
 10
3.227568626403808
 20
2.916372776031494
 30
1000.0
 10
0.7978529334068299
 20
6.954484939575195
 30
1000.0
 10
3.091186761856079
 20
6.280550003051757
 30
1000.000061035156
 10
4.229140281677246
 20
1.017907857894897
 30
1000.000061035156
 10
17.89988708496094
 20
6.000116825103759
 30
1000.000061035156
 10
17.99988555908203
 20
7.91433048248291
 30
1000.0
 10
16.08567237854004
 20
7.91433048248291
 30
1000.0
 10
16.08567237854004
 20
6.000116348266601
 30
1000.0
 10
17.89988708496094
 20
2.150116443634033
 30
1000.0
 10
19.99988555908203
 20
2.150116443634033
 30
1000.0
 10
18.0
 20
7.914215564727783
 30
0.0000011619052884
 10
17.9000015258789
 20
6.000000953674316
 30
0.0000013709071709
 10
16.085786819458
 20
6.000000953674316
 30
0.0000011619055158
 10
16.085786819458
 20
7.914214611053466
 30
0.0000009413836324
 10
17.9000015258789
 20
2.150001049041748
 30
0.000001814436132
 10
20.0
 20
2.150001287460327
 30
0.0000020563609269
 10
18.0
 20
15.02157497406006
 30
0.0000003431208597
 10
19.99999809265137
 20
19.85000228881836
 30
0.0000000172794898
 10
3.227684020996093
 20
2.916257619857788
 30
0.0000000358769796
 10
1.440225720405578
 20
4.10466194152832
 30
-0.0000003069493459
 10
5.024178504943847
 20
4.874180316925048
 30
0.0000000172800583
 10
6.209620952606201
 20
3.231194019317626
 30
0.0000003431215418
 10
-0.6979035139083863
 20
4.293650150299072
 30
-0.0000005750385981
 10
-1.588410973548889
 20
6.817401409149169
 30
-0.000000968369136
 10
3.091301918029785
 20
6.280434608459472
 30
-0.0000003673956428
 10
0.7979681491851807
 20
6.95436954498291
 30
-0.0000007092318697
 10
-2.666104793548583
 20
3.437206029891967
 30
-0.0000007031155747
 10
-3.985153675079345
 20
1.743859887123107
 30
-0.000000659995635
 10
-3.789576053619384
 20
5.885500907897949
 30
-0.0000011145913277
 10
-4.333885192871093
 20
-0.3740872740745544
 30
-0.0000004561778439
 10
-6.516417980194091
 20
-2.556620121002197
 30
-0.0000004561777303
 10
-6.996696472167968
 20
-0.2150606960058212
 30
-0.0000007812600984
 10
-6.661135673522949
 20
2.151575565338134
 30
-0.0000010152447203
 10
-5.548864364624023
 20
4.267330169677734
 30
-0.0000011308484318
 10
6.799534797668457
 20
-1.663227915763854
 30
0.0000009749298897
 10
6.551653385162353
 20
-2.464921474456787
 30
0.0000010387302609
 10
6.209620952606201
 20
-3.23119306564331
 30
0.000001087603664
 10
6.949702739715576
 20
-0.8376323580741882
 30
0.00000089711898
 10
4.201073169708251
 20
-1.128487586975097
 30
0.0000006139777042
 10
3.15000033378601
 20
-2.99999976158142
 30
0.0000007084942695
 10
18.0
 20
-15.02157306671142
 30
0.000003804161679
 10
20.00000190734863
 20
-19.84999847412109
 30
0.0000045908122956
 10
4.229255199432373
 20
1.017792582511901
 30
0.0000003699678359
 10
6.551653861999511
 20
2.464922428131103
 30
0.000000470800785
 10
6.799534797668457
 20
1.663228631019592
 30
0.0000005917142403
 10
7.0
 20
0.0000004173782884
 30
0.0000008064160966
 10
6.949702739715576
 20
0.837633192539215
 30
0.0000007041244316
 10
17.9000015258789
 20
-5.999999523162841
 30
0.0000027533353659
 10
18.0
 20
-7.914213180541992
 30
0.0000029853772503
 10
16.0
 20
-7.914213180541992
 30
0.0000027549726838
 10
16.0
 20
-5.999999046325683
 30
0.0000025344506867
 10
17.9000015258789
 20
-2.149999141693115
 30
0.0000023098061774
 10
20.0
 20
-2.149998903274536
 30
0.0000025517308586
 93
      672
 90
        3
 90
        0
 90
        1
 90
        2
 90
        3
 90
        3
 90
        0
 90
        2
 90
        3
 90
        4
 90
        3
 90
        2
 90
        3
 90
        5
 90
        4
 90
        2
 90
        3
 90
        6
 90
        5
 90
        2
 90
        3
 90
        7
 90
        6
 90
        2
 90
        3
 90
        2
 90
        8
 90
        9
 90
        3
 90
        2
 90
        9
 90
        7
 90
        3
 90
       10
 90
       11
 90
       12
 90
        3
 90
       11
 90
       10
 90
       13
 90
        3
 90
       11
 90
       13
 90
       14
 90
        3
 90
       15
 90
       11
 90
       14
 90
        3
 90
       15
 90
       14
 90
       16
 90
        3
 90
       17
 90
       15
 90
       16
 90
        3
 90
       16
 90
       18
 90
       19
 90
        3
 90
       16
 90
       19
 90
        5
 90
        3
 90
       17
 90
       16
 90
        5
 90
        3
 90
       17
 90
        5
 90
        6
 90
        3
 90
       13
 90
       10
 90
       20
 90
        3
 90
       13
 90
       20
 90
       21
 90
        3
 90
       22
 90
       23
 90
       24
 90
        3
 90
       25
 90
       22
 90
       24
 90
        3
 90
       25
 90
       24
 90
       26
 90
        3
 90
       27
 90
       25
 90
       26
 90
        3
 90
       27
 90
       26
 90
       28
 90
        3
 90
       29
 90
       27
 90
       28
 90
        3
 90
       30
 90
       29
 90
       28
 90
        3
 90
       30
 90
       28
 90
       31
 90
        3
 90
       32
 90
       30
 90
       31
 90
        3
 90
       32
 90
       31
 90
       33
 90
        3
 90
       34
 90
       32
 90
       33
 90
        3
 90
       35
 90
       34
 90
       33
 90
        3
 90
       35
 90
       33
 90
       36
 90
        3
 90
        7
 90
       35
 90
       36
 90
        3
 90
       36
 90
        6
 90
        7
 90
        3
 90
       37
 90
       38
 90
       39
 90
        3
 90
       37
 90
       39
 90
       40
 90
        3
 90
        9
 90
        8
 90
       38
 90
        3
 90
       38
 90
       37
 90
       41
 90
        3
 90
       38
 90
       41
 90
       42
 90
        3
 90
        9
 90
       38
 90
       42
 90
        3
 90
       43
 90
       44
 90
       45
 90
        3
 90
       43
 90
       45
 90
       46
 90
        3
 90
       47
 90
       44
 90
       43
 90
        3
 90
       48
 90
       47
 90
       43
 90
        3
 90
       43
 90
       49
 90
       50
 90
        3
 90
       43
 90
       50
 90
       48
 90
        3
 90
       51
 90
       52
 90
       53
 90
        3
 90
       53
 90
       50
 90
       49
 90
        3
 90
       53
 90
       49
 90
       54
 90
        3
 90
       51
 90
       53
 90
       54
 90
        3
 90
       53
 90
       52
 90
       55
 90
        3
 90
       53
 90
       55
 90
       56
 90
        3
 90
       57
 90
       53
 90
       56
 90
        3
 90
       57
 90
       56
 90
       58
 90
        3
 90
       56
 90
       55
 90
       59
 90
        3
 90
       56
 90
       59
 90
       60
 90
        3
 90
       61
 90
       56
 90
       60
 90
        3
 90
       60
 90
       62
 90
       63
 90
        3
 90
       60
 90
       63
 90
       64
 90
        3
 90
       61
 90
       60
 90
       64
 90
        3
 90
       61
 90
       64
 90
       65
 90
        3
 90
       66
 90
       61
 90
       65
 90
        3
 90
       67
 90
       68
 90
       69
 90
        3
 90
       70
 90
       67
 90
       69
 90
        3
 90
       71
 90
       70
 90
       69
 90
        3
 90
       72
 90
       71
 90
       69
 90
        3
 90
       69
 90
       73
 90
       74
 90
        3
 90
       69
 90
       74
 90
       72
 90
        3
 90
       70
 90
       71
 90
       75
 90
        3
 90
       75
 90
       51
 90
       54
 90
        3
 90
       75
 90
       54
 90
       76
 90
        3
 90
       70
 90
       75
 90
       76
 90
        3
 90
       70
 90
       76
 90
       77
 90
        3
 90
       78
 90
       70
 90
       77
 90
        3
 90
       78
 90
       77
 90
       79
 90
        3
 90
       80
 90
       81
 90
       82
 90
        3
 90
       80
 90
       82
 90
       83
 90
        3
 90
       74
 90
       73
 90
       81
 90
        3
 90
       81
 90
       80
 90
       84
 90
        3
 90
       81
 90
       84
 90
       85
 90
        3
 90
       74
 90
       81
 90
       85
 90
        3
 90
        2
 90
        1
 90
       76
 90
        3
 90
       76
 90
       54
 90
        2
 90
        3
 90
        1
 90
        0
 90
       77
 90
        3
 90
       77
 90
       76
 90
        1
 90
        3
 90
        0
 90
        3
 90
       79
 90
        3
 90
       79
 90
       77
 90
        0
 90
        3
 90
        3
 90
        4
 90
       78
 90
        3
 90
       78
 90
       79
 90
        3
 90
        3
 90
        4
 90
        5
 90
       70
 90
        3
 90
       70
 90
       78
 90
        4
 90
        3
 90
        5
 90
       19
 90
       67
 90
        3
 90
       67
 90
       70
 90
        5
 90
        3
 90
       19
 90
       18
 90
       68
 90
        3
 90
       68
 90
       67
 90
       19
 90
        3
 90
       18
 90
       16
 90
       69
 90
        3
 90
       69
 90
       68
 90
       18
 90
        3
 90
       16
 90
       14
 90
       73
 90
        3
 90
       73
 90
       69
 90
       16
 90
        3
 90
       14
 90
       13
 90
       81
 90
        3
 90
       81
 90
       73
 90
       14
 90
        3
 90
       13
 90
       21
 90
       82
 90
        3
 90
       82
 90
       81
 90
       13
 90
        3
 90
       21
 90
       20
 90
       83
 90
        3
 90
       83
 90
       82
 90
       21
 90
        3
 90
       20
 90
       10
 90
       80
 90
        3
 90
       80
 90
       83
 90
       20
 90
        3
 90
       10
 90
       12
 90
       84
 90
        3
 90
       84
 90
       80
 90
       10
 90
        3
 90
       12
 90
       11
 90
       85
 90
        3
 90
       85
 90
       84
 90
       12
 90
        3
 90
       11
 90
       15
 90
       74
 90
        3
 90
       74
 90
       85
 90
       11
 90
        3
 90
       15
 90
       17
 90
       72
 90
        3
 90
       72
 90
       74
 90
       15
 90
        3
 90
       17
 90
        6
 90
       71
 90
        3
 90
       71
 90
       72
 90
       17
 90
        3
 90
        6
 90
       36
 90
       75
 90
        3
 90
       75
 90
       71
 90
        6
 90
        3
 90
       36
 90
       33
 90
       51
 90
        3
 90
       51
 90
       75
 90
       36
 90
        3
 90
       33
 90
       31
 90
       52
 90
        3
 90
       52
 90
       51
 90
       33
 90
        3
 90
       31
 90
       28
 90
       55
 90
        3
 90
       55
 90
       52
 90
       31
 90
        3
 90
       28
 90
       26
 90
       59
 90
        3
 90
       59
 90
       55
 90
       28
 90
        3
 90
       26
 90
       24
 90
       60
 90
        3
 90
       60
 90
       59
 90
       26
 90
        3
 90
       24
 90
       23
 90
       62
 90
        3
 90
       62
 90
       60
 90
       24
 90
        3
 90
       23
 90
       22
 90
       63
 90
        3
 90
       63
 90
       62
 90
       23
 90
        3
 90
       22
 90
       25
 90
       64
 90
        3
 90
       64
 90
       63
 90
       22
 90
        3
 90
       25
 90
       27
 90
       65
 90
        3
 90
       65
 90
       64
 90
       25
 90
        3
 90
       27
 90
       29
 90
       66
 90
        3
 90
       66
 90
       65
 90
       27
 90
        3
 90
       29
 90
       30
 90
       61
 90
        3
 90
       61
 90
       66
 90
       29
 90
        3
 90
       30
 90
       32
 90
       56
 90
        3
 90
       56
 90
       61
 90
       30
 90
        3
 90
       32
 90
       34
 90
       58
 90
        3
 90
       58
 90
       56
 90
       32
 90
        3
 90
       34
 90
       35
 90
       57
 90
        3
 90
       57
 90
       58
 90
       34
 90
        3
 90
       35
 90
        7
 90
       53
 90
        3
 90
       53
 90
       57
 90
       35
 90
        3
 90
        7
 90
        9
 90
       50
 90
        3
 90
       50
 90
       53
 90
        7
 90
        3
 90
        9
 90
       42
 90
       48
 90
        3
 90
       48
 90
       50
 90
        9
 90
        3
 90
       42
 90
       41
 90
       47
 90
        3
 90
       47
 90
       48
 90
       42
 90
        3
 90
       41
 90
       37
 90
       44
 90
        3
 90
       44
 90
       47
 90
       41
 90
        3
 90
       37
 90
       40
 90
       45
 90
        3
 90
       45
 90
       44
 90
       37
 90
        3
 90
       40
 90
       39
 90
       46
 90
        3
 90
       46
 90
       45
 90
       40
 90
        3
 90
       39
 90
       38
 90
       43
 90
        3
 90
       43
 90
       46
 90
       39
 90
        3
 90
       38
 90
        8
 90
       49
 90
        3
 90
       49
 90
       43
 90
       38
 90
        3
 90
        8
 90
        2
 90
       54
 90
        3
 90
       54
 90
       49
 90
        8
 94
      252
 90
        0
 90
        1
 90
        1
 90
        2
 90
        0
 90
        2
 90
        0
 90
        3
 90
        2
 90
        3
 90
        3
 90
        4
 90
        2
 90
        4
 90
        4
 90
        5
 90
        2
 90
        5
 90
        5
 90
        6
 90
        2
 90
        6
 90
        6
 90
        7
 90
        2
 90
        7
 90
        2
 90
        8
 90
        8
 90
        9
 90
        2
 90
        9
 90
        7
 90
        9
 90
       10
 90
       11
 90
       11
 90
       12
 90
       10
 90
       12
 90
       10
 90
       13
 90
       11
 90
       13
 90
       13
 90
       14
 90
       11
 90
       14
 90
       11
 90
       15
 90
       14
 90
       15
 90
       14
 90
       16
 90
       15
 90
       16
 90
       15
 90
       17
 90
       16
 90
       17
 90
       16
 90
       18
 90
       18
 90
       19
 90
       16
 90
       19
 90
        5
 90
       19
 90
        5
 90
       16
 90
        5
 90
       17
 90
        6
 90
       17
 90
       10
 90
       20
 90
       13
 90
       20
 90
       20
 90
       21
 90
       13
 90
       21
 90
       22
 90
       23
 90
       23
 90
       24
 90
       22
 90
       24
 90
       22
 90
       25
 90
       24
 90
       25
 90
       24
 90
       26
 90
       25
 90
       26
 90
       25
 90
       27
 90
       26
 90
       27
 90
       26
 90
       28
 90
       27
 90
       28
 90
       27
 90
       29
 90
       28
 90
       29
 90
       29
 90
       30
 90
       28
 90
       30
 90
       28
 90
       31
 90
       30
 90
       31
 90
       30
 90
       32
 90
       31
 90
       32
 90
       31
 90
       33
 90
       32
 90
       33
 90
       32
 90
       34
 90
       33
 90
       34
 90
       34
 90
       35
 90
       33
 90
       35
 90
       33
 90
       36
 90
       35
 90
       36
 90
        7
 90
       35
 90
        7
 90
       36
 90
        6
 90
       36
 90
       37
 90
       38
 90
       38
 90
       39
 90
       37
 90
       39
 90
       39
 90
       40
 90
       37
 90
       40
 90
        8
 90
       38
 90
        9
 90
       38
 90
       37
 90
       41
 90
       38
 90
       41
 90
       41
 90
       42
 90
       38
 90
       42
 90
        9
 90
       42
 90
       43
 90
       44
 90
       44
 90
       45
 90
       43
 90
       45
 90
       45
 90
       46
 90
       43
 90
       46
 90
       44
 90
       47
 90
       43
 90
       47
 90
       47
 90
       48
 90
       43
 90
       48
 90
       43
 90
       49
 90
       49
 90
       50
 90
       43
 90
       50
 90
       48
 90
       50
 90
       51
 90
       52
 90
       52
 90
       53
 90
       51
 90
       53
 90
       50
 90
       53
 90
       49
 90
       53
 90
       49
 90
       54
 90
       53
 90
       54
 90
       51
 90
       54
 90
       52
 90
       55
 90
       53
 90
       55
 90
       55
 90
       56
 90
       53
 90
       56
 90
       53
 90
       57
 90
       56
 90
       57
 90
       56
 90
       58
 90
       57
 90
       58
 90
       55
 90
       59
 90
       56
 90
       59
 90
       59
 90
       60
 90
       56
 90
       60
 90
       56
 90
       61
 90
       60
 90
       61
 90
       60
 90
       62
 90
       62
 90
       63
 90
       60
 90
       63
 90
       63
 90
       64
 90
       60
 90
       64
 90
       61
 90
       64
 90
       64
 90
       65
 90
       61
 90
       65
 90
       61
 90
       66
 90
       65
 90
       66
 90
       67
 90
       68
 90
       68
 90
       69
 90
       67
 90
       69
 90
       67
 90
       70
 90
       69
 90
       70
 90
       70
 90
       71
 90
       69
 90
       71
 90
       71
 90
       72
 90
       69
 90
       72
 90
       69
 90
       73
 90
       73
 90
       74
 90
       69
 90
       74
 90
       72
 90
       74
 90
       71
 90
       75
 90
       70
 90
       75
 90
       51
 90
       75
 90
       54
 90
       75
 90
       54
 90
       76
 90
       75
 90
       76
 90
       70
 90
       76
 90
       76
 90
       77
 90
       70
 90
       77
 90
       70
 90
       78
 90
       77
 90
       78
 90
       77
 90
       79
 90
       78
 90
       79
 90
       80
 90
       81
 90
       81
 90
       82
 90
       80
 90
       82
 90
       82
 90
       83
 90
       80
 90
       83
 90
       73
 90
       81
 90
       74
 90
       81
 90
       80
 90
       84
 90
       81
 90
       84
 90
       84
 90
       85
 90
       81
 90
       85
 90
       74
 90
       85
 90
        1
 90
       76
 90
        2
 90
       76
 90
        2
 90
       54
 90
        0
 90
       77
 90
        1
 90
       77
 90
        3
 90
       79
 90
        0
 90
       79
 90
        4
 90
       78
 90
        3
 90
       78
 90
        5
 90
       70
 90
        4
 90
       70
 90
       19
 90
       67
 90
        5
 90
       67
 90
       18
 90
       68
 90
       19
 90
       68
 90
       16
 90
       69
 90
       18
 90
       69
 90
       14
 90
       73
 90
       16
 90
       73
 90
       13
 90
       81
 90
       14
 90
       81
 90
       21
 90
       82
 90
       13
 90
       82
 90
       20
 90
       83
 90
       21
 90
       83
 90
       10
 90
       80
 90
       20
 90
       80
 90
       12
 90
       84
 90
       10
 90
       84
 90
       11
 90
       85
 90
       12
 90
       85
 90
       15
 90
       74
 90
       11
 90
       74
 90
       17
 90
       72
 90
       15
 90
       72
 90
        6
 90
       71
 90
       17
 90
       71
 90
       36
 90
       75
 90
        6
 90
       75
 90
       33
 90
       51
 90
       36
 90
       51
 90
       31
 90
       52
 90
       33
 90
       52
 90
       28
 90
       55
 90
       31
 90
       55
 90
       26
 90
       59
 90
       28
 90
       59
 90
       24
 90
       60
 90
       26
 90
       60
 90
       23
 90
       62
 90
       24
 90
       62
 90
       22
 90
       63
 90
       23
 90
       63
 90
       25
 90
       64
 90
       22
 90
       64
 90
       27
 90
       65
 90
       25
 90
       65
 90
       29
 90
       66
 90
       27
 90
       66
 90
       30
 90
       61
 90
       29
 90
       61
 90
       32
 90
       56
 90
       30
 90
       56
 90
       34
 90
       58
 90
       32
 90
       58
 90
       35
 90
       57
 90
       34
 90
       57
 90
        7
 90
       53
 90
       35
 90
       53
 90
        9
 90
       50
 90
        7
 90
       50
 90
       42
 90
       48
 90
        9
 90
       48
 90
       41
 90
       47
 90
       42
 90
       47
 90
       37
 90
       44
 90
       41
 90
       44
 90
       40
 90
       45
 90
       37
 90
       45
 90
       39
 90
       46
 90
       40
 90
       46
 90
       38
 90
       43
 90
       39
 90
       43
 90
        8
 90
       49
 90
       38
 90
       49
 90
        8
 90
       54
 95
      252
140
0.0
140
0.0
140
0.0
140
0.0
140
0.0
140
0.0
140
0.0
140
0.0
140
0.0
140
0.0
140
0.0
140
0.0
140
0.0
140
0.0
140
0.0
140
0.0
140
0.0
140
0.0
140
0.0
140
0.0
140
0.0
140
0.0
140
0.0
140
0.0
140
0.0
140
0.0
140
0.0
140
0.0
140
0.0
140
0.0
140
0.0
140
0.0
140
0.0
140
0.0
140
0.0
140
0.0
140
0.0
140
0.0
140
0.0
140
0.0
140
0.0
140
0.0
140
0.0
140
0.0
140
0.0
140
0.0
140
0.0
140
0.0
140
0.0
140
0.0
140
0.0
140
0.0
140
0.0
140
0.0
140
0.0
140
0.0
140
0.0
140
0.0
140
0.0
140
0.0
140
0.0
140
0.0
140
0.0
140
0.0
140
0.0
140
0.0
140
0.0
140
0.0
140
0.0
140
0.0
140
0.0
140
0.0
140
0.0
140
0.0
140
0.0
140
0.0
140
0.0
140
0.0
140
0.0
140
0.0
140
0.0
140
0.0
140
0.0
140
0.0
140
0.0
140
0.0
140
0.0
140
0.0
140
0.0
140
0.0
140
0.0
140
0.0
140
0.0
140
0.0
140
0.0
140
0.0
140
0.0
140
0.0
140
0.0
140
0.0
140
0.0
140
0.0
140
0.0
140
0.0
140
0.0
140
0.0
140
0.0
140
0.0
140
0.0
140
0.0
140
0.0
140
0.0
140
0.0
140
0.0
140
0.0
140
0.0
140
0.0
140
0.0
140
0.0
140
0.0
140
0.0
140
0.0
140
0.0
140
0.0
140
0.0
140
0.0
140
0.0
140
0.0
140
0.0
140
0.0
140
0.0
140
0.0
140
0.0
140
0.0
140
0.0
140
0.0
140
0.0
140
0.0
140
0.0
140
0.0
140
0.0
140
0.0
140
0.0
140
0.0
140
0.0
140
0.0
140
0.0
140
0.0
140
0.0
140
0.0
140
0.0
140
0.0
140
0.0
140
0.0
140
0.0
140
0.0
140
0.0
140
0.0
140
0.0
140
0.0
140
0.0
140
0.0
140
0.0
140
0.0
140
0.0
140
0.0
140
0.0
140
0.0
140
0.0
140
0.0
140
0.0
140
0.0
140
0.0
140
0.0
140
0.0
140
0.0
140
0.0
140
0.0
140
0.0
140
0.0
140
0.0
140
0.0
140
0.0
140
0.0
140
0.0
140
0.0
140
0.0
140
0.0
140
0.0
140
0.0
140
0.0
140
0.0
140
0.0
140
0.0
140
0.0
140
0.0
140
0.0
140
0.0
140
0.0
140
0.0
140
0.0
140
0.0
140
0.0
140
0.0
140
0.0
140
0.0
140
0.0
140
0.0
140
0.0
140
0.0
140
0.0
140
0.0
140
0.0
140
0.0
140
0.0
140
0.0
140
0.0
140
0.0
140
0.0
140
0.0
140
0.0
140
0.0
140
0.0
140
0.0
140
0.0
140
0.0
140
0.0
140
0.0
140
0.0
140
0.0
140
0.0
140
0.0
140
0.0
140
0.0
140
0.0
140
0.0
140
0.0
140
0.0
140
0.0
140
0.0
140
0.0
140
0.0
140
0.0
140
0.0
140
0.0
140
0.0
140
0.0
140
0.0
140
0.0
140
0.0
140
0.0
140
0.0
 90
        0
  0
POLYLINE
  5
FC
330
1F
100
AcDbEntity
  8
Insert Point
100
AcDb2dPolyline
 66
     1
 10
0.0
 20
0.0
 30
0.0
 70
     1
  0
VERTEX
  5
FD
330
FC
100
AcDbEntity
  8
Insert Point
100
AcDbVertex
100
AcDb2dVertex
 10
60.0
 20
0.0
 30
0.0
  0
VERTEX
  5
FE
330
FC
100
AcDbEntity
  8
Insert Point
100
AcDbVertex
100
AcDb2dVertex
 10
59.92184066772461
 20
3.084959983825683
 30
0.0
  0
VERTEX
  5
FF
330
FC
100
AcDbEntity
  8
Insert Point
100
AcDbVertex
100
AcDb2dVertex
 10
59.68989562988281
 20
6.129721641540527
 30
0.0
  0
VERTEX
  5
100
330
FC
100
AcDbEntity
  8
Insert Point
100
AcDbVertex
100
AcDb2dVertex
 10
59.30794906616211
 20
9.130498886108398
 30
0.0
  0
VERTEX
  5
101
330
FC
100
AcDbEntity
  8
Insert Point
100
AcDbVertex
100
AcDb2dVertex
 10
58.77978515625
 20
12.08350372314453
 30
0.0
  0
VERTEX
  5
102
330
FC
100
AcDbEntity
  8
Insert Point
100
AcDbVertex
100
AcDb2dVertex
 10
58.10919189453125
 20
14.98495101928711
 30
0.0
  0
VERTEX
  5
103
330
FC
100
AcDbEntity
  8
Insert Point
100
AcDbVertex
100
AcDb2dVertex
 10
57.29995346069336
 20
17.83105659484863
 30
0.0
  0
VERTEX
  5
104
330
FC
100
AcDbEntity
  8
Insert Point
100
AcDbVertex
100
AcDb2dVertex
 10
56.35585784912109
 20
20.61802864074707
 30
0.0
  0
VERTEX
  5
105
330
FC
100
AcDbEntity
  8
Insert Point
100
AcDbVertex
100
AcDb2dVertex
 10
55.28069686889648
 20
23.34208679199219
 30
0.0
  0
VERTEX
  5
106
330
FC
100
AcDbEntity
  8
Insert Point
100
AcDbVertex
100
AcDb2dVertex
 10
54.07824325561524
 20
25.99944305419922
 30
0.0
  0
VERTEX
  5
107
330
FC
100
AcDbEntity
  8
Insert Point
100
AcDbVertex
100
AcDb2dVertex
 10
52.7522964477539
 20
28.58630752563477
 30
0.0
  0
VERTEX
  5
108
330
FC
100
AcDbEntity
  8
Insert Point
100
AcDbVertex
100
AcDb2dVertex
 10
51.30663681030274
 20
31.09889793395996
 30
0.0
  0
VERTEX
  5
109
330
FC
100
AcDbEntity
  8
Insert Point
100
AcDbVertex
100
AcDb2dVertex
 10
49.74505615234375
 20
33.53342437744141
 30
0.0
  0
VERTEX
  5
10A
330
FC
100
AcDbEntity
  8
Insert Point
100
AcDbVertex
100
AcDb2dVertex
 10
48.07133102416992
 20
35.88610458374024
 30
0.0
  0
VERTEX
  5
10B
330
FC
100
AcDbEntity
  8
Insert Point
100
AcDbVertex
100
AcDb2dVertex
 10
46.28925323486328
 20
38.15314865112305
 30
0.0
  0
VERTEX
  5
10C
330
FC
100
AcDbEntity
  8
Insert Point
100
AcDbVertex
100
AcDb2dVertex
 10
44.40261077880859
 20
40.33077239990234
 30
0.0
  0
VERTEX
  5
10D
330
FC
100
AcDbEntity
  8
Insert Point
100
AcDbVertex
100
AcDb2dVertex
 10
42.41518783569335
 20
42.41518783569335
 30
0.0
  0
VERTEX
  5
10E
330
FC
100
AcDbEntity
  8
Insert Point
100
AcDbVertex
100
AcDb2dVertex
 10
40.33077239990234
 20
44.40261077880859
 30
0.0
  0
VERTEX
  5
10F
330
FC
100
AcDbEntity
  8
Insert Point
100
AcDbVertex
100
AcDb2dVertex
 10
38.15314483642578
 20
46.28925704956055
 30
0.0
  0
VERTEX
  5
110
330
FC
100
AcDbEntity
  8
Insert Point
100
AcDbVertex
100
AcDb2dVertex
 10
35.88610076904297
 20
48.07133102416992
 30
0.0
  0
VERTEX
  5
111
330
FC
100
AcDbEntity
  8
Insert Point
100
AcDbVertex
100
AcDb2dVertex
 10
33.53342056274414
 20
49.74505615234375
 30
0.0
  0
VERTEX
  5
112
330
FC
100
AcDbEntity
  8
Insert Point
100
AcDbVertex
100
AcDb2dVertex
 10
31.09889602661133
 20
51.30663681030274
 30
0.0
  0
VERTEX
  5
113
330
FC
100
AcDbEntity
  8
Insert Point
100
AcDbVertex
100
AcDb2dVertex
 10
28.58630752563477
 20
52.75230026245117
 30
0.0
  0
VERTEX
  5
114
330
FC
100
AcDbEntity
  8
Insert Point
100
AcDbVertex
100
AcDb2dVertex
 10
25.99943923950196
 20
54.0782470703125
 30
0.0
  0
VERTEX
  5
115
330
FC
100
AcDbEntity
  8
Insert Point
100
AcDbVertex
100
AcDb2dVertex
 10
23.34208488464355
 20
55.28069686889648
 30
0.0
  0
VERTEX
  5
116
330
FC
100
AcDbEntity
  8
Insert Point
100
AcDbVertex
100
AcDb2dVertex
 10
20.61802673339844
 20
56.35586166381836
 30
0.0
  0
VERTEX
  5
117
330
FC
100
AcDbEntity
  8
Insert Point
100
AcDbVertex
100
AcDb2dVertex
 10
17.83105278015137
 20
57.29995727539062
 30
0.0
  0
VERTEX
  5
118
330
FC
100
AcDbEntity
  8
Insert Point
100
AcDbVertex
100
AcDb2dVertex
 10
14.98494911193847
 20
58.10919189453125
 30
0.0
  0
VERTEX
  5
119
330
FC
100
AcDbEntity
  8
Insert Point
100
AcDbVertex
100
AcDb2dVertex
 10
12.08350086212158
 20
58.77978515625
 30
0.0
  0
VERTEX
  5
11A
330
FC
100
AcDbEntity
  8
Insert Point
100
AcDbVertex
100
AcDb2dVertex
 10
9.130496025085449
 20
59.30794906616211
 30
0.0
  0
VERTEX
  5
11B
330
FC
100
AcDbEntity
  8
Insert Point
100
AcDbVertex
100
AcDb2dVertex
 10
6.129718780517578
 20
59.68989944458008
 30
0.0
  0
VERTEX
  5
11C
330
FC
100
AcDbEntity
  8
Insert Point
100
AcDbVertex
100
AcDb2dVertex
 10
3.084957361221313
 20
59.92184448242188
 30
0.0
  0
VERTEX
  5
11D
330
FC
100
AcDbEntity
  8
Insert Point
100
AcDbVertex
100
AcDb2dVertex
 10
-0.0000026226832688
 20
60.0
 30
0.0
  0
VERTEX
  5
11E
330
FC
100
AcDbEntity
  8
Insert Point
100
AcDbVertex
100
AcDb2dVertex
 10
-3.084962844848632
 20
59.92184066772461
 30
0.0
  0
VERTEX
  5
11F
330
FC
100
AcDbEntity
  8
Insert Point
100
AcDbVertex
100
AcDb2dVertex
 10
-6.129724025726318
 20
59.68989562988281
 30
0.0
  0
VERTEX
  5
120
330
FC
100
AcDbEntity
  8
Insert Point
100
AcDbVertex
100
AcDb2dVertex
 10
-9.130500793457031
 20
59.30794906616211
 30
0.0
  0
VERTEX
  5
121
330
FC
100
AcDbEntity
  8
Insert Point
100
AcDbVertex
100
AcDb2dVertex
 10
-12.08350563049316
 20
58.77978515625
 30
0.0
  0
VERTEX
  5
122
330
FC
100
AcDbEntity
  8
Insert Point
100
AcDbVertex
100
AcDb2dVertex
 10
-14.98495578765869
 20
58.10919189453125
 30
0.0
  0
VERTEX
  5
123
330
FC
100
AcDbEntity
  8
Insert Point
100
AcDbVertex
100
AcDb2dVertex
 10
-17.8310604095459
 20
57.29995346069336
 30
0.0
  0
VERTEX
  5
124
330
FC
100
AcDbEntity
  8
Insert Point
100
AcDbVertex
100
AcDb2dVertex
 10
-20.61803436279297
 20
56.35585784912109
 30
0.0
  0
VERTEX
  5
125
330
FC
100
AcDbEntity
  8
Insert Point
100
AcDbVertex
100
AcDb2dVertex
 10
-23.34209060668945
 20
55.28069686889648
 30
0.0
  0
VERTEX
  5
126
330
FC
100
AcDbEntity
  8
Insert Point
100
AcDbVertex
100
AcDb2dVertex
 10
-25.99944686889648
 20
54.07824325561524
 30
0.0
  0
VERTEX
  5
127
330
FC
100
AcDbEntity
  8
Insert Point
100
AcDbVertex
100
AcDb2dVertex
 10
-28.58631134033203
 20
52.7522964477539
 30
0.0
  0
VERTEX
  5
128
330
FC
100
AcDbEntity
  8
Insert Point
100
AcDbVertex
100
AcDb2dVertex
 10
-31.09889984130859
 20
51.30663681030274
 30
0.0
  0
VERTEX
  5
129
330
FC
100
AcDbEntity
  8
Insert Point
100
AcDbVertex
100
AcDb2dVertex
 10
-33.53342819213867
 20
49.74505615234375
 30
0.0
  0
VERTEX
  5
12A
330
FC
100
AcDbEntity
  8
Insert Point
100
AcDbVertex
100
AcDb2dVertex
 10
-35.8861083984375
 20
48.07133102416992
 30
0.0
  0
VERTEX
  5
12B
330
FC
100
AcDbEntity
  8
Insert Point
100
AcDbVertex
100
AcDb2dVertex
 10
-38.15315246582031
 20
46.28925323486328
 30
0.0
  0
VERTEX
  5
12C
330
FC
100
AcDbEntity
  8
Insert Point
100
AcDbVertex
100
AcDb2dVertex
 10
-40.33077621459961
 20
44.40261077880859
 30
0.0
  0
VERTEX
  5
12D
330
FC
100
AcDbEntity
  8
Insert Point
100
AcDbVertex
100
AcDb2dVertex
 10
-42.41519165039062
 20
42.41518783569335
 30
0.0
  0
VERTEX
  5
12E
330
FC
100
AcDbEntity
  8
Insert Point
100
AcDbVertex
100
AcDb2dVertex
 10
-44.40261459350586
 20
40.33077239990234
 30
0.0
  0
VERTEX
  5
12F
330
FC
100
AcDbEntity
  8
Insert Point
100
AcDbVertex
100
AcDb2dVertex
 10
-46.28926086425781
 20
38.15314483642578
 30
0.0
  0
VERTEX
  5
130
330
FC
100
AcDbEntity
  8
Insert Point
100
AcDbVertex
100
AcDb2dVertex
 10
-48.07133483886719
 20
35.88610076904297
 30
0.0
  0
VERTEX
  5
131
330
FC
100
AcDbEntity
  8
Insert Point
100
AcDbVertex
100
AcDb2dVertex
 10
-49.74505615234375
 20
33.53342056274414
 30
0.0
  0
VERTEX
  5
132
330
FC
100
AcDbEntity
  8
Insert Point
100
AcDbVertex
100
AcDb2dVertex
 10
-51.30664443969727
 20
31.0988941192627
 30
0.0
  0
VERTEX
  5
133
330
FC
100
AcDbEntity
  8
Insert Point
100
AcDbVertex
100
AcDb2dVertex
 10
-52.75230026245117
 20
28.58630561828613
 30
0.0
  0
VERTEX
  5
134
330
FC
100
AcDbEntity
  8
Insert Point
100
AcDbVertex
100
AcDb2dVertex
 10
-54.0782470703125
 20
25.99943923950196
 30
0.0
  0
VERTEX
  5
135
330
FC
100
AcDbEntity
  8
Insert Point
100
AcDbVertex
100
AcDb2dVertex
 10
-55.28070068359375
 20
23.34208488464355
 30
0.0
  0
VERTEX
  5
136
330
FC
100
AcDbEntity
  8
Insert Point
100
AcDbVertex
100
AcDb2dVertex
 10
-56.35586547851563
 20
20.61802673339844
 30
0.0
  0
VERTEX
  5
137
330
FC
100
AcDbEntity
  8
Insert Point
100
AcDbVertex
100
AcDb2dVertex
 10
-57.29995727539062
 20
17.83105278015137
 30
0.0
  0
VERTEX
  5
138
330
FC
100
AcDbEntity
  8
Insert Point
100
AcDbVertex
100
AcDb2dVertex
 10
-58.10919570922852
 20
14.98494815826416
 30
0.0
  0
VERTEX
  5
139
330
FC
100
AcDbEntity
  8
Insert Point
100
AcDbVertex
100
AcDb2dVertex
 10
-58.77978897094727
 20
12.08349895477295
 30
0.0
  0
VERTEX
  5
13A
330
FC
100
AcDbEntity
  8
Insert Point
100
AcDbVertex
100
AcDb2dVertex
 10
-59.30795288085938
 20
9.130494117736816
 30
0.0
  0
VERTEX
  5
13B
330
FC
100
AcDbEntity
  8
Insert Point
100
AcDbVertex
100
AcDb2dVertex
 10
-59.68989944458008
 20
6.129716873168945
 30
0.0
  0
VERTEX
  5
13C
330
FC
100
AcDbEntity
  8
Insert Point
100
AcDbVertex
100
AcDb2dVertex
 10
-59.92184448242188
 20
3.084954977035522
 30
0.0
  0
VERTEX
  5
13D
330
FC
100
AcDbEntity
  8
Insert Point
100
AcDbVertex
100
AcDb2dVertex
 10
-60.0
 20
-0.0000052453665376
 30
0.0
  0
VERTEX
  5
13E
330
FC
100
AcDbEntity
  8
Insert Point
100
AcDbVertex
100
AcDb2dVertex
 10
-59.92184066772461
 20
-3.084964990615844
 30
0.0
  0
VERTEX
  5
13F
330
FC
100
AcDbEntity
  8
Insert Point
100
AcDbVertex
100
AcDb2dVertex
 10
-59.68989562988281
 20
-6.129726409912109
 30
0.0
  0
VERTEX
  5
140
330
FC
100
AcDbEntity
  8
Insert Point
100
AcDbVertex
100
AcDb2dVertex
 10
-59.30794906616211
 20
-9.130502700805664
 30
0.0
  0
VERTEX
  5
141
330
FC
100
AcDbEntity
  8
Insert Point
100
AcDbVertex
100
AcDb2dVertex
 10
-58.77978515625
 20
-12.08350849151611
 30
0.0
  0
VERTEX
  5
142
330
FC
100
AcDbEntity
  8
Insert Point
100
AcDbVertex
100
AcDb2dVertex
 10
-58.10919189453125
 20
-14.98495674133301
 30
0.0
  0
VERTEX
  5
143
330
FC
100
AcDbEntity
  8
Insert Point
100
AcDbVertex
100
AcDb2dVertex
 10
-57.29995727539062
 20
-17.8310604095459
 30
0.0
  0
VERTEX
  5
144
330
FC
100
AcDbEntity
  8
Insert Point
100
AcDbVertex
100
AcDb2dVertex
 10
-56.35585784912109
 20
-20.61803436279297
 30
0.0
  0
VERTEX
  5
145
330
FC
100
AcDbEntity
  8
Insert Point
100
AcDbVertex
100
AcDb2dVertex
 10
-55.28069686889648
 20
-23.34209060668945
 30
0.0
  0
VERTEX
  5
146
330
FC
100
AcDbEntity
  8
Insert Point
100
AcDbVertex
100
AcDb2dVertex
 10
-54.07824325561524
 20
-25.99944305419922
 30
0.0
  0
VERTEX
  5
147
330
FC
100
AcDbEntity
  8
Insert Point
100
AcDbVertex
100
AcDb2dVertex
 10
-52.7522964477539
 20
-28.58631134033203
 30
0.0
  0
VERTEX
  5
148
330
FC
100
AcDbEntity
  8
Insert Point
100
AcDbVertex
100
AcDb2dVertex
 10
-51.306640625
 20
-31.09889984130859
 30
0.0
  0
VERTEX
  5
149
330
FC
100
AcDbEntity
  8
Insert Point
100
AcDbVertex
100
AcDb2dVertex
 10
-49.74504852294922
 20
-33.53342819213867
 30
0.0
  0
VERTEX
  5
14A
330
FC
100
AcDbEntity
  8
Insert Point
100
AcDbVertex
100
AcDb2dVertex
 10
-48.07132720947265
 20
-35.8861083984375
 30
0.0
  0
VERTEX
  5
14B
330
FC
100
AcDbEntity
  8
Insert Point
100
AcDbVertex
100
AcDb2dVertex
 10
-46.28925323486328
 20
-38.15315246582031
 30
0.0
  0
VERTEX
  5
14C
330
FC
100
AcDbEntity
  8
Insert Point
100
AcDbVertex
100
AcDb2dVertex
 10
-44.40261077880859
 20
-40.33077621459961
 30
0.0
  0
VERTEX
  5
14D
330
FC
100
AcDbEntity
  8
Insert Point
100
AcDbVertex
100
AcDb2dVertex
 10
-42.41518783569335
 20
-42.41519165039062
 30
0.0
  0
VERTEX
  5
14E
330
FC
100
AcDbEntity
  8
Insert Point
100
AcDbVertex
100
AcDb2dVertex
 10
-40.33077239990234
 20
-44.40261077880859
 30
0.0
  0
VERTEX
  5
14F
330
FC
100
AcDbEntity
  8
Insert Point
100
AcDbVertex
100
AcDb2dVertex
 10
-38.15314483642578
 20
-46.28925704956055
 30
0.0
  0
VERTEX
  5
150
330
FC
100
AcDbEntity
  8
Insert Point
100
AcDbVertex
100
AcDb2dVertex
 10
-35.88610076904297
 20
-48.07133483886719
 30
0.0
  0
VERTEX
  5
151
330
FC
100
AcDbEntity
  8
Insert Point
100
AcDbVertex
100
AcDb2dVertex
 10
-33.53342437744141
 20
-49.74505615234375
 30
0.0
  0
VERTEX
  5
152
330
FC
100
AcDbEntity
  8
Insert Point
100
AcDbVertex
100
AcDb2dVertex
 10
-31.09889602661133
 20
-51.306640625
 30
0.0
  0
VERTEX
  5
153
330
FC
100
AcDbEntity
  8
Insert Point
100
AcDbVertex
100
AcDb2dVertex
 10
-28.58630752563477
 20
-52.75230026245117
 30
0.0
  0
VERTEX
  5
154
330
FC
100
AcDbEntity
  8
Insert Point
100
AcDbVertex
100
AcDb2dVertex
 10
-25.99944114685059
 20
-54.0782470703125
 30
0.0
  0
VERTEX
  5
155
330
FC
100
AcDbEntity
  8
Insert Point
100
AcDbVertex
100
AcDb2dVertex
 10
-23.34208679199219
 20
-55.28069686889648
 30
0.0
  0
VERTEX
  5
156
330
FC
100
AcDbEntity
  8
Insert Point
100
AcDbVertex
100
AcDb2dVertex
 10
-20.61802864074707
 20
-56.35586166381836
 30
0.0
  0
VERTEX
  5
157
330
FC
100
AcDbEntity
  8
Insert Point
100
AcDbVertex
100
AcDb2dVertex
 10
-17.83105659484863
 20
-57.29995727539062
 30
0.0
  0
VERTEX
  5
158
330
FC
100
AcDbEntity
  8
Insert Point
100
AcDbVertex
100
AcDb2dVertex
 10
-14.98495197296142
 20
-58.10919189453125
 30
0.0
  0
VERTEX
  5
159
330
FC
100
AcDbEntity
  8
Insert Point
100
AcDbVertex
100
AcDb2dVertex
 10
-12.08350276947021
 20
-58.77978515625
 30
0.0
  0
VERTEX
  5
15A
330
FC
100
AcDbEntity
  8
Insert Point
100
AcDbVertex
100
AcDb2dVertex
 10
-9.130497932434082
 20
-59.30794906616211
 30
0.0
  0
VERTEX
  5
15B
330
FC
100
AcDbEntity
  8
Insert Point
100
AcDbVertex
100
AcDb2dVertex
 10
-6.129721164703369
 20
-59.68989944458008
 30
0.0
  0
VERTEX
  5
15C
330
FC
100
AcDbEntity
  8
Insert Point
100
AcDbVertex
100
AcDb2dVertex
 10
-3.084959268569946
 20
-59.92184448242188
 30
0.0
  0
VERTEX
  5
15D
330
FC
100
AcDbEntity
  8
Insert Point
100
AcDbVertex
100
AcDb2dVertex
 10
0.0000007154928312
 20
-60.0
 30
0.0
  0
VERTEX
  5
15E
330
FC
100
AcDbEntity
  8
Insert Point
100
AcDbVertex
100
AcDb2dVertex
 10
3.08496069908142
 20
-59.92184066772461
 30
0.0
  0
VERTEX
  5
15F
330
FC
100
AcDbEntity
  8
Insert Point
100
AcDbVertex
100
AcDb2dVertex
 10
6.129722118377685
 20
-59.68989562988281
 30
0.0
  0
VERTEX
  5
160
330
FC
100
AcDbEntity
  8
Insert Point
100
AcDbVertex
100
AcDb2dVertex
 10
9.130499839782714
 20
-59.30794906616211
 30
0.0
  0
VERTEX
  5
161
330
FC
100
AcDbEntity
  8
Insert Point
100
AcDbVertex
100
AcDb2dVertex
 10
12.08350467681885
 20
-58.77978515625
 30
0.0
  0
VERTEX
  5
162
330
FC
100
AcDbEntity
  8
Insert Point
100
AcDbVertex
100
AcDb2dVertex
 10
14.98495197296142
 20
-58.10919189453125
 30
0.0
  0
VERTEX
  5
163
330
FC
100
AcDbEntity
  8
Insert Point
100
AcDbVertex
100
AcDb2dVertex
 10
17.83105659484863
 20
-57.29995727539062
 30
0.0
  0
VERTEX
  5
164
330
FC
100
AcDbEntity
  8
Insert Point
100
AcDbVertex
100
AcDb2dVertex
 10
20.61802864074707
 20
-56.35585784912109
 30
0.0
  0
VERTEX
  5
165
330
FC
100
AcDbEntity
  8
Insert Point
100
AcDbVertex
100
AcDb2dVertex
 10
23.34208679199219
 20
-55.28069686889648
 30
0.0
  0
VERTEX
  5
166
330
FC
100
AcDbEntity
  8
Insert Point
100
AcDbVertex
100
AcDb2dVertex
 10
25.99944305419922
 20
-54.07824325561524
 30
0.0
  0
VERTEX
  5
167
330
FC
100
AcDbEntity
  8
Insert Point
100
AcDbVertex
100
AcDb2dVertex
 10
28.58630752563477
 20
-52.7522964477539
 30
0.0
  0
VERTEX
  5
168
330
FC
100
AcDbEntity
  8
Insert Point
100
AcDbVertex
100
AcDb2dVertex
 10
31.09889793395996
 20
-51.306640625
 30
0.0
  0
VERTEX
  5
169
330
FC
100
AcDbEntity
  8
Insert Point
100
AcDbVertex
100
AcDb2dVertex
 10
33.53342437744141
 20
-49.74505615234375
 30
0.0
  0
VERTEX
  5
16A
330
FC
100
AcDbEntity
  8
Insert Point
100
AcDbVertex
100
AcDb2dVertex
 10
35.88610458374024
 20
-48.07133102416992
 30
0.0
  0
VERTEX
  5
16B
330
FC
100
AcDbEntity
  8
Insert Point
100
AcDbVertex
100
AcDb2dVertex
 10
38.15314865112305
 20
-46.28925323486328
 30
0.0
  0
VERTEX
  5
16C
330
FC
100
AcDbEntity
  8
Insert Point
100
AcDbVertex
100
AcDb2dVertex
 10
40.33077239990234
 20
-44.40261459350586
 30
0.0
  0
VERTEX
  5
16D
330
FC
100
AcDbEntity
  8
Insert Point
100
AcDbVertex
100
AcDb2dVertex
 10
42.41518783569335
 20
-42.41518783569335
 30
0.0
  0
VERTEX
  5
16E
330
FC
100
AcDbEntity
  8
Insert Point
100
AcDbVertex
100
AcDb2dVertex
 10
44.40261077880859
 20
-40.33077239990234
 30
0.0
  0
VERTEX
  5
16F
330
FC
100
AcDbEntity
  8
Insert Point
100
AcDbVertex
100
AcDb2dVertex
 10
46.28925704956055
 20
-38.15314865112305
 30
0.0
  0
VERTEX
  5
170
330
FC
100
AcDbEntity
  8
Insert Point
100
AcDbVertex
100
AcDb2dVertex
 10
48.07133102416992
 20
-35.88610076904297
 30
0.0
  0
VERTEX
  5
171
330
FC
100
AcDbEntity
  8
Insert Point
100
AcDbVertex
100
AcDb2dVertex
 10
49.74505615234375
 20
-33.53342437744141
 30
0.0
  0
VERTEX
  5
172
330
FC
100
AcDbEntity
  8
Insert Point
100
AcDbVertex
100
AcDb2dVertex
 10
51.30663681030274
 20
-31.09889602661133
 30
0.0
  0
VERTEX
  5
173
330
FC
100
AcDbEntity
  8
Insert Point
100
AcDbVertex
100
AcDb2dVertex
 10
52.75230026245117
 20
-28.58630752563477
 30
0.0
  0
VERTEX
  5
174
330
FC
100
AcDbEntity
  8
Insert Point
100
AcDbVertex
100
AcDb2dVertex
 10
54.0782470703125
 20
-25.99944114685059
 30
0.0
  0
VERTEX
  5
175
330
FC
100
AcDbEntity
  8
Insert Point
100
AcDbVertex
100
AcDb2dVertex
 10
55.28069686889648
 20
-23.34208679199219
 30
0.0
  0
VERTEX
  5
176
330
FC
100
AcDbEntity
  8
Insert Point
100
AcDbVertex
100
AcDb2dVertex
 10
56.35586166381836
 20
-20.6180305480957
 30
0.0
  0
VERTEX
  5
177
330
FC
100
AcDbEntity
  8
Insert Point
100
AcDbVertex
100
AcDb2dVertex
 10
57.29995727539062
 20
-17.83105659484863
 30
0.0
  0
VERTEX
  5
178
330
FC
100
AcDbEntity
  8
Insert Point
100
AcDbVertex
100
AcDb2dVertex
 10
58.10919189453125
 20
-14.98495197296142
 30
0.0
  0
VERTEX
  5
179
330
FC
100
AcDbEntity
  8
Insert Point
100
AcDbVertex
100
AcDb2dVertex
 10
58.77978515625
 20
-12.08350372314453
 30
0.0
  0
VERTEX
  5
17A
330
FC
100
AcDbEntity
  8
Insert Point
100
AcDbVertex
100
AcDb2dVertex
 10
59.30794906616211
 20
-9.130498886108398
 30
0.0
  0
VERTEX
  5
17B
330
FC
100
AcDbEntity
  8
Insert Point
100
AcDbVertex
100
AcDb2dVertex
 10
59.68989944458008
 20
-6.129721641540527
 30
0.0
  0
VERTEX
  5
17C
330
FC
100
AcDbEntity
  8
Insert Point
100
AcDbVertex
100
AcDb2dVertex
 10
59.92184448242188
 20
-3.084959983825683
 30
0.0
  0
SEQEND
  5
17D
330
FC
100
AcDbEntity
  8
Insert Point
  0
MESH
  5
17E
330
1F
100
AcDbEntity
  8
WandProfileHorizontal_01
 62
     7
420
 16777215
160
             34568
310
08870000C00300000C00000013000000020000003C0000000600000002000000000000C0223A1040000000000B64F1BF0000000000408F40000000E036AEFF3F000000008FF9E0BF0000000000408F400C000000130000000A0000003C0000000600000002000000000000E036AEFF3F000000008FF9E0BF0000000000408F
310
40000000A0808DFC3F000000A02D23F0BF0000000000408F400C00000013000000120000003C0000000600000002000000000000C0223A1040000000000B64F1BF0000000000408F40000000A0808DFC3F000000A02D23F0BF0000000000408F400C000000130000001A0000003C0000000600000002000000000000A0808D
310
FC3F000000A02D23F0BF0000000000408F40000000A0AD9CF73F000000E041C3F6BF0000000000408F400C00000013000000220000003C0000000600000002000000000000C0223A1040000000000B64F1BF0000000000408F40000000A0AD9CF73F000000E041C3F6BF0000000000408F400C000000130000002A0000003C
310
0000000600000002000000000000A0AD9CF73F000000E041C3F6BF0000000000408F40000000600B2CF13F000000E054F1FBBF0000000000408F400C00000013000000320000003C0000000600000002000000000000C0223A1040000000000B64F1BF0000000000408F40000000600B2CF13F000000E054F1FBBF00000000
310
00408F400C000000130000003A0000003C0000000600000002000000000000600B2CF13F000000E054F1FBBF0000000000408F40000000A08C48E33F000000603559FFBF0000002000408F400C00000013000000420000003C0000000600000002000000000000C0223A1040000000000B64F1BF0000000000408F40000000
310
A08C48E33F000000603559FFBF0000002000408F400C000000130000004A0000003C0000000600000002000000000000C0223A1040000000000B64F1BF0000000000408F40000000C05A0B0D40000000600FE400C00000002000408F400C00000013000000520000003C0000000600000002000000000000A08C48E33F0000
310
00603559FFBF0000002000408F40000000C05A0B0D40000000600FE400C00000002000408F400C000000130000005A0000003C0000000600000002000000000000A08C48E33F000000603559FFBF0000002000408F400000008037FCB73F00000020C46100C00000002000408F400C00000013000000620000003C00000006
310
00000002000000000000C05A0B0D40000000600FE400C00000002000408F400000008037FCB73F00000020C46100C00000002000408F400C000000130000006A0000003C0000000600000002000000000000C05A0B0D40000000600FE400C00000002000408F40000000407D9B0740000000C04BE807C00000002000408F40
310
0C00000013000000720000003C00000006000000020000000000008037FCB73F00000020C46100C00000002000408F40000000407D9B0740000000C04BE807C00000002000408F400C000000130000007A0000003C00000006000000020000000000008037FCB73F00000020C46100C00000002000408F400000002092F4DA
310
BF00000040A60C00C00000002000408F400C00000013000000820000003C0000000600000002000000000000407D9B0740000000C04BE807C00000002000408F400000002092F4DABF00000040A60C00C00000002000408F400C000000130000008A0000003C0000000600000002000000000000407D9B0740000000C04BE8
310
07C00000002000408F40000000E0D1850040000000E05D410DC00000002000408F400C00000013000000920000003C00000006000000020000000000002092F4DABF00000040A60C00C00000002000408F40000000E0D1850040000000E05D410DC00000002000408F400C000000130000009A0000003C0000000600000002
310
0000000000002092F4DABF00000040A60C00C00000002000408F40000000201919EDBF000000005165FDBF0000000000408F400C00000013000000A20000003C0000000600000002000000000000E0D1850040000000E05D410DC00000002000408F40000000201919EDBF000000005165FDBF0000000000408F400C000000
310
13000000AA0000003C0000000600000002000000000000E0D1850040000000E05D410DC00000002000408F4000000020DA91F03F00000060DC4710C00000000000408F400C00000013000000B20000003C0000000600000002000000000000201919EDBF000000005165FDBF0000000000408F4000000020DA91F03F000000
310
60DC4710C00000000000408F400C00000013000000BA0000003C0000000600000002000000000000201919EDBF000000005165FDBF0000000000408F4000000020836FF5BF0000002085D3F8BF0000000000408F400C00000013000000C20000003C000000060000000200000000000020836FF5BF0000002085D3F8BF0000
310
000000408F4000000060AEFAFCBF000000A06892FBBF0000002000408F400C00000013000000CA0000003C0000000600000002000000000000201919EDBF000000005165FDBF0000000000408F4000000060AEFAFCBF000000A06892FBBF0000002000408F400C00000013000000D20000003C000000060000000200000000
310
000060AEFAFCBF000000A06892FBBF0000002000408F4000000060987001C0000000801CB80CC00000000000408F400C00000013000000DA0000003C0000000600000002000000000000201919EDBF000000005165FDBF0000000000408F4000000060987001C0000000801CB80CC00000000000408F400C00000013000000
310
E20000003C000000060000000200000000000020DA91F03F00000060DC4710C00000000000408F4000000060987001C0000000801CB80CC00000000000408F400C00000013000000EA0000003C000000060000000200000000000060987001C0000000801CB80CC00000000000408F4000000060EF9EF2BF000000804E2410
310
C00000000000408F400C00000013000000F20000003C000000060000000200000000000020DA91F03F00000060DC4710C00000000000408F4000000060EF9EF2BF000000804E2410C00000000000408F400C00000013000000FA0000003C000000060000000200000000000020DA91F03F00000060DC4710C0000000000040
310
8F40000000604700B1BF0000006025CC10C00000000000408F400C00000013000000020100003C000000060000000200000000000060EF9EF2BF000000804E2410C00000000000408F40000000604700B1BF0000006025CC10C00000000000408F400C000000130000000A0100003C00000006000000020000000000006041
310
F603C0000000406EFCC33F0000000000408F40000000C00E8E10C00000006001E6E63F0000000000408F400C00000013000000120100003C0000000600000002000000000000C00E8E10C00000006001E6E63F0000000000408F400000004000B010C000000020731CDFBF0000002000408F400C000000130000001A010000
310
3C00000006000000020000000000006041F603C0000000406EFCC33F0000000000408F400000004000B010C000000020731CDFBF0000002000408F400C00000013000000220100003C00000006000000020000000000004000B010C000000020731CDFBF0000002000408F40000000007E241FC0000000E0583A13C0000000
310
0000408F400C000000130000002A0100003C00000006000000020000000000006041F603C0000000406EFCC33F0000000000408F40000000007E241FC0000000E0583A13C00000000000408F400C00000013000000320100003C0000000600000002000000000000007E241FC0000000E0583A13C00000000000408F400000
310
0080070032C0000000C0FC0A2EC00000000000408F400C000000130000003A0100003C000000060000000200000000000080070032C0000000C0FC0A2EC00000000000408F4000000060070034C00000002092D933C00000000000408F400C00000013000000420100003C0000000600000002000000000000007E241FC000
310
0000E0583A13C00000000000408F4000000060070034C00000002092D933C00000000000408F400C000000130000004A0100003C000000060000000200000000000060070034C00000002092D933C00000000000408F4000000020255A08C0000000A0792607C00000002000408F400C00000013000000520100003C000000
310
0600000002000000000000007E241FC0000000E0583A13C00000000000408F4000000020255A08C0000000A0792607C00000002000408F400C000000130000005A0100003C00000006000000020000000000006041F603C0000000406EFCC33F0000000000408F4000000020255A08C0000000A0792607C00000002000408F
310
400C00000013000000620100003C00000006000000020000000000004000B010C000000020731CDFBF0000002000408F400000002020341AC000000000CEEB06C00000000000408F400C000000130000006A0100003C0000000600000002000000000000007E241FC0000000E0583A13C00000000000408F40000000202034
310
1AC000000000CEEB06C00000000000408F400C00000013000000720100003C00000006000000020000000000002020341AC000000000CEEB06C00000000000408F4000000000CC881CC0000000603816DFBF0000000000408F400C000000130000007A0100003C0000000600000002000000000000007E241FC0000000E058
310
3A13C00000000000408F4000000000CC881CC0000000603816DFBF0000000000408F400C00000013000000820100003C000000060000000200000000000000CC881CC0000000603816DFBF0000000000408F4000000080FE831BC0000000401A36FF3F0000000000408F400C000000130000008A0100003C00000006000000
310
02000000000000007E241FC0000000E0583A13C00000000000408F4000000080FE831BC0000000401A36FF3F0000000000408F400C00000013000000920100003C0000000600000002000000000000007E241FC0000000E0583A13C00000000000408F40000000A076BF20C0000000A0CB800DC00000000000408F400C0000
310
00130000009A0100003C000000060000000200000000000080FE831BC0000000401A36FF3F0000000000408F40000000A076BF20C0000000A0CB800DC00000000000408F400C00000013000000A20100003C0000000600000002000000000000A076BF20C0000000A0CB800DC00000000000408F40000000A0D29A21C00000
310
0020B0FC03C00000000000408F400C00000013000000AA0100003C000000060000000200000000000080FE831BC0000000401A36FF3F0000000000408F40000000A0D29A21C000000020B0FC03C00000000000408F400C00000013000000B20100003C0000000600000002000000000000A0D29A21C000000020B0FC03C000
310
00000000408F4000000000232022C0000000A0C52DF4BF0000000000408F400C00000013000000BA0100003C000000060000000200000000000080FE831BC0000000401A36FF3F0000000000408F4000000000232022C0000000A0C52DF4BF0000000000408F400C00000013000000C20100003C0000000600000002000000
310
00000080FE831BC0000000401A36FF3F0000000000408F40000000A0554417C000000080F8A110400000000000408F400C00000013000000CA0100003C0000000600000002000000000000A0554417C000000080F8A110400000000000408F40000000A076BF20C0000000E043810D400000002000408F400C000000130000
310
00D20100003C000000060000000200000000000080FE831BC0000000401A36FF3F0000000000408F40000000A076BF20C0000000E043810D400000002000408F400C00000013000000DA0100003C0000000600000002000000000000A076BF20C0000000E043810D400000002000408F40000000A0D29A21C00000006028FD
310
03400000002000408F400C00000013000000E20100003C000000060000000200000000000080FE831BC0000000401A36FF3F0000000000408F40000000A0D29A21C00000006028FD03400000002000408F400C00000013000000EA0100003C000000060000000200000000000000232022C0000000A0C52DF4BF0000000000
310
408F40000000A0D29A21C00000006028FD03400000002000408F400C00000013000000F20100003C0000000600000002000000000000A0D29A21C00000006028FD03400000002000408F4000000020232022C000000020B62EF43F0000000000408F400C00000013000000FA0100003C000000060000000200000000000000
310
232022C0000000A0C52DF4BF0000000000408F4000000020232022C000000020B62EF43F0000000000408F400C00000013000000020200003C000000060000000200000000000000232022C0000000A0C52DF4BF0000000000408F4000000000DC4C22C0000000807E0E1E3F0000000000408F400C000000130000000A0200
310
003C000000060000000200000000000020232022C000000020B62EF43F0000000000408F4000000000DC4C22C0000000807E0E1E3F0000000000408F400C00000013000000120200003C000000060000000200000000000060987001C0000000801CB80CC00000000000408F4000000020255A08C0000000A0792607C00000
310
002000408F400C000000130000001A0200003C000000060000000200000000000060987001C0000000801CB80CC00000000000408F400000006041F603C0000000406EFCC33F0000000000408F400C00000013000000220200003C000000060000000200000000000060AEFAFCBF000000A06892FBBF0000002000408F4000
310
00006041F603C0000000406EFCC33F0000000000408F400C000000130000002A0200003C0000000600000002000000000000006EE631C000000040E2FF17C00000002000408F4000000080070032C000000020E2FF1FC00000000000408F400C00000013000000320200003C000000060000000200000000000080070032C0
310
00000020E2FF1FC00000000000408F4000000080070030C000000000E2FF1FC00000000000408F400C000000130000003A0200003C0000000600000002000000000000006EE631C000000040E2FF17C00000002000408F4000000080070030C000000000E2FF1FC00000000000408F400C00000013000000420200003C0000
310
00060000000200000000000080070030C000000000E2FF1FC00000000000408F4000000080070030C000000000E2FF17C00000000000408F400C000000130000004A0200003C0000000600000002000000000000006EE631C000000040E2FF17C00000002000408F4000000080070030C000000000E2FF17C0000000000040
310
8F400C00000013000000520200003C000000060000000200000000000080070032C0000000C0FC0A2EC00000000000408F4000000080070032C000000020E2FF1FC00000000000408F400C000000130000005A0200003C000000060000000200000000000060070034C00000002092D933C00000000000408F400000008007
310
0032C000000020E2FF1FC00000000000408F400C00000013000000620200003C0000000600000002000000000000006EE631C000000040E2FF17C00000002000408F40000000006EE631C000000060F73201C00000000000408F400C000000130000006A0200003C000000060000000200000000000080070032C000000020
310
E2FF1FC00000000000408F40000000006EE631C000000060F73201C00000000000408F400C00000013000000720200003C0000000600000002000000000000006EE631C000000060F73201C00000000000408F4000000080070034C000000080F73201C00000000000408F400C000000130000007A0200003C000000060000
310
000200000000000080070032C000000020E2FF1FC00000000000408F4000000080070034C000000080F73201C00000000000408F400C00000013000000820200003C000000060000000200000000000060070034C00000002092D933C00000000000408F4000000080070034C000000080F73201C00000000000408F400C00
310
0000130000008A0200003C0000000600000002000000000000A0554417C000000080F8A110400000000000408F4000000020C82D1AC0000000202E9419400000000000408F400C00000013000000920200003C0000000600000002000000000000A0554417C000000080F8A110400000000000408F40000000807E4910C000
310
0000A0998217400000000000408F400C000000130000009A0200003C000000060000000200000000000020C82D1AC0000000202E9419400000000000408F40000000807E4910C0000000A0998217400000000000408F400C00000013000000A20200003C0000000600000002000000000000807E4910C0000000A099821740
310
0000000000408F4000000060E594FDBF00000060BDA01B400000000000408F400C00000013000000AA0200003C000000060000000200000000000060E594FDBF00000060BDA01B400000000000408F4000000000A330FEBF000000002EE821400000000000408F400C00000013000000B20200003C00000006000000020000
310
00000000807E4910C0000000A0998217400000000000408F4000000000A330FEBF000000002EE821400000000000408F400C00000013000000BA0200003C000000060000000200000000000000A330FEBF000000002EE821400000000000408F40000000E0C4C80CC0000000A07BD320400000002000408F400C0000001300
310
0000C20200003C0000000600000002000000000000807E4910C0000000A0998217400000000000408F40000000E0C4C80CC0000000A07BD320400000002000408F400C00000013000000CA0200003C000000060000000200000000000020C82D1AC0000000202E9419400000000000408F40000000E0C4C80CC0000000A07B
310
D320400000002000408F400C00000013000000D20200003C0000000600000002000000000000E0C4C80CC0000000A07BD320400000002000408F4000000000E8AE14C0000000C03A321E400000000000408F400C00000013000000DA0200003C000000060000000200000000000020C82D1AC0000000202E94194000000000
310
00408F4000000000E8AE14C0000000C03A321E400000000000408F400C00000013000000E20200003C0000000600000002000000000000006EE631C0000000001E0018400000002000408F4000000080070034C0000000E06E3301400000000000408F400C00000013000000EA0200003C0000000600000002000000000000
310
80070034C0000000E06E3301400000000000408F40000000E06DE631C0000000206F3301400000000000408F400C00000013000000F20200003C0000000600000002000000000000006EE631C0000000001E0018400000002000408F40000000E06DE631C0000000206F3301400000000000408F400C00000013000000FA02
310
00003C0000000600000002000000000000006EE631C0000000001E0018400000002000408F4000000080070032C0000000000F0020400000000000408F400C00000013000000020300003C000000060000000200000000000080070034C0000000E06E3301400000000000408F4000000080070032C0000000000F00204000
310
00000000408F400C000000130000000A0300003C000000060000000200000000000080070032C0000000000F0020400000000000408F4000000080070032C0000000C01A0B2E400000002000408F400C00000013000000120300003C000000060000000200000000000080070034C0000000E06E3301400000000000408F40
310
00000080070032C0000000C01A0B2E400000002000408F400C000000130000001A0300003C000000060000000200000000000080070034C0000000E06E3301400000000000408F40000000A0070034C000000020A1D933400000002000408F400C00000013000000220300003C000000060000000200000000000080070032
310
C0000000C01A0B2E400000002000408F40000000A0070034C000000020A1D933400000002000408F400C000000130000002A0300003C000000060000000200000000000080070032C0000000C01A0B2E400000002000408F40000000407E241FC000000000953A13400000000000408F400C00000013000000320300003C00
310
00000600000002000000000000A0070034C000000020A1D933400000002000408F40000000407E241FC000000000953A13400000000000408F400C000000130000003A0300003C000000060000000200000000000020C82D1AC0000000202E9419400000000000408F40000000A0070034C000000020A1D933400000002000
310
408F400C00000013000000420300003C000000060000000200000000000020C82D1AC0000000202E9419400000000000408F40000000407E241FC000000000953A13400000000000408F400C000000130000004A0300003C0000000600000002000000000000A076BF20C0000000E043810D400000002000408F4000000040
310
7E241FC000000000953A13400000000000408F400C00000013000000520300003C0000000600000002000000000000A0554417C000000080F8A110400000000000408F40000000407E241FC000000000953A13400000000000408F400C000000130000005A0300003C0000000600000002000000000000006EE631C0000000
310
001E0018400000002000408F4000000080070030C0000000001E0018400000000000408F400C00000013000000620300003C000000060000000200000000000080070032C0000000000F0020400000000000408F4000000080070030C0000000001E0018400000000000408F400C000000130000006A0300003C0000000600
310
00000200000000000080070030C0000000001E0018400000000000408F4000000080070030C0000000000F0020400000000000408F400C00000013000000720300003C000000060000000200000000000080070032C0000000000F0020400000000000408F4000000080070030C0000000000F0020400000000000408F400C
310
000000130000007A0300003C000000060000000200000000000060E594FDBF00000060BDA01B400000000000408F40000000802CEAE23F000000A0A5801C400000000000408F400C00000013000000820300003C000000060000000200000000000000A330FEBF000000002EE821400000000000408F40000000802CEAE23F
310
000000A0A5801C400000000000408F400C000000130000008A0300003C0000000600000002000000000000802CEAE23F000000A0A5801C400000000000408F40000000A067B107400000008009081A400000000000408F400C00000013000000920300003C000000060000000200000000000000A330FEBF000000002EE821
310
400000000000408F40000000A067B107400000008009081A400000000000408F400C000000130000009A0300003C000000060000000200000000000000A330FEBF000000002EE821400000000000408F4000000000F567BABF00000000904C22400000000000408F400C00000013000000A20300003C000000060000000200
310
0000000000A067B107400000008009081A400000000000408F4000000000F567BABF00000000904C22400000000000408F400C00000013000000AA0300003C0000000600000002000000000000A067B107400000008009081A400000000000408F40000000C01EF01340000000202C8114400000000000408F400C00000013
310
000000B20300003C0000000600000002000000000000C01EF01340000000202C8114400000000000408F40000000E0629819400000002070291A400000000000408F400C00000013000000BA0300003C0000000600000002000000000000A067B107400000008009081A400000000000408F40000000E06298194000000020
310
70291A400000000000408F400C00000013000000C20300003C0000000600000002000000000000E0629819400000002070291A400000000000408F40000000A03FFF13400000008081A71E400000002000408F400C00000013000000CA0300003C0000000600000002000000000000A067B107400000008009081A40000000
310
0000408F40000000A03FFF13400000008081A71E400000002000408F400C00000013000000D20300003C000000060000000200000000000000F567BABF00000000904C22400000000000408F40000000A03FFF13400000008081A71E400000002000408F400C00000013000000DA0300003C00000006000000020000000000
310
00A03FFF13400000008081A71E400000002000408F40000000606C420B40000000C0DFFB20400000000000408F400C00000013000000E20300003C000000060000000200000000000000F567BABF00000000904C22400000000000408F40000000606C420B40000000C0DFFB20400000000000408F400C00000013000000EA
310
0300003C000000060000000200000000000000F567BABF00000000904C22400000000000408F4000000000E0F3FA3F00000060C5FC21400000000000408F400C00000013000000F20300003C0000000600000002000000000000606C420B40000000C0DFFB20400000000000408F4000000000E0F3FA3F00000060C5FC2140
310
0000000000408F400C00000013000000FA0300003C00000006000000020000000000006041F603C0000000406EFCC33F0000000000408F40000000C0AB3000C000000040C4F9D43F0000000000408F400C00000013000000020400003C0000000600000002000000000000C0AB3000C000000040C4F9D43F0000000000408F
310
40000000A0C30AFEBF000000C08957EA3F0000000000408F400C000000130000000A0400003C00000006000000020000000000006041F603C0000000406EFCC33F0000000000408F40000000A0C30AFEBF000000C08957EA3F0000000000408F400C00000013000000120400003C0000000600000002000000000000A0C30A
310
FEBF000000C08957EA3F0000000000408F40000000C0EDCBF9BF000000600D43F43F0000002000408F400C000000130000001A0400003C00000006000000020000000000006041F603C0000000406EFCC33F0000000000408F40000000C0EDCBF9BF000000600D43F43F0000002000408F400C00000013000000220400003C
310
0000000600000002000000000000C00E8E10C00000006001E6E63F0000000000408F40000000C0EDCBF9BF000000600D43F43F0000002000408F400C000000130000002A0400003C0000000600000002000000000000C0EDCBF9BF000000600D43F43F0000002000408F4000000020D6E9F3BF000000A00911FA3F00000000
310
00408F400C00000013000000320400003C0000000600000002000000000000C00E8E10C00000006001E6E63F0000000000408F4000000020D6E9F3BF000000A00911FA3F0000000000408F400C000000130000003A0400003C000000060000000200000000000020D6E9F3BF000000A00911FA3F0000000000408F40000000
310
003988E9BF000000006137FE3F0000002000408F400C00000013000000420400003C0000000600000002000000000000C00E8E10C00000006001E6E63F0000000000408F40000000003988E9BF000000006137FE3F0000002000408F400C000000130000004A0400003C0000000600000002000000000000C00E8E10C00000
310
006001E6E63F0000000000408F4000000020D8210EC00000000009BDFD3F0000002000408F400C00000013000000520400003C0000000600000002000000000000003988E9BF000000006137FE3F0000002000408F4000000020D8210EC00000000009BDFD3F0000002000408F400C000000130000005A0400003C00000006
310
00000002000000000000003988E9BF000000006137FE3F0000002000408F4000000060B03BD3BF00000080503900400000002000408F400C00000013000000620400003C000000060000000200000000000020D8210EC00000000009BDFD3F0000002000408F4000000060B03BD3BF00000080503900400000002000408F40
310
0C000000130000006A0400003C000000060000000200000000000020D8210EC00000000009BDFD3F0000002000408F4000000040A3AF08C000000040B4CB06400000000000408F400C00000013000000720400003C000000060000000200000000000060B03BD3BF00000080503900400000002000408F4000000040A3AF08
310
C000000040B4CB06400000000000408F400C000000130000007A0400003C000000060000000200000000000060B03BD3BF00000080503900400000002000408F40000000801BA3CB3F00000060424F00400000000000408F400C00000013000000820400003C000000060000000200000000000040A3AF08C000000040B4CB
310
06400000000000408F40000000801BA3CB3F00000060424F00400000000000408F400C000000130000008A0400003C0000000600000002000000000000801BA3CB3F00000060424F00400000000000408F40000000C009FFE63F000000A042B8FE3F0000000000408F400C00000013000000920400003C0000000600000002
310
00000000000040A3AF08C000000040B4CB06400000000000408F40000000C009FFE63F000000A042B8FE3F0000000000408F400C000000130000009A0400003C000000060000000200000000000040A3AF08C000000040B4CB06400000000000408F40000000E0B63701C000000080D2DA0C400000000000408F400C000000
310
13000000A20400003C0000000600000002000000000000C009FFE63F000000A042B8FE3F0000000000408F40000000E0B63701C000000080D2DA0C400000000000408F400C00000013000000AA0400003C0000000600000002000000000000C009FFE63F000000A042B8FE3F0000000000408F4000000000BCCFF23F000000
310
80BADEFA3F0000000000408F400C00000013000000B20400003C000000060000000200000000000000BCCFF23F00000080BADEFA3F0000000000408F4000000080704503400000004041860B400000000000408F400C00000013000000BA0400003C0000000600000002000000000000C009FFE63F000000A042B8FE3F0000
310
000000408F4000000080704503400000004041860B400000000000408F400C00000013000000C20400003C000000060000000200000000000080704503400000004041860B400000000000408F4000000040B65EF53F000000E03CDB0F400000002000408F400C00000013000000CA0400003C000000060000000200000000
310
0000C009FFE63F000000A042B8FE3F0000000000408F4000000040B65EF53F000000E03CDB0F400000002000408F400C00000013000000D20400003C0000000600000002000000000000E0B63701C000000080D2DA0C400000000000408F4000000040B65EF53F000000E03CDB0F400000002000408F400C00000013000000
310
DA0400003C000000060000000200000000000040B65EF53F000000E03CDB0F400000002000408F40000000609092C33F0000002010CA10400000000000408F400C00000013000000E20400003C0000000600000002000000000000E0B63701C000000080D2DA0C400000000000408F40000000609092C33F0000002010CA10
310
400000000000408F400C00000013000000EA0400003C0000000600000002000000000000E0B63701C000000080D2DA0C400000000000408F40000000A06BADF0BF000000C0654610400000000000408F400C00000013000000F20400003C0000000600000002000000000000609092C33F0000002010CA1040000000000040
310
8F40000000A06BADF0BF000000C0654610400000000000408F400C00000013000000FA0400003C0000000600000002000000000000C0AC450340000000E004860B40000000805FE57FBE000000C034D0F23F000000C041DEFA3F00000080F6226FBE0C00000013000000020500003C0000000600000002000000000000C034
310
D0F23F000000C041DEFA3F00000080F6226FBE00000040FBFFE63F000000E0C9B7FE3F000000406E9282BE0C000000130000000A0500003C0000000600000002000000000000C0AC450340000000E004860B40000000805FE57FBE00000040FBFFE63F000000E0C9B7FE3F000000406E9282BE0C0000001300000012050000
310
3C000000060000000200000000000040FBFFE63F000000E0C9B7FE3F000000406E9282BE000000E0E1A6CB3F00000000064F0040000000E0422E8CBE0C000000130000001A0500003C0000000600000002000000000000C0AC450340000000E004860B40000000805FE57FBE000000E0E1A6CB3F00000000064F0040000000
310
E0422E8CBE0C00000013000000220500003C0000000600000002000000000000E0E1A6CB3F00000000064F0040000000E0422E8CBE00000020CD39D3BF000000201439004000000020070092BE0C000000130000002A0500003C0000000600000002000000000000C0AC450340000000E004860B40000000805FE57FBE0000
310
0020CD39D3BF000000201439004000000020070092BE0C00000013000000320500003C000000060000000200000000000020CD39D3BF000000201439004000000020070092BE000000604787E9BF00000040E836FE3F000000205CC494BE0C000000130000003A0500003C0000000600000002000000000000C0AC45034000
310
0000E004860B40000000805FE57FBE000000604787E9BF00000040E836FE3F000000205CC494BE0C00000013000000420500003C0000000600000002000000000000C0AC450340000000E004860B40000000805FE57FBE000000002F5FF53F0000006000DB0F40000000C03F7594BE0C000000130000004A0500003C000000
310
0600000002000000000000604787E9BF00000040E836FE3F000000205CC494BE000000002F5FF53F0000006000DB0F40000000C03F7594BE0C00000013000000520500003C0000000600000002000000000000604787E9BF00000040E836FE3F000000205CC494BE000000605DE9F3BF000000C09010FA3F00000080273796
310
BE0C000000130000005A0500003C0000000600000002000000000000002F5FF53F0000006000DB0F40000000C03F7594BE000000605DE9F3BF000000C09010FA3F00000080273796BE0C00000013000000620500003C0000000600000002000000000000002F5FF53F0000006000DB0F40000000C03F7594BE000000C05696
310
C33F000000E0F1C910400000008018449FBE0C000000130000006A0500003C0000000600000002000000000000605DE9F3BF000000C09010FA3F00000080273796BE000000C05696C33F000000E0F1C910400000008018449FBE0C00000013000000720500003C0000000600000002000000000000605DE9F3BF000000C090
310
10FA3F00000080273796BE0000000075CBF9BF000000809442F43F000000C0DE4096BE0C000000130000007A0500003C0000000600000002000000000000C05696C33F000000E0F1C910400000008018449FBE0000000075CBF9BF000000809442F43F000000C0DE4096BE0C00000013000000820500003C00000006000000
310
02000000000000C05696C33F000000E0F1C910400000008018449FBE000000E0F2ACF0BF000000A047461040000000809AC1A3BE0C000000130000008A0500003C00000006000000020000000000000075CBF9BF000000809442F43F000000C0DE4096BE000000E0F2ACF0BF000000A047461040000000809AC1A3BE0C0000
310
0013000000920500003C00000006000000020000000000000075CBF9BF000000809442F43F000000C0DE4096BE000000E04A0AFEBF000000009856EA3F00000060E3E094BE0C000000130000009A0500003C0000000600000002000000000000E0F2ACF0BF000000A047461040000000809AC1A3BE000000E04A0AFEBF0000
310
00009856EA3F00000060E3E094BE0C00000013000000A20500003C0000000600000002000000000000E04A0AFEBF000000009856EA3F00000060E3E094BE000000606F3000C000000000E1F7D43F000000208F2D92BE0C00000013000000AA0500003C0000000600000002000000000000606F3000C000000000E1F7D43F00
310
0000208F2D92BE000000E004F603C0000000E0A7F8C33F000000600E7F94BE0C00000013000000B20500003C0000000600000002000000000000E04A0AFEBF000000009856EA3F00000060E3E094BE000000E004F603C0000000E0A7F8C33F000000600E7F94BE0C00000013000000BA0500003C0000000600000002000000
310
000000E004F603C0000000E0A7F8C33F000000600E7F94BE00000080F08D10C0000000C00FE5E63F000000207FC3A2BE0C00000013000000C20500003C0000000600000002000000000000E04A0AFEBF000000009856EA3F00000060E3E094BE00000080F08D10C0000000C00FE5E63F000000207FC3A2BE0C000000130000
310
00CA0500003C0000000600000002000000000000E0F2ACF0BF000000A047461040000000809AC1A3BE00000080F08D10C0000000C00FE5E63F000000207FC3A2BE0C00000013000000D20500003C000000060000000200000000000080F08D10C0000000C00FE5E63F000000207FC3A2BE000000C09B210EC00000002090BC
310
FD3F0000002056BEA5BE0C00000013000000DA0500003C0000000600000002000000000000E0F2ACF0BF000000A047461040000000809AC1A3BE000000C09B210EC00000002090BCFD3F0000002056BEA5BE0C00000013000000E20500003C0000000600000002000000000000E0F2ACF0BF000000A047461040000000809A
310
C1A3BE000000A07A3701C00000002096DA0C4000000000D142A6BE0C00000013000000EA0500003C0000000600000002000000000000C09B210EC00000002090BCFD3F0000002056BEA5BE000000A07A3701C00000002096DA0C4000000000D142A6BE0C00000013000000F20500003C0000000600000002000000000000C0
310
9B210EC00000002090BCFD3F0000002056BEA5BE000000C066AF08C0000000E077CB06400000008027F1A6BE0C00000013000000FA0500003C0000000600000002000000000000A07A3701C00000002096DA0C4000000000D142A6BE000000C066AF08C0000000E077CB06400000008027F1A6BE0C00000013000000020600
310
003C0000000600000002000000000000E004F603C0000000E0A7F8C33F000000600E7F94BE000000C0E85908C000000000B62607C000000000F08D52BE0C000000130000000A0600003C0000000600000002000000000000E004F603C0000000E0A7F8C33F000000600E7F94BE000000A035FAFCBF00000040E192FBBF0000
310
0000FEB345BE0C00000013000000120600003C0000000600000002000000000000C0E85908C000000000B62607C000000000F08D52BE000000A035FAFCBF00000040E192FBBF00000000FEB345BE0C000000130000001A0600003C0000000600000002000000000000A035FAFCBF00000040E192FBBF00000000FEB345BE00
310
0000005C7001C00000000059B80CC000000000D5CD853E0C00000013000000220600003C0000000600000002000000000000C0E85908C000000000B62607C000000000F08D52BE000000005C7001C00000000059B80CC000000000D5CD853E0C000000130000002A0600003C00000006000000020000000000008066E631C0
310
000000C0333301C0000000A0F170BEBE0000008066E631C000000040000018C0000000600000B7BE0C00000013000000320600003C00000006000000020000000000008066E631C000000040000018C0000000600000B7BE00000000000032C000000020000020C000000040E653B3BE0C000000130000003A0600003C0000
310
0006000000020000000000008066E631C0000000C0333301C0000000A0F170BEBE00000000000032C000000020000020C000000040E653B3BE0C00000013000000420600003C00000006000000020000000000008066E631C0000000C0333301C0000000A0F170BEBE00000000000034C0000000E0333301C0000000600040
310
C1BE0C000000130000004A0600003C000000060000000200000000000000000032C000000020000020C000000040E653B3BE00000000000034C0000000E0333301C0000000600040C1BE0C00000013000000520600003C000000060000000200000000000000000032C000000020000020C000000040E653B3BE0000000000
310
0032C0000000E00B0B2EC000000080C50697BE0C000000130000005A0600003C000000060000000200000000000000000032C0000000E00B0B2EC000000080C50697BE000000E0FFFF33C0000000C099D933C000000000C08D52BE0C00000013000000620600003C000000060000000200000000000000000032C000000020
310
000020C000000040E653B3BE000000E0FFFF33C0000000C099D933C000000000C08D52BE0C000000130000006A0600003C000000060000000200000000000000000034C0000000E0333301C0000000600040C1BE000000E0FFFF33C0000000C099D933C000000000C08D52BE0C00000013000000720600003C000000060000
310
0002000000000000C0E85908C000000000B62607C000000000F08D52BE000000C05F241FC000000000773A13C000000080C80697BE0C000000130000007A0600003C0000000600000002000000000000C0E85908C000000000B62607C000000000F08D52BE000000E0FFFF33C0000000C099D933C000000000C08D52BE0C00
310
000013000000820600003C0000000600000002000000000000E0FFFF33C0000000C099D933C000000000C08D52BE000000C05F241FC000000000773A13C000000080C80697BE0C000000130000008A0600003C000000060000000200000000000000000032C0000000E00B0B2EC000000080C50697BE000000C05F241FC000
310
000000773A13C000000080C80697BE0C00000013000000920600003C000000060000000200000000000040E0831BC0000000A0A135FF3F00000080B010B1BE000000C0AD881CC0000000801B18DFBF000000C05CB2A9BE0C000000130000009A0600003C0000000600000002000000000000C0AD881CC0000000801B18DFBF
310
000000C05CB2A9BE000000E05F241FC0000000C0763A1340000000C0B356B8BE0C00000013000000A20600003C000000060000000200000000000040E0831BC0000000A0A135FF3F00000080B010B1BE000000E05F241FC0000000C0763A1340000000C0B356B8BE0C00000013000000AA0600003C00000006000000020000
310
0000000040E0831BC0000000A0A135FF3F00000080B010B1BE000000E0A92D1AC0000000E00F941940000000802E02B9BE0C00000013000000B20600003C0000000600000002000000000000E05F241FC0000000C0763A1340000000C0B356B8BE000000E0A92D1AC0000000E00F941940000000802E02B9BE0C0000001300
310
0000BA0600003C0000000600000002000000000000E05F241FC0000000C0763A1340000000C0B356B8BE00000000000032C0000000A00B0B2E400000000060E9CFBE0C00000013000000C20600003C000000060000000200000000000000000032C0000000A00B0B2E400000000060E9CFBE00000020000034C00000008099
310
D93340000000E05841D3BE0C00000013000000CA0600003C0000000600000002000000000000E05F241FC0000000C0763A1340000000C0B356B8BE00000020000034C00000008099D93340000000E05841D3BE0C00000013000000D20600003C0000000600000002000000000000E0A92D1AC0000000E00F94194000000080
310
2E02B9BE00000020000034C00000008099D93340000000E05841D3BE0C00000013000000DA0600003C0000000600000002000000000000E05F241FC0000000C0763A1340000000C0B356B8BE0000008067BF20C00000008007810D40000000601450B7BE0C00000013000000E20600003C0000000600000002000000000000
310
C0AD881CC0000000801B18DFBF000000C05CB2A9BE0000008067BF20C00000008007810D40000000601450B7BE0C00000013000000EA0600003C0000000600000002000000000000C0AD881CC0000000801B18DFBF000000C05CB2A9BE000000E001341AC0000000800AEC06C0000000E0427E9CBE0C00000013000000F206
310
00003C0000000600000002000000000000C05F241FC000000000773A13C000000080C80697BE000000E001341AC0000000800AEC06C0000000E0427E9CBE0C00000013000000FA0600003C0000000600000002000000000000C05F241FC000000000773A13C000000080C80697BE000000C0AD881CC0000000801B18DFBF00
310
0000C05CB2A9BE0C00000013000000020700003C0000000600000002000000000000C05F241FC000000000773A13C000000080C80697BE0000008067BF20C00000000008810DC0000000C0011DA2BE0C000000130000000A0700003C0000000600000002000000000000C0AD881CC0000000801B18DFBF000000C05CB2A9BE
310
0000008067BF20C00000000008810DC0000000C0011DA2BE0C00000013000000120700003C00000006000000020000000000008067BF20C00000008007810D40000000601450B7BE0000008067BF20C00000000008810DC0000000C0011DA2BE0C000000130000001A0700003C00000006000000020000000000008067BF20
310
C00000000008810DC0000000C0011DA2BE00000080C39A21C000000080ECFC03C000000000175EA8BE0C00000013000000220700003C00000006000000020000000000008067BF20C00000008007810D40000000601450B7BE00000080C39A21C000000080ECFC03C000000000175EA8BE0C000000130000002A0700003C00
310
000006000000020000000000008067BF20C00000008007810D40000000601450B7BE00000080C39A21C000000000ECFC03400000008082D7B5BE0C00000013000000320700003C000000060000000200000000000080C39A21C000000080ECFC03C000000000175EA8BE00000080C39A21C000000000ECFC03400000008082
310
D7B5BE0C000000130000003A0700003C000000060000000200000000000080C39A21C000000080ECFC03C000000000175EA8BE00000000142022C0000000803E2EF4BF000000001328AEBE0C00000013000000420700003C000000060000000200000000000080C39A21C000000000ECFC03400000008082D7B5BE00000000
310
142022C0000000803E2EF4BF000000001328AEBE0C000000130000004A0700003C000000060000000200000000000080C39A21C000000000ECFC03400000008082D7B5BE00000000142022C0000000403D2EF43F000000402FF4B3BE0C00000013000000520700003C000000060000000200000000000000142022C0000000
310
803E2EF4BF000000001328AEBE00000000142022C0000000403D2EF43F000000402FF4B3BE0C000000130000005A0700003C000000060000000200000000000000142022C0000000803E2EF4BF000000001328AEBE000000E0CC4C22C000000040274DA2BE0000006054AFB1BE0C00000013000000620700003C0000000600
310
00000200000000000000142022C0000000403D2EF43F000000402FF4B3BE000000E0CC4C22C000000040274DA2BE0000006054AFB1BE0C000000130000006A0700003C0000000600000002000000000000E001341AC0000000800AEC06C0000000E0427E9CBE000000E0E1AF10C000000020561EDFBF00000000437E9CBE0C
310
00000013000000720700003C0000000600000002000000000000C05F241FC000000000773A13C000000080C80697BE000000E0E1AF10C000000020561EDFBF00000000437E9CBE0C000000130000007A0700003C0000000600000002000000000000C0E85908C000000000B62607C000000000F08D52BE000000E0E1AF10C0
310
00000020561EDFBF00000000437E9CBE0C00000013000000820700003C000000060000000200000000000080F08D10C0000000C00FE5E63F000000207FC3A2BE000000E0E1AF10C000000020561EDFBF00000000437E9CBE0C000000130000008A0700003C0000000600000002000000000000E004F603C0000000E0A7F8C3
310
3F000000600E7F94BE000000E0E1AF10C000000020561EDFBF00000000437E9CBE0C00000013000000920700003C000000060000000200000000000020819819400000000052291A4000000000647E51BE000000003DF01340000000000E81144000000000647E51BE0C000000130000009A0700003C000000060000000200
310
0000000000003DF01340000000000E81144000000000647E51BE00000020A4B1074000000060EB071A40000000A0186A9BBE0C00000013000000A20700003C000000060000000200000000000020819819400000000052291A4000000000647E51BE00000020A4B1074000000060EB071A40000000A0186A9BBE0C00000013
310
000000AA0700003C000000060000000200000000000020A4B1074000000060EB071A40000000A0186A9BBE000000201EEBE23F0000006087801C40000000403B42A9BE0C00000013000000B20700003C000000060000000200000000000020819819400000000052291A4000000000647E51BE000000201EEBE23F00000060
310
87801C40000000403B42A9BE0C00000013000000BA0700003C000000060000000200000000000020819819400000000052291A4000000000647E51BE000000E05DFF13400000006063A71E4000000000A79894BE0C00000013000000C20700003C0000000600000002000000000000201EEBE23F0000006087801C40000000
310
403B42A9BE000000E05DFF13400000006063A71E4000000000A79894BE0C00000013000000CA0700003C0000000600000002000000000000201EEBE23F0000006087801C40000000403B42A9BE000000806C94FDBF000000209FA01B40000000A02EECB0BE0C00000013000000D20700003C00000006000000020000000000
310
00E05DFF13400000006063A71E4000000000A79894BE000000806C94FDBF000000209FA01B40000000A02EECB0BE0C00000013000000DA0700003C0000000600000002000000000000E05DFF13400000006063A71E4000000000A79894BE000000C0A8420B40000000A0D0FB2040000000804DA7A3BE0C00000013000000E2
310
0700003C0000000600000002000000000000806C94FDBF000000209FA01B40000000A02EECB0BE000000C0A8420B40000000A0D0FB2040000000804DA7A3BE0C00000013000000EA0700003C0000000600000002000000000000C0A8420B40000000A0D0FB2040000000804DA7A3BE000000C058F4FA3F00000040B6FC2140
310
000000C0C440ACBE0C00000013000000F20700003C0000000600000002000000000000806C94FDBF000000209FA01B40000000A02EECB0BE000000C058F4FA3F00000040B6FC2140000000C0C440ACBE0C00000013000000FA0700003C0000000600000002000000000000806C94FDBF000000209FA01B40000000A02EECB0
310
BE00000040604910C0000000607B82174000000000B53AB3BE0C00000013000000020800003C0000000600000002000000000000C058F4FA3F00000040B6FC2140000000C0C440ACBE00000040604910C0000000607B82174000000000B53AB3BE0C000000130000000A0800003C0000000600000002000000000000C058F4
310
FA3F00000040B6FC2140000000C0C440ACBE000000606860BABF000000E0804C22400000002006E2B1BE0C00000013000000120800003C000000060000000200000000000040604910C0000000607B82174000000000B53AB3BE000000606860BABF000000E0804C22400000002006E2B1BE0C000000130000001A0800003C
310
0000000600000002000000000000606860BABF000000E0804C22400000002006E2B1BE000000802A30FEBF000000E01EE82140000000C095F3B4BE0C00000013000000220800003C000000060000000200000000000040604910C0000000607B82174000000000B53AB3BE000000802A30FEBF000000E01EE82140000000C0
310
95F3B4BE0C000000130000002A0800003C000000060000000200000000000040604910C0000000607B82174000000000B53AB3BE00000060374417C000000040DAA11040000000405F47B3BE0C00000013000000320800003C0000000600000002000000000000802A30FEBF000000E01EE82140000000C095F3B4BE000000
310
60374417C000000040DAA11040000000405F47B3BE0C000000130000003A0800003C0000000600000002000000000000802A30FEBF000000E01EE82140000000C095F3B4BE0000008088C80CC0000000806CD3204000000060DA36B7BE0C00000013000000420800003C000000060000000200000000000060374417C00000
310
0040DAA11040000000405F47B3BE0000008088C80CC0000000806CD3204000000060DA36B7BE0C000000130000004A0800003C00000006000000020000000000008088C80CC0000000806CD3204000000060DA36B7BE000000C0C9AE14C0000000A01C321E40000000408C95B8BE0C00000013000000520800003C00000006
310
0000000200000000000060374417C000000040DAA11040000000405F47B3BE000000C0C9AE14C0000000A01C321E40000000408C95B8BE0C000000130000005A0800003C000000060000000200000000000040E0831BC0000000A0A135FF3F00000080B010B1BE00000060374417C000000040DAA11040000000405F47B3BE
310
0C00000013000000620800003C0000000600000002000000000000E0A92D1AC0000000E00F941940000000802E02B9BE00000060374417C000000040DAA11040000000405F47B3BE0C000000130000006A0800003C0000000600000002000000000000E0A92D1AC0000000E00F941940000000802E02B9BE000000C0C9AE14
310
C0000000A01C321E40000000408C95B8BE0C00000013000000720800003C00000006000000020000000000008066E631C0000000E0FFFF174000000020BE18C7BE00000000000032C0000000C0FFFF1F40000000A04520C9BE0C000000130000007A0800003C000000060000000200000000000000000032C0000000C0FFFF
310
1F40000000A04520C9BE00000000000030C0000000C0FFFF1F40000000607B31C7BE0C00000013000000820800003C00000006000000020000000000008066E631C0000000E0FFFF174000000020BE18C7BE00000000000030C0000000C0FFFF1F40000000607B31C7BE0C000000130000008A0800003C0000000600000002
310
00000000000000000030C0000000C0FFFF1F40000000607B31C7BE00000000000030C0000000C0FFFF174000000000B142C5BE0C00000013000000920800003C00000006000000020000000000008066E631C0000000E0FFFF174000000020BE18C7BE00000000000030C0000000C0FFFF174000000000B142C5BE0C000000
310
130000009A0800003C000000060000000200000000000000000032C0000000A00B0B2E400000000060E9CFBE00000000000032C0000000C0FFFF1F40000000A04520C9BE0C00000013000000A20800003C000000060000000200000000000020000034C00000008099D93340000000E05841D3BE00000000000032C0000000
310
C0FFFF1F40000000A04520C9BE0C00000013000000AA0800003C00000006000000020000000000008066E631C0000000E0FFFF174000000020BE18C7BE0000008066E631C0000000C032330140000000604560C3BE0C00000013000000B20800003C000000060000000200000000000000000032C0000000C0FFFF1F400000
310
00A04520C9BE0000008066E631C0000000C032330140000000604560C3BE0C00000013000000BA0800003C00000006000000020000000000008066E631C0000000C032330140000000604560C3BE00000000000034C0000000A032330140000000E0CC67C5BE0C00000013000000C20800003C000000060000000200000000
310
000000000032C0000000C0FFFF1F40000000A04520C9BE00000000000034C0000000A032330140000000E0CC67C5BE0C00000013000000CA0800003C000000060000000200000000000020000034C00000008099D93340000000E05841D3BE00000000000034C0000000A032330140000000E0CC67C5BE0C00000013000000
310
D20800003C00000006000000020000000000008066E631C000000040000018C0000000600000B7BE00000000000030C000000040000018C000000060E653B3BE0C00000013000000DA0800003C000000060000000200000000000000000032C000000020000020C000000040E653B3BE00000000000030C000000040000018
310
C000000060E653B3BE0C00000013000000E20800003C000000060000000200000000000000000030C000000040000018C000000060E653B3BE00000000000030C000000020000020C000000080A3ECAEBE0C00000013000000EA0800003C000000060000000200000000000000000032C000000020000020C000000040E653
310
B3BE00000000000030C000000020000020C000000080A3ECAEBE0C00000013000000F20800003C0000000600000002000000000000A035FAFCBF00000040E192FBBF00000000FEB345BE000000600A6FF5BF00000000FED3F8BF00000000F63D5A3E0C00000013000000FA0800003C0000000600000002000000000000600A
310
6FF5BF00000000FED3F8BF00000000F63D5A3E000000A02718EDBF000000E0C965FDBF00000020DAB37C3E0C00000013000000020900003C0000000600000002000000000000A035FAFCBF00000040E192FBBF00000000FEB345BE000000A02718EDBF000000E0C965FDBF00000020DAB37C3E0C000000130000000A090000
310
3C0000000600000002000000000000A02718EDBF000000E0C965FDBF00000020DAB37C3E000000E0AEF2DABF000000A0E20C00C000000060D982883E0C00000013000000120900003C0000000600000002000000000000A035FAFCBF00000040E192FBBF00000000FEB345BE000000E0AEF2DABF000000A0E20C00C0000000
310
60D982883E0C000000130000001A0900003C0000000600000002000000000000005C7001C00000000059B80CC000000000D5CD853E000000E0AEF2DABF000000A0E20C00C000000060D982883E0C00000013000000220900003C0000000600000002000000000000E0AEF2DABF000000A0E20C00C000000060D982883E0000
310
0040C403B83F00000080006200C0000000A0B08E903E0C000000130000002A0900003C0000000600000002000000000000005C7001C00000000059B80CC000000000D5CD853E00000040C403B83F00000080006200C0000000A0B08E903E0C00000013000000320900003C000000060000000200000000000040C403B83F00
310
000080006200C0000000A0B08E903E000000407E49E33F00000040AE59FFBF00000000D7CE933E0C000000130000003A0900003C0000000600000002000000000000005C7001C00000000059B80CC000000000D5CD853E000000407E49E33F00000040AE59FFBF00000000D7CE933E0C00000013000000420900003C000000
310
0600000002000000000000407E49E33F00000040AE59FFBF00000000D7CE933E00000020842CF13F000000A0CDF1FBBF000000400ACD953E0C000000130000004A0900003C0000000600000002000000000000005C7001C00000000059B80CC000000000D5CD853E00000020842CF13F000000A0CDF1FBBF000000400ACD95
310
3E0C00000013000000520900003C0000000600000002000000000000005C7001C00000000059B80CC000000000D5CD853E000000A0769EF2BF000000A06C2410C000000080EB33963E0C000000130000005A0900003C000000060000000200000000000020842CF13F000000A0CDF1FBBF000000400ACD953E000000A0769E
310
F2BF000000A06C2410C000000080EB33963E0C00000013000000620900003C000000060000000200000000000020842CF13F000000A0CDF1FBBF000000400ACD953E00000060269DF73F000000A0BAC3F6BF00000000E668963E0C000000130000006A0900003C0000000600000002000000000000A0769EF2BF000000A06C
310
2410C000000080EB33963E00000060269DF73F000000A0BAC3F6BF00000000E668963E0C00000013000000720900003C0000000600000002000000000000A0769EF2BF000000A06C2410C000000080EB33963E000000C0BAF8B0BF000000A043CC10C0000000603BF49F3E0C000000130000007A0900003C00000006000000
310
0200000000000060269DF73F000000A0BAC3F6BF00000000E668963E000000C0BAF8B0BF000000A043CC10C0000000603BF49F3E0C00000013000000820900003C000000060000000200000000000060269DF73F000000A0BAC3F6BF00000000E668963E00000040F98DFC3F00000060A623F0BF000000C08498953E0C0000
310
00130000008A0900003C0000000600000002000000000000C0BAF8B0BF000000A043CC10C0000000603BF49F3E00000040F98DFC3F00000060A623F0BF000000C08498953E0C00000013000000920900003C0000000600000002000000000000C0BAF8B0BF000000A043CC10C0000000603BF49F3E000000E05292F03F0000
310
00A0FA4710C000000020D0BCA33E0C000000130000009A0900003C000000060000000200000000000040F98DFC3F00000060A623F0BF000000C08498953E000000E05292F03F000000A0FA4710C000000020D0BCA33E0C00000013000000A20900003C000000060000000200000000000040F98DFC3F00000060A623F0BF00
310
0000C08498953E000000A0AFAEFF3F000000A080FAE0BF000000C02169933E0C00000013000000AA0900003C0000000600000002000000000000A0AFAEFF3F000000A080FAE0BF000000C02169933E00000000413A1040000000C08364F1BF0000008054E2A33E0C00000013000000B20900003C0000000600000002000000
310
00000040F98DFC3F00000060A623F0BF000000C08498953E00000000413A1040000000C08364F1BF0000008054E2A33E0C00000013000000BA0900003C000000060000000200000000000000413A1040000000C08364F1BF0000008054E2A33E00000020970B0D40000000C04BE400C0000000004D32A63E0C000000130000
310
00C20900003C000000060000000200000000000040F98DFC3F00000060A623F0BF000000C08498953E00000020970B0D40000000C04BE400C0000000004D32A63E0C00000013000000CA0900003C0000000600000002000000000000E05292F03F000000A0FA4710C000000020D0BCA33E00000020970B0D40000000C04BE4
310
00C0000000004D32A63E0C00000013000000D20900003C000000060000000200000000000020970B0D40000000C04BE400C0000000004D32A63E000000A0B99B07400000002088E807C0000000C0B0F5A63E0C00000013000000DA0900003C0000000600000002000000000000E05292F03F000000A0FA4710C000000020D0
310
BCA33E000000A0B99B07400000002088E807C0000000C0B0F5A63E0C00000013000000E20900003C0000000600000002000000000000E05292F03F000000A0FA4710C000000020D0BCA33E000000400E860040000000409A410DC000000000DD1EA63E0C00000013000000EA0900003C0000000600000002000000000000A0
310
B99B07400000002088E807C0000000C0B0F5A63E000000400E860040000000409A410DC000000000DD1EA63E0C00000013000000F20900003C000000060000000200000000000020836FF5BF0000002085D3F8BF0000000000408F40000000600A6FF5BF00000000FED3F8BF00000000F63D5A3E0C00000013000000FA0900
310
003C000000060000000200000000000060AEFAFCBF000000A06892FBBF0000002000408F40000000600A6FF5BF00000000FED3F8BF00000000F63D5A3E0C00000013000000020A00003C000000060000000200000000000060AEFAFCBF000000A06892FBBF0000002000408F40000000A035FAFCBF00000040E192FBBF0000
310
0000FEB345BE0C000000130000000A0A00003C0000000600000002000000000000201919EDBF000000005165FDBF0000000000408F40000000A02718EDBF000000E0C965FDBF00000020DAB37C3E0C00000013000000120A00003C000000060000000200000000000020836FF5BF0000002085D3F8BF0000000000408F4000
310
0000A02718EDBF000000E0C965FDBF00000020DAB37C3E0C000000130000001A0A00003C00000006000000020000000000002092F4DABF00000040A60C00C00000002000408F40000000E0AEF2DABF000000A0E20C00C000000060D982883E0C00000013000000220A00003C0000000600000002000000000000201919EDBF
310
000000005165FDBF0000000000408F40000000E0AEF2DABF000000A0E20C00C000000060D982883E0C000000130000002A0A00003C00000006000000020000000000008037FCB73F00000020C46100C00000002000408F4000000040C403B83F00000080006200C0000000A0B08E903E0C00000013000000320A00003C0000
310
0006000000020000000000002092F4DABF00000040A60C00C00000002000408F4000000040C403B83F00000080006200C0000000A0B08E903E0C000000130000003A0A00003C0000000600000002000000000000A08C48E33F000000603559FFBF0000002000408F40000000407E49E33F00000040AE59FFBF00000000D7CE
310
933E0C00000013000000420A00003C00000006000000020000000000008037FCB73F00000020C46100C00000002000408F40000000407E49E33F00000040AE59FFBF00000000D7CE933E0C000000130000004A0A00003C0000000600000002000000000000600B2CF13F000000E054F1FBBF0000000000408F400000002084
310
2CF13F000000A0CDF1FBBF000000400ACD953E0C00000013000000520A00003C0000000600000002000000000000A08C48E33F000000603559FFBF0000002000408F4000000020842CF13F000000A0CDF1FBBF000000400ACD953E0C000000130000005A0A00003C0000000600000002000000000000A0AD9CF73F000000E0
310
41C3F6BF0000000000408F4000000060269DF73F000000A0BAC3F6BF00000000E668963E0C00000013000000620A00003C0000000600000002000000000000600B2CF13F000000E054F1FBBF0000000000408F4000000060269DF73F000000A0BAC3F6BF00000000E668963E0C000000130000006A0A00003C000000060000
310
0002000000000000A0808DFC3F000000A02D23F0BF0000000000408F4000000040F98DFC3F00000060A623F0BF000000C08498953E0C00000013000000720A00003C0000000600000002000000000000A0AD9CF73F000000E041C3F6BF0000000000408F4000000040F98DFC3F00000060A623F0BF000000C08498953E0C00
310
0000130000007A0A00003C0000000600000002000000000000E036AEFF3F000000008FF9E0BF0000000000408F40000000A0AFAEFF3F000000A080FAE0BF000000C02169933E0C00000013000000820A00003C0000000600000002000000000000A0808DFC3F000000A02D23F0BF0000000000408F40000000A0AFAEFF3F00
310
0000A080FAE0BF000000C02169933E0C000000130000008A0A00003C0000000600000002000000000000C0223A1040000000000B64F1BF0000000000408F4000000000413A1040000000C08364F1BF0000008054E2A33E0C00000013000000920A00003C0000000600000002000000000000E036AEFF3F000000008FF9E0BF
310
0000000000408F4000000000413A1040000000C08364F1BF0000008054E2A33E0C000000130000009A0A00003C0000000600000002000000000000C05A0B0D40000000600FE400C00000002000408F4000000020970B0D40000000C04BE400C0000000004D32A63E0C00000013000000A20A00003C00000006000000020000
310
00000000C0223A1040000000000B64F1BF0000000000408F4000000020970B0D40000000C04BE400C0000000004D32A63E0C00000013000000AA0A00003C0000000600000002000000000000407D9B0740000000C04BE807C00000002000408F40000000A0B99B07400000002088E807C0000000C0B0F5A63E0C0000001300
310
0000B20A00003C0000000600000002000000000000C05A0B0D40000000600FE400C00000002000408F40000000A0B99B07400000002088E807C0000000C0B0F5A63E0C00000013000000BA0A00003C0000000600000002000000000000E0D1850040000000E05D410DC00000002000408F40000000400E860040000000409A
310
410DC000000000DD1EA63E0C00000013000000C20A00003C0000000600000002000000000000407D9B0740000000C04BE807C00000002000408F40000000400E860040000000409A410DC000000000DD1EA63E0C00000013000000CA0A00003C000000060000000200000000000020DA91F03F00000060DC4710C000000000
310
00408F40000000E05292F03F000000A0FA4710C000000020D0BCA33E0C00000013000000D20A00003C0000000600000002000000000000E0D1850040000000E05D410DC00000002000408F40000000E05292F03F000000A0FA4710C000000020D0BCA33E0C00000013000000DA0A00003C0000000600000002000000000000
310
604700B1BF0000006025CC10C00000000000408F40000000C0BAF8B0BF000000A043CC10C0000000603BF49F3E0C00000013000000E20A00003C000000060000000200000000000020DA91F03F00000060DC4710C00000000000408F40000000C0BAF8B0BF000000A043CC10C0000000603BF49F3E0C00000013000000EA0A
310
00003C000000060000000200000000000060EF9EF2BF000000804E2410C00000000000408F40000000A0769EF2BF000000A06C2410C000000080EB33963E0C00000013000000F20A00003C0000000600000002000000000000604700B1BF0000006025CC10C00000000000408F40000000A0769EF2BF000000A06C2410C000
310
000080EB33963E0C00000013000000FA0A00003C000000060000000200000000000060987001C0000000801CB80CC00000000000408F40000000005C7001C00000000059B80CC000000000D5CD853E0C00000013000000020B00003C000000060000000200000000000060EF9EF2BF000000804E2410C00000000000408F40
310
000000005C7001C00000000059B80CC000000000D5CD853E0C000000130000000A0B00003C000000060000000200000000000020255A08C0000000A0792607C00000002000408F40000000C0E85908C000000000B62607C000000000F08D52BE0C00000013000000120B00003C000000060000000200000000000060987001
310
C0000000801CB80CC00000000000408F40000000C0E85908C000000000B62607C000000000F08D52BE0C000000130000001A0B00003C000000060000000200000000000060070034C00000002092D933C00000000000408F40000000E0FFFF33C0000000C099D933C000000000C08D52BE0C00000013000000220B00003C00
310
0000060000000200000000000020255A08C0000000A0792607C00000002000408F40000000E0FFFF33C0000000C099D933C000000000C08D52BE0C000000130000002A0B00003C000000060000000200000000000080070034C000000080F73201C00000000000408F4000000000000034C0000000E0333301C00000006000
310
40C1BE0C00000013000000320B00003C000000060000000200000000000060070034C00000002092D933C00000000000408F4000000000000034C0000000E0333301C0000000600040C1BE0C000000130000003A0B00003C0000000600000002000000000000006EE631C000000060F73201C00000000000408F4000000080
310
66E631C0000000C0333301C0000000A0F170BEBE0C00000013000000420B00003C000000060000000200000000000080070034C000000080F73201C00000000000408F400000008066E631C0000000C0333301C0000000A0F170BEBE0C000000130000004A0B00003C0000000600000002000000000000006EE631C0000000
310
40E2FF17C00000002000408F400000008066E631C000000040000018C0000000600000B7BE0C00000013000000520B00003C0000000600000002000000000000006EE631C000000060F73201C00000000000408F400000008066E631C000000040000018C0000000600000B7BE0C000000130000005A0B00003C0000000600
310
00000200000000000080070030C000000000E2FF17C00000000000408F4000000000000030C000000040000018C000000060E653B3BE0C00000013000000620B00003C0000000600000002000000000000006EE631C000000040E2FF17C00000002000408F4000000000000030C000000040000018C000000060E653B3BE0C
310
000000130000006A0B00003C000000060000000200000000000080070030C000000000E2FF1FC00000000000408F4000000000000030C000000020000020C000000080A3ECAEBE0C00000013000000720B00003C000000060000000200000000000080070030C000000000E2FF17C00000000000408F4000000000000030C0
310
00000020000020C000000080A3ECAEBE0C000000130000007A0B00003C000000060000000200000000000080070032C000000020E2FF1FC00000000000408F4000000000000032C000000020000020C000000040E653B3BE0C00000013000000820B00003C000000060000000200000000000080070030C000000000E2FF1F
310
C00000000000408F4000000000000032C000000020000020C000000040E653B3BE0C000000130000008A0B00003C000000060000000200000000000080070032C0000000C0FC0A2EC00000000000408F4000000000000032C0000000E00B0B2EC000000080C50697BE0C00000013000000920B00003C000000060000000200
310
000000000080070032C000000020E2FF1FC00000000000408F4000000000000032C0000000E00B0B2EC000000080C50697BE0C000000130000009A0B00003C0000000600000002000000000000007E241FC0000000E0583A13C00000000000408F40000000C05F241FC000000000773A13C000000080C80697BE0C00000013
310
000000A20B00003C000000060000000200000000000080070032C0000000C0FC0A2EC00000000000408F40000000C05F241FC000000000773A13C000000080C80697BE0C00000013000000AA0B00003C0000000600000002000000000000A076BF20C0000000A0CB800DC00000000000408F400000008067BF20C000000000
310
08810DC0000000C0011DA2BE0C00000013000000B20B00003C0000000600000002000000000000007E241FC0000000E0583A13C00000000000408F400000008067BF20C00000000008810DC0000000C0011DA2BE0C00000013000000BA0B00003C0000000600000002000000000000A0D29A21C000000020B0FC03C0000000
310
0000408F4000000080C39A21C000000080ECFC03C000000000175EA8BE0C00000013000000C20B00003C0000000600000002000000000000A076BF20C0000000A0CB800DC00000000000408F4000000080C39A21C000000080ECFC03C000000000175EA8BE0C00000013000000CA0B00003C00000006000000020000000000
310
0000232022C0000000A0C52DF4BF0000000000408F4000000000142022C0000000803E2EF4BF000000001328AEBE0C00000013000000D20B00003C0000000600000002000000000000A0D29A21C000000020B0FC03C00000000000408F4000000000142022C0000000803E2EF4BF000000001328AEBE0C00000013000000DA
310
0B00003C000000060000000200000000000000DC4C22C0000000807E0E1E3F0000000000408F40000000E0CC4C22C000000040274DA2BE0000006054AFB1BE0C00000013000000E20B00003C000000060000000200000000000000232022C0000000A0C52DF4BF0000000000408F40000000E0CC4C22C000000040274DA2BE
310
0000006054AFB1BE0C00000013000000EA0B00003C000000060000000200000000000020232022C000000020B62EF43F0000000000408F4000000000142022C0000000403D2EF43F000000402FF4B3BE0C00000013000000F20B00003C000000060000000200000000000000DC4C22C0000000807E0E1E3F0000000000408F
310
4000000000142022C0000000403D2EF43F000000402FF4B3BE0C00000013000000FA0B00003C0000000600000002000000000000A0D29A21C00000006028FD03400000002000408F4000000080C39A21C000000000ECFC03400000008082D7B5BE0C00000013000000020C00003C0000000600000002000000000000202320
310
22C000000020B62EF43F0000000000408F4000000080C39A21C000000000ECFC03400000008082D7B5BE0C000000130000000A0C00003C0000000600000002000000000000A076BF20C0000000E043810D400000002000408F400000008067BF20C00000008007810D40000000601450B7BE0C00000013000000120C00003C
310
0000000600000002000000000000A0D29A21C00000006028FD03400000002000408F400000008067BF20C00000008007810D40000000601450B7BE0C000000130000001A0C00003C0000000600000002000000000000407E241FC000000000953A13400000000000408F40000000E05F241FC0000000C0763A1340000000C0
310
B356B8BE0C00000013000000220C00003C0000000600000002000000000000A076BF20C0000000E043810D400000002000408F40000000E05F241FC0000000C0763A1340000000C0B356B8BE0C000000130000002A0C00003C000000060000000200000000000080070032C0000000C01A0B2E400000002000408F40000000
310
00000032C0000000A00B0B2E400000000060E9CFBE0C00000013000000320C00003C0000000600000002000000000000407E241FC000000000953A13400000000000408F4000000000000032C0000000A00B0B2E400000000060E9CFBE0C000000130000003A0C00003C000000060000000200000000000080070032C00000
310
00000F0020400000000000408F4000000000000032C0000000C0FFFF1F40000000A04520C9BE0C00000013000000420C00003C000000060000000200000000000080070032C0000000C01A0B2E400000002000408F4000000000000032C0000000C0FFFF1F40000000A04520C9BE0C000000130000004A0C00003C00000006
310
0000000200000000000080070030C0000000000F0020400000000000408F4000000000000030C0000000C0FFFF1F40000000607B31C7BE0C00000013000000520C00003C000000060000000200000000000080070032C0000000000F0020400000000000408F4000000000000030C0000000C0FFFF1F40000000607B31C7BE
310
0C000000130000005A0C00003C000000060000000200000000000080070030C0000000001E0018400000000000408F4000000000000030C0000000C0FFFF174000000000B142C5BE0C00000013000000620C00003C000000060000000200000000000080070030C0000000000F0020400000000000408F4000000000000030
310
C0000000C0FFFF174000000000B142C5BE0C000000130000006A0C00003C0000000600000002000000000000006EE631C0000000001E0018400000002000408F400000008066E631C0000000E0FFFF174000000020BE18C7BE0C00000013000000720C00003C000000060000000200000000000080070030C0000000001E00
310
18400000000000408F400000008066E631C0000000E0FFFF174000000020BE18C7BE0C000000130000007A0C00003C0000000600000002000000000000E06DE631C0000000206F3301400000000000408F400000008066E631C0000000C032330140000000604560C3BE0C00000013000000820C00003C0000000600000002
310
000000000000006EE631C0000000001E0018400000002000408F400000008066E631C0000000C032330140000000604560C3BE0C000000130000008A0C00003C000000060000000200000000000080070034C0000000E06E3301400000000000408F4000000000000034C0000000A032330140000000E0CC67C5BE0C000000
310
13000000920C00003C0000000600000002000000000000E06DE631C0000000206F3301400000000000408F4000000000000034C0000000A032330140000000E0CC67C5BE0C000000130000009A0C00003C0000000600000002000000000000A0070034C000000020A1D933400000002000408F4000000020000034C0000000
310
8099D93340000000E05841D3BE0C00000013000000A20C00003C000000060000000200000000000080070034C0000000E06E3301400000000000408F4000000020000034C00000008099D93340000000E05841D3BE0C00000013000000AA0C00003C000000060000000200000000000020C82D1AC0000000202E9419400000
310
000000408F40000000E0A92D1AC0000000E00F941940000000802E02B9BE0C00000013000000B20C00003C0000000600000002000000000000A0070034C000000020A1D933400000002000408F40000000E0A92D1AC0000000E00F941940000000802E02B9BE0C00000013000000BA0C00003C000000060000000200000000
310
000000E8AE14C0000000C03A321E400000000000408F40000000C0C9AE14C0000000A01C321E40000000408C95B8BE0C00000013000000C20C00003C000000060000000200000000000020C82D1AC0000000202E9419400000000000408F40000000C0C9AE14C0000000A01C321E40000000408C95B8BE0C00000013000000
310
CA0C00003C0000000600000002000000000000E0C4C80CC0000000A07BD320400000002000408F400000008088C80CC0000000806CD3204000000060DA36B7BE0C00000013000000D20C00003C000000060000000200000000000000E8AE14C0000000C03A321E400000000000408F400000008088C80CC0000000806CD320
310
4000000060DA36B7BE0C00000013000000DA0C00003C000000060000000200000000000000A330FEBF000000002EE821400000000000408F40000000802A30FEBF000000E01EE82140000000C095F3B4BE0C00000013000000E20C00003C0000000600000002000000000000E0C4C80CC0000000A07BD32040000000200040
310
8F40000000802A30FEBF000000E01EE82140000000C095F3B4BE0C00000013000000EA0C00003C000000060000000200000000000000F567BABF00000000904C22400000000000408F40000000606860BABF000000E0804C22400000002006E2B1BE0C00000013000000F20C00003C000000060000000200000000000000A3
310
30FEBF000000002EE821400000000000408F40000000606860BABF000000E0804C22400000002006E2B1BE0C00000013000000FA0C00003C000000060000000200000000000000E0F3FA3F00000060C5FC21400000000000408F40000000C058F4FA3F00000040B6FC2140000000C0C440ACBE0C00000013000000020D0000
310
3C000000060000000200000000000000F567BABF00000000904C22400000000000408F40000000C058F4FA3F00000040B6FC2140000000C0C440ACBE0C000000130000000A0D00003C0000000600000002000000000000606C420B40000000C0DFFB20400000000000408F40000000C0A8420B40000000A0D0FB2040000000
310
804DA7A3BE0C00000013000000120D00003C000000060000000200000000000000E0F3FA3F00000060C5FC21400000000000408F40000000C0A8420B40000000A0D0FB2040000000804DA7A3BE0C000000130000001A0D00003C0000000600000002000000000000A03FFF13400000008081A71E400000002000408F400000
310
00E05DFF13400000006063A71E4000000000A79894BE0C00000013000000220D00003C0000000600000002000000000000606C420B40000000C0DFFB20400000000000408F40000000E05DFF13400000006063A71E4000000000A79894BE0C000000130000002A0D00003C0000000600000002000000000000E06298194000
310
00002070291A400000000000408F4000000020819819400000000052291A4000000000647E51BE0C00000013000000320D00003C0000000600000002000000000000A03FFF13400000008081A71E400000002000408F4000000020819819400000000052291A4000000000647E51BE0C000000130000003A0D00003C000000
310
0600000002000000000000C01EF01340000000202C8114400000000000408F40000000003DF01340000000000E81144000000000647E51BE0C00000013000000420D00003C0000000600000002000000000000E0629819400000002070291A400000000000408F40000000003DF01340000000000E81144000000000647E51
310
BE0C000000130000004A0D00003C0000000600000002000000000000A067B107400000008009081A400000000000408F4000000020A4B1074000000060EB071A40000000A0186A9BBE0C00000013000000520D00003C0000000600000002000000000000C01EF01340000000202C8114400000000000408F4000000020A4B1
310
074000000060EB071A40000000A0186A9BBE0C000000130000005A0D00003C0000000600000002000000000000802CEAE23F000000A0A5801C400000000000408F40000000201EEBE23F0000006087801C40000000403B42A9BE0C00000013000000620D00003C0000000600000002000000000000A067B107400000008009
310
081A400000000000408F40000000201EEBE23F0000006087801C40000000403B42A9BE0C000000130000006A0D00003C000000060000000200000000000060E594FDBF00000060BDA01B400000000000408F40000000806C94FDBF000000209FA01B40000000A02EECB0BE0C00000013000000720D00003C00000006000000
310
02000000000000802CEAE23F000000A0A5801C400000000000408F40000000806C94FDBF000000209FA01B40000000A02EECB0BE0C000000130000007A0D00003C0000000600000002000000000000807E4910C0000000A0998217400000000000408F4000000040604910C0000000607B82174000000000B53AB3BE0C0000
310
0013000000820D00003C000000060000000200000000000060E594FDBF00000060BDA01B400000000000408F4000000040604910C0000000607B82174000000000B53AB3BE0C000000130000008A0D00003C0000000600000002000000000000A0554417C000000080F8A110400000000000408F4000000060374417C00000
310
0040DAA11040000000405F47B3BE0C00000013000000920D00003C0000000600000002000000000000807E4910C0000000A0998217400000000000408F4000000060374417C000000040DAA11040000000405F47B3BE0C000000130000009A0D00003C000000060000000200000000000080FE831BC0000000401A36FF3F00
310
00000000408F4000000040E0831BC0000000A0A135FF3F00000080B010B1BE0C00000013000000A20D00003C0000000600000002000000000000A0554417C000000080F8A110400000000000408F4000000040E0831BC0000000A0A135FF3F00000080B010B1BE0C00000013000000AA0D00003C0000000600000002000000
310
00000000CC881CC0000000603816DFBF0000000000408F40000000C0AD881CC0000000801B18DFBF000000C05CB2A9BE0C00000013000000B20D00003C000000060000000200000000000080FE831BC0000000401A36FF3F0000000000408F40000000C0AD881CC0000000801B18DFBF000000C05CB2A9BE0C000000130000
310
00BA0D00003C00000006000000020000000000002020341AC000000000CEEB06C00000000000408F40000000E001341AC0000000800AEC06C0000000E0427E9CBE0C00000013000000C20D00003C000000060000000200000000000000CC881CC0000000603816DFBF0000000000408F40000000E001341AC0000000800AEC
310
06C0000000E0427E9CBE0C00000013000000CA0D00003C00000006000000020000000000004000B010C000000020731CDFBF0000002000408F40000000E0E1AF10C000000020561EDFBF00000000437E9CBE0C00000013000000D20D00003C00000006000000020000000000002020341AC000000000CEEB06C00000000000
310
408F40000000E0E1AF10C000000020561EDFBF00000000437E9CBE0C00000013000000DA0D00003C0000000600000002000000000000C00E8E10C00000006001E6E63F0000000000408F4000000080F08D10C0000000C00FE5E63F000000207FC3A2BE0C00000013000000E20D00003C000000060000000200000000000040
310
00B010C000000020731CDFBF0000002000408F4000000080F08D10C0000000C00FE5E63F000000207FC3A2BE0C00000013000000EA0D00003C000000060000000200000000000020D8210EC00000000009BDFD3F0000002000408F40000000C09B210EC00000002090BCFD3F0000002056BEA5BE0C00000013000000F20D00
310
003C0000000600000002000000000000C00E8E10C00000006001E6E63F0000000000408F40000000C09B210EC00000002090BCFD3F0000002056BEA5BE0C00000013000000FA0D00003C000000060000000200000000000040A3AF08C000000040B4CB06400000000000408F40000000C066AF08C0000000E077CB06400000
310
008027F1A6BE0C00000013000000020E00003C000000060000000200000000000020D8210EC00000000009BDFD3F0000002000408F40000000C066AF08C0000000E077CB06400000008027F1A6BE0C000000130000000A0E00003C0000000600000002000000000000E0B63701C000000080D2DA0C400000000000408F4000
310
0000A07A3701C00000002096DA0C4000000000D142A6BE0C00000013000000120E00003C000000060000000200000000000040A3AF08C000000040B4CB06400000000000408F40000000A07A3701C00000002096DA0C4000000000D142A6BE0C000000130000001A0E00003C0000000600000002000000000000A06BADF0BF
310
000000C0654610400000000000408F40000000E0F2ACF0BF000000A047461040000000809AC1A3BE0C00000013000000220E00003C0000000600000002000000000000E0B63701C000000080D2DA0C400000000000408F40000000E0F2ACF0BF000000A047461040000000809AC1A3BE0C000000130000002A0E00003C0000
310
000600000002000000000000609092C33F0000002010CA10400000000000408F40000000C05696C33F000000E0F1C910400000008018449FBE0C00000013000000320E00003C0000000600000002000000000000A06BADF0BF000000C0654610400000000000408F40000000C05696C33F000000E0F1C91040000000801844
310
9FBE0C000000130000003A0E00003C000000060000000200000000000040B65EF53F000000E03CDB0F400000002000408F40000000002F5FF53F0000006000DB0F40000000C03F7594BE0C00000013000000420E00003C0000000600000002000000000000609092C33F0000002010CA10400000000000408F40000000002F
310
5FF53F0000006000DB0F40000000C03F7594BE0C000000130000004A0E00003C000000060000000200000000000080704503400000004041860B400000000000408F40000000C0AC450340000000E004860B40000000805FE57FBE0C00000013000000520E00003C000000060000000200000000000040B65EF53F000000E0
310
3CDB0F400000002000408F40000000C0AC450340000000E004860B40000000805FE57FBE0C000000130000005A0E00003C000000060000000200000000000000BCCFF23F00000080BADEFA3F0000000000408F40000000C034D0F23F000000C041DEFA3F00000080F6226FBE0C00000013000000620E00003C000000060000
310
000200000000000080704503400000004041860B400000000000408F40000000C034D0F23F000000C041DEFA3F00000080F6226FBE0C000000130000006A0E00003C0000000600000002000000000000C009FFE63F000000A042B8FE3F0000000000408F4000000040FBFFE63F000000E0C9B7FE3F000000406E9282BE0C00
310
000013000000720E00003C000000060000000200000000000000BCCFF23F00000080BADEFA3F0000000000408F4000000040FBFFE63F000000E0C9B7FE3F000000406E9282BE0C000000130000007A0E00003C0000000600000002000000000000801BA3CB3F00000060424F00400000000000408F40000000E0E1A6CB3F00
310
000000064F0040000000E0422E8CBE0C00000013000000820E00003C0000000600000002000000000000C009FFE63F000000A042B8FE3F0000000000408F40000000E0E1A6CB3F00000000064F0040000000E0422E8CBE0C000000130000008A0E00003C000000060000000200000000000060B03BD3BF0000008050390040
310
0000002000408F4000000020CD39D3BF000000201439004000000020070092BE0C00000013000000920E00003C0000000600000002000000000000801BA3CB3F00000060424F00400000000000408F4000000020CD39D3BF000000201439004000000020070092BE0C000000130000009A0E00003C00000006000000020000
310
00000000003988E9BF000000006137FE3F0000002000408F40000000604787E9BF00000040E836FE3F000000205CC494BE0C00000013000000A20E00003C000000060000000200000000000060B03BD3BF00000080503900400000002000408F40000000604787E9BF00000040E836FE3F000000205CC494BE0C0000001300
310
0000AA0E00003C000000060000000200000000000020D6E9F3BF000000A00911FA3F0000000000408F40000000605DE9F3BF000000C09010FA3F00000080273796BE0C00000013000000B20E00003C0000000600000002000000000000003988E9BF000000006137FE3F0000002000408F40000000605DE9F3BF000000C090
310
10FA3F00000080273796BE0C00000013000000BA0E00003C0000000600000002000000000000C0EDCBF9BF000000600D43F43F0000002000408F400000000075CBF9BF000000809442F43F000000C0DE4096BE0C00000013000000C20E00003C000000060000000200000000000020D6E9F3BF000000A00911FA3F00000000
310
00408F400000000075CBF9BF000000809442F43F000000C0DE4096BE0C00000013000000CA0E00003C0000000600000002000000000000A0C30AFEBF000000C08957EA3F0000000000408F40000000E04A0AFEBF000000009856EA3F00000060E3E094BE0C00000013000000D20E00003C0000000600000002000000000000
310
C0EDCBF9BF000000600D43F43F0000002000408F40000000E04A0AFEBF000000009856EA3F00000060E3E094BE0C00000013000000DA0E00003C0000000600000002000000000000C0AB3000C000000040C4F9D43F0000000000408F40000000606F3000C000000000E1F7D43F000000208F2D92BE0C00000013000000E20E
310
00003C0000000600000002000000000000A0C30AFEBF000000C08957EA3F0000000000408F40000000606F3000C000000000E1F7D43F000000208F2D92BE0C00000013000000EA0E00003C00000006000000020000000000006041F603C0000000406EFCC33F0000000000408F40000000E004F603C0000000E0A7F8C33F00
310
0000600E7F94BE0C00000013000000F20E00003C0000000600000002000000000000C0AB3000C000000040C4F9D43F0000000000408F40000000E004F603C0000000E0A7F8C33F000000600E7F94BE0C00000013000000FA0E00003C00000006000000020000000000006041F603C0000000406EFCC33F0000000000408F40
310
000000A035FAFCBF00000040E192FBBF00000000FEB345BE
100
AcDbSubDMesh
 71
     2
 72
     0
 91
        0
 92
      162
 10
4.05677318572998
 20
-1.08692455291748
 30
1000.0
 10
1.980032801628112
 20
-0.5304636955261231
 30
1000.0
 10
1.784546494483947
 20
-1.008588433265686
 30
1000.0
 10
1.475751519203186
 20
-1.422670245170593
 30
1000.0
 10
1.073253035545349
 20
-1.746418833732604
 30
1000.0
 10
0.6026061177253724
 20
-1.959279417991638
 30
1000.000061035156
 10
3.630544185638427
 20
-2.111357450485229
 30
1000.000061035156
 10
0.0936922729015351
 20
-2.04773736000061
 30
1000.000061035156
 10
2.950922489166259
 20
-2.988425731658935
 30
1000.000061035156
 10
-0.4211774170398713
 20
-2.006176471710205
 30
1000.000061035156
 10
2.065341711044311
 20
-3.656917333602905
 30
1000.000061035156
 10
-0.9093137383460998
 20
-1.837235450744628
 30
1000.0
 10
1.035608410835266
 20
-4.070176601409912
 30
1000.0
 10
-1.339724659919738
 20
-1.551640629768371
 30
1000.0
 10
-1.811201453208923
 20
-1.723244309425354
 30
1000.000061035156
 10
-2.179978132247924
 20
-3.589898109436035
 30
1000.0
 10
-1.163802504539489
 20
-4.035455703735351
 30
1000.0
 10
-0.0664105042815209
 20
-4.199361324310302
 30
1000.0
 10
-2.49524188041687
 20
0.156141072511673
 30
1000.0
 10
-4.138728141784667
 20
0.7155768275260926
 30
1000.0
 10
-4.171875953674316
 20
-0.4861114323139191
 30
1000.000061035156
 10
-7.785636901855468
 20
-4.806979656219482
 30
1000.0
 10
-18.00011444091797
 20
-15.02145957946777
 30
1000.0
 10
-20.00011253356934
 20
-19.84988594055176
 30
1000.0
 10
-3.044016122817993
 20
-2.893786668777465
 30
1000.000061035156
 10
-6.550903797149658
 20
-2.865139007568359
 30
1000.0
 10
-7.133590698242187
 20
-0.4857312142848969
 30
1000.0
 10
-6.878900527954101
 20
1.950708627700805
 30
1000.0
 10
-8.373951911926269
 20
-3.687888383865356
 30
1000.0
 10
-8.802388191223144
 20
-2.498382806777954
 30
1000.0
 10
-9.062767028808593
 20
-1.261174798011779
 30
1000.0
 10
-5.816732883453369
 20
4.158174514770507
 30
1000.0
 10
-8.373951911926269
 20
3.688117742538452
 30
1000.000061035156
 10
-8.802388191223144
 20
2.498612165451049
 30
1000.000061035156
 10
-9.06276798248291
 20
1.261404156684875
 30
1000.0
 10
-9.150115966796875
 20
0.0001146568974946
 30
1000.0
 10
-17.90011596679687
 20
-5.999886512756347
 30
1000.000061035156
 10
-18.00011444091797
 20
-7.999886035919189
 30
1000.0
 10
-16.00011444091797
 20
-7.999885559082031
 30
1000.0
 10
-16.00011444091797
 20
-5.999885559082031
 30
1000.0
 10
-17.90011596679687
 20
-2.149885892868041
 30
1000.0
 10
-20.00011444091797
 20
-2.149886131286621
 30
1000.0
 10
-6.544708728790283
 20
6.394707202911376
 30
1000.0
 10
-4.071771621704101
 20
5.877539157867431
 30
1000.0
 10
-1.848851561546325
 20
6.906972408294677
 30
1000.0
 10
-1.886874198913574
 20
8.953475952148437
 30
1000.0
 10
-3.598031759262084
 20
8.413052558898925
 30
1000.000061035156
 10
-5.170806884765625
 20
7.549052238464355
 30
1000.0
 10
-17.90011596679687
 20
6.000114440917968
 30
1000.000061035156
 10
-20.00011444091797
 20
2.150113821029663
 30
1000.0
 10
-17.90011405944824
 20
2.150114297866821
 30
1000.0
 10
-18.00011444091797
 20
8.000114440917968
 30
1000.0
 10
-18.00011444091797
 20
15.02168846130371
 30
1000.000061035156
 10
-20.0001163482666
 20
19.85011482238769
 30
1000.000061035156
 10
-7.785637855529785
 20
4.807209014892578
 30
1000.0
 10
-16.00011444091797
 20
6.000114440917968
 30
1000.0
 10
-16.00011444091797
 20
8.000114440917968
 30
1000.0
 10
0.5910856723785401
 20
7.125631809234619
 30
1000.0
 10
2.961623430252075
 20
6.507848739624023
 30
1000.0
 10
-0.1031487584114075
 20
9.1495361328125
 30
1000.0
 10
4.984492301940917
 20
5.126144886016845
 30
1000.0
 10
6.398814678192138
 20
6.540466785430908
 30
1000.0
 10
4.999266147613525
 20
7.663579940795898
 30
1000.000061035156
 10
3.407433271408081
 20
8.491941452026367
 30
1000.0
 10
1.684539794921875
 20
8.993693351745605
 30
1000.0
 10
-2.023765087127685
 20
0.3277445435523987
 30
1000.0
 10
-1.877627968788146
 20
0.8231858015060424
 30
1000.0
 10
-1.612287282943725
 20
1.266370177268981
 30
1000.000061035156
 10
-1.244588971138
 20
1.629159569740295
 30
1000.0
 10
-0.7978787422180176
 20
1.888520240783691
 30
1000.000061035156
 10
-3.766525506973266
 20
1.858651161193847
 30
1000.000061035156
 10
-0.300518125295639
 20
2.027985572814941
 30
1000.000061035156
 10
-3.085760593414306
 20
2.849464893341064
 30
1000.0
 10
0.2159151434898376
 20
2.038700819015502
 30
1000.0
 10
0.7186325788497925
 20
1.91998541355133
 30
1000.0
 10
-2.152204275131225
 20
3.606846809387207
 30
1000.0
 10
1.175716400146484
 20
1.679377079010009
 30
1000.0
 10
2.408905982971191
 20
3.440554141998291
 30
1000.0
 10
1.335623025894165
 20
3.982049703598022
 30
1000.000061035156
 10
0.1529102772474289
 20
4.197327136993408
 30
1000.0
 10
-1.042338967323303
 20
4.068747520446777
 30
1000.0
 10
2.409020900726318
 20
3.440438985824584
 30
-0.0000001188218164
 10
1.17583155632019
 20
1.679261922836303
 30
-0.0000000579963881
 10
0.7187477350234986
 20
1.919870257377624
 30
-0.000000138372144
 10
0.2160303443670273
 20
2.038585662841796
 30
-0.0000002099626357
 10
-0.3004029095172882
 20
2.027870416641235
 30
-0.0000002682225215
 10
-0.7977635264396668
 20
1.888405084609985
 30
-0.0000003094528722
 10
1.335738182067871
 20
3.981934309005737
 30
-0.0000003048480153
 10
-1.244473814964294
 20
1.629044294357299
 30
-0.0000003310359489
 10
0.1530254781246185
 20
4.197211742401123
 30
-0.0000004658996886
 10
-1.612172126770019
 20
1.266254901885986
 30
-0.000000331601484
 10
-1.042223811149597
 20
4.06863260269165
 30
-0.0000005887825409
 10
-1.87751281261444
 20
0.8230705261230468
 30
-0.000000311113439
 10
-2.023649930953979
 20
0.3276293277740478
 30
-0.0000002708727891
 10
-2.495126485824584
 20
0.1560258716344833
 30
-0.0000003054188653
 10
-4.138612747192382
 20
0.7154616117477417
 30
-0.0000005592006005
 10
-3.76641035079956
 20
1.858535885810852
 30
-0.0000006480068464
 10
-2.152089357376098
 20
3.6067316532135
 30
-0.000000663429546
 10
-3.085645198822021
 20
2.849349737167358
 30
-0.0000006837251476
 10
-3.043900966644287
 20
-2.893901824951171
 30
-0.000000017280172
 10
-1.811086297035217
 20
-1.72335934638977
 30
-0.0000000101062909
 10
-2.179862976074218
 20
-3.59001350402832
 30
0.0000001624526931
 10
-17.9000015258789
 20
-2.150001049041748
 30
-0.000001814436132
 10
-17.9000015258789
 20
-6.000000953674316
 30
-0.0000013709071709
 10
-18.0
 20
-8.000000953674316
 30
-0.0000011520226053
 10
-20.0
 20
-2.150001287460327
 30
-0.0000020563609269
 10
-18.0
 20
-15.02157497406006
 30
-0.0000003431208597
 10
-19.99999809265137
 20
-19.85000228881836
 30
-0.0000000172794898
 10
-7.785521507263183
 20
-4.807094573974609
 30
-0.0000003431215418
 10
-6.878785133361816
 20
1.950593590736389
 30
-0.0000010171647773
 10
-7.133475303649902
 20
-0.4858464002609253
 30
-0.0000007658221648
 10
-7.785521984100341
 20
4.807093620300292
 30
-0.0000014506983916
 10
-6.544593334197998
 20
6.394591808319091
 30
-0.0000014906240722
 10
-18.0
 20
15.02157306671142
 30
-0.000003804161679
 10
-20.00000190734863
 20
19.84999847412109
 30
-0.0000045908122956
 10
-8.373836517333984
 20
3.688002586364746
 30
-0.0000013895518123
 10
-6.550788402557373
 20
-2.865254402160644
 30
-0.0000004245818843
 10
-8.373836517333984
 20
-3.688003540039062
 30
-0.0000005398186431
 10
-8.802272796630859
 20
-2.49849796295166
 30
-0.0000007262092367
 10
-8.802272796630859
 20
2.498497009277343
 30
-0.0000013018748177
 10
-9.062652587890625
 20
-1.261290073394775
 30
-0.0000008987349247
 10
-9.062652587890625
 20
1.261288881301879
 30
-0.0000011893419014
 10
-9.150000572204589
 20
-0.0000005454236316
 30
-0.0000010541010624
 10
-4.171760082244873
 20
-0.4862265884876252
 30
-0.0000004245819127
 10
6.398930072784423
 20
6.540351867675781
 30
-0.0000000162922902
 10
4.984607696533203
 20
5.126029968261718
 30
-0.0000000162922902
 10
2.96173882484436
 20
6.507733821868896
 30
-0.0000004085069634
 10
0.5912008881568909
 20
7.125516414642333
 30
-0.0000007527684147
 10
4.99938154220581
 20
7.663465023040771
 30
-0.0000003069087597
 10
-1.84873628616333
 20
6.906857013702392
 30
-0.0000010086647535
 10
3.407548427581787
 20
8.491826057434082
 30
-0.000000585720727
 10
1.684654951095581
 20
8.99357795715332
 30
-0.000000842005079
 10
-4.071656227111816
 20
5.877423763275146
 30
-0.0000011461570466
 10
-0.1030335649847984
 20
9.149420738220214
 30
-0.0000010659042573
 10
-1.886759281158447
 20
8.953360557556152
 30
-0.0000012488069387
 10
-5.816617488861083
 20
4.158059120178222
 30
-0.0000011491058558
 10
-3.597916603088378
 20
8.41293716430664
 30
-0.0000013836782955
 10
-5.170691490173339
 20
7.548937320709228
 30
-0.0000014653307971
 10
-17.9000015258789
 20
5.999999523162841
 30
-0.0000027533353659
 10
-18.0
 20
7.999999046325683
 30
-0.0000029952600471
 10
-16.0
 20
7.999999046325683
 30
-0.0000027648554806
 10
-16.0
 20
5.999999046325683
 30
-0.0000025344506867
 10
-17.9000015258789
 20
2.149999141693115
 30
-0.0000023098061774
 10
-20.0
 20
2.149998903274536
 30
-0.0000025517308586
 10
-16.0
 20
-6.000000953674316
 30
-0.000001152022719
 10
-16.0
 20
-8.000000953674316
 30
-0.0000009216180388
 10
-1.339609503746032
 20
-1.551755905151367
 30
0.0000000244397995
 10
-0.9091985821723937
 20
-1.837350726127624
 30
0.0000001069253202
 10
-0.4210622012615204
 20
-2.006291627883911
 30
0.000000182622145
 10
0.0938074737787247
 20
-2.047852516174316
 30
0.0000002467242268
 10
0.6027213335037232
 20
-1.959394693374633
 30
0.0000002951617262
 10
1.073368191719055
 20
-1.746533989906311
 30
0.0000003248592861
 10
-1.163687348365783
 20
-4.035570621490478
 30
0.0000003308476835
 10
1.475866675376892
 20
-1.422785401344299
 30
0.0000003339314389
 10
-0.0662953108549118
 20
-4.199476718902587
 30
0.0000004761521666
 10
1.784661531448364
 20
-1.008703589439392
 30
0.0000003218021334
 10
1.035723567008972
 20
-4.070291996002197
 30
0.0000005882248502
 10
1.980147957801818
 20
-0.5305789113044739
 30
0.0000002892415409
 10
4.056888580322265
 20
-1.087039709091186
 30
0.0000005925924143
 10
3.630659341812133
 20
-2.111472606658935
 30
0.0000006615068742
 10
2.951037645339965
 20
-2.988540887832641
 30
0.000000684253223
 10
2.065456867218017
 20
-3.657032489776611
 30
0.0000006592440513
 93
     1280
 90
        3
 90
        0
 90
        1
 90
        2
 90
        3
 90
        0
 90
        2
 90
        3
 90
        3
 90
        0
 90
        3
 90
        4
 90
        3
 90
        0
 90
        4
 90
        5
 90
        3
 90
        6
 90
        0
 90
        5
 90
        3
 90
        6
 90
        5
 90
        7
 90
        3
 90
        8
 90
        6
 90
        7
 90
        3
 90
        8
 90
        7
 90
        9
 90
        3
 90
       10
 90
        8
 90
        9
 90
        3
 90
       10
 90
        9
 90
       11
 90
        3
 90
       12
 90
       10
 90
       11
 90
        3
 90
       11
 90
       13
 90
       14
 90
        3
 90
       11
 90
       14
 90
       15
 90
        3
 90
       12
 90
       11
 90
       15
 90
        3
 90
       12
 90
       15
 90
       16
 90
        3
 90
       17
 90
       12
 90
       16
 90
        3
 90
       18
 90
       19
 90
       20
 90
        3
 90
       18
 90
       20
 90
       21
 90
        3
 90
       21
 90
       22
 90
       23
 90
        3
 90
       21
 90
       23
 90
       24
 90
        3
 90
       18
 90
       21
 90
       24
 90
        3
 90
       21
 90
       20
 90
       25
 90
        3
 90
       21
 90
       25
 90
       26
 90
        3
 90
       21
 90
       26
 90
       27
 90
        3
 90
       28
 90
       21
 90
       27
 90
        3
 90
       29
 90
       28
 90
       27
 90
        3
 90
       30
 90
       29
 90
       27
 90
        3
 90
       27
 90
       31
 90
       32
 90
        3
 90
       27
 90
       32
 90
       33
 90
        3
 90
       30
 90
       27
 90
       33
 90
        3
 90
       30
 90
       33
 90
       34
 90
        3
 90
       35
 90
       30
 90
       34
 90
        3
 90
       18
 90
       24
 90
       15
 90
        3
 90
       18
 90
       15
 90
       14
 90
        3
 90
       36
 90
       37
 90
       38
 90
        3
 90
       36
 90
       38
 90
       39
 90
        3
 90
       23
 90
       22
 90
       37
 90
        3
 90
       37
 90
       36
 90
       40
 90
        3
 90
       37
 90
       40
 90
       41
 90
        3
 90
       23
 90
       37
 90
       41
 90
        3
 90
       42
 90
       31
 90
       43
 90
        3
 90
       43
 90
       44
 90
       45
 90
        3
 90
       43
 90
       45
 90
       46
 90
        3
 90
       42
 90
       43
 90
       46
 90
        3
 90
       42
 90
       46
 90
       47
 90
        3
 90
       48
 90
       49
 90
       50
 90
        3
 90
       49
 90
       48
 90
       51
 90
        3
 90
       49
 90
       51
 90
       52
 90
        3
 90
       53
 90
       49
 90
       52
 90
        3
 90
       53
 90
       52
 90
       54
 90
        3
 90
       42
 90
       53
 90
       54
 90
        3
 90
       54
 90
       32
 90
       31
 90
        3
 90
       54
 90
       31
 90
       42
 90
        3
 90
       51
 90
       48
 90
       55
 90
        3
 90
       51
 90
       55
 90
       56
 90
        3
 90
       45
 90
       44
 90
       57
 90
        3
 90
       45
 90
       57
 90
       58
 90
        3
 90
       59
 90
       45
 90
       58
 90
        3
 90
       58
 90
       60
 90
       61
 90
        3
 90
       58
 90
       61
 90
       62
 90
        3
 90
       59
 90
       58
 90
       62
 90
        3
 90
       59
 90
       62
 90
       63
 90
        3
 90
       64
 90
       59
 90
       63
 90
        3
 90
       18
 90
       65
 90
       66
 90
        3
 90
       18
 90
       66
 90
       67
 90
        3
 90
       19
 90
       18
 90
       67
 90
        3
 90
       19
 90
       67
 90
       68
 90
        3
 90
       19
 90
       68
 90
       69
 90
        3
 90
       70
 90
       19
 90
       69
 90
        3
 90
       70
 90
       69
 90
       71
 90
        3
 90
       72
 90
       70
 90
       71
 90
        3
 90
       72
 90
       71
 90
       73
 90
        3
 90
       72
 90
       73
 90
       74
 90
        3
 90
       75
 90
       72
 90
       74
 90
        3
 90
       74
 90
       76
 90
       77
 90
        3
 90
       74
 90
       77
 90
       78
 90
        3
 90
       75
 90
       74
 90
       78
 90
        3
 90
       75
 90
       78
 90
       79
 90
        3
 90
       80
 90
       75
 90
       79
 90
        3
 90
       81
 90
       82
 90
       83
 90
        3
 90
       81
 90
       83
 90
       84
 90
        3
 90
       81
 90
       84
 90
       85
 90
        3
 90
       81
 90
       85
 90
       86
 90
        3
 90
       87
 90
       81
 90
       86
 90
        3
 90
       87
 90
       86
 90
       88
 90
        3
 90
       89
 90
       87
 90
       88
 90
        3
 90
       89
 90
       88
 90
       90
 90
        3
 90
       91
 90
       89
 90
       90
 90
        3
 90
       91
 90
       90
 90
       92
 90
        3
 90
       92
 90
       93
 90
       94
 90
        3
 90
       92
 90
       94
 90
       95
 90
        3
 90
       91
 90
       92
 90
       95
 90
        3
 90
       91
 90
       95
 90
       96
 90
        3
 90
       97
 90
       91
 90
       96
 90
        3
 90
       97
 90
       96
 90
       98
 90
        3
 90
       99
 90
       94
 90
      100
 90
        3
 90
       99
 90
      100
 90
      101
 90
        3
 90
      102
 90
      103
 90
      104
 90
        3
 90
      105
 90
      102
 90
      104
 90
        3
 90
      104
 90
      106
 90
      107
 90
        3
 90
      104
 90
      107
 90
      105
 90
        3
 90
      108
 90
       99
 90
      107
 90
        3
 90
      108
 90
      107
 90
      106
 90
        3
 90
      109
 90
      110
 90
      111
 90
        3
 90
      112
 90
      109
 90
      111
 90
        3
 90
      111
 90
      113
 90
      114
 90
        3
 90
      111
 90
      114
 90
      112
 90
        3
 90
      115
 90
      111
 90
      110
 90
        3
 90
      110
 90
      116
 90
      108
 90
        3
 90
      110
 90
      108
 90
      117
 90
        3
 90
      115
 90
      110
 90
      117
 90
        3
 90
      115
 90
      117
 90
      118
 90
        3
 90
      119
 90
      115
 90
      118
 90
        3
 90
      119
 90
      118
 90
      120
 90
        3
 90
      121
 90
      119
 90
      120
 90
        3
 90
      121
 90
      120
 90
      122
 90
        3
 90
      108
 90
      116
 90
      123
 90
        3
 90
       99
 90
      108
 90
      123
 90
        3
 90
      123
 90
       95
 90
       94
 90
        3
 90
      123
 90
       94
 90
       99
 90
        3
 90
      124
 90
      125
 90
      126
 90
        3
 90
      124
 90
      126
 90
      127
 90
        3
 90
      128
 90
      124
 90
      127
 90
        3
 90
      128
 90
      127
 90
      129
 90
        3
 90
      130
 90
      128
 90
      129
 90
        3
 90
      131
 90
      130
 90
      129
 90
        3
 90
      131
 90
      129
 90
      132
 90
        3
 90
      133
 90
      131
 90
      132
 90
        3
 90
      134
 90
      133
 90
      132
 90
        3
 90
      134
 90
      132
 90
      135
 90
        3
 90
      136
 90
      134
 90
      135
 90
        3
 90
      137
 90
      136
 90
      135
 90
        3
 90
      135
 90
      109
 90
      112
 90
        3
 90
      135
 90
      112
 90
      137
 90
        3
 90
      138
 90
      139
 90
      140
 90
        3
 90
      138
 90
      140
 90
      141
 90
        3
 90
      114
 90
      113
 90
      139
 90
        3
 90
      139
 90
      138
 90
      142
 90
        3
 90
      139
 90
      142
 90
      143
 90
        3
 90
      114
 90
      139
 90
      143
 90
        3
 90
      104
 90
      103
 90
      144
 90
        3
 90
      104
 90
      144
 90
      145
 90
        3
 90
      100
 90
      146
 90
      147
 90
        3
 90
      100
 90
      147
 90
      148
 90
        3
 90
      101
 90
      100
 90
      148
 90
        3
 90
      101
 90
      148
 90
      149
 90
        3
 90
      101
 90
      149
 90
      150
 90
        3
 90
      101
 90
      150
 90
      151
 90
        3
 90
      152
 90
      101
 90
      151
 90
        3
 90
      152
 90
      151
 90
      153
 90
        3
 90
      154
 90
      152
 90
      153
 90
        3
 90
      154
 90
      153
 90
      155
 90
        3
 90
      156
 90
      154
 90
      155
 90
        3
 90
      155
 90
      157
 90
      158
 90
        3
 90
      155
 90
      158
 90
      159
 90
        3
 90
      156
 90
      155
 90
      159
 90
        3
 90
      156
 90
      159
 90
      160
 90
        3
 90
      161
 90
      156
 90
      160
 90
        3
 90
       14
 90
       13
 90
      146
 90
        3
 90
      146
 90
      100
 90
       14
 90
        3
 90
       13
 90
       11
 90
      147
 90
        3
 90
      147
 90
      146
 90
       13
 90
        3
 90
       11
 90
        9
 90
      148
 90
        3
 90
      148
 90
      147
 90
       11
 90
        3
 90
        9
 90
        7
 90
      149
 90
        3
 90
      149
 90
      148
 90
        9
 90
        3
 90
        7
 90
        5
 90
      150
 90
        3
 90
      150
 90
      149
 90
        7
 90
        3
 90
        5
 90
        4
 90
      151
 90
        3
 90
      151
 90
      150
 90
        5
 90
        3
 90
        4
 90
        3
 90
      153
 90
        3
 90
      153
 90
      151
 90
        4
 90
        3
 90
        3
 90
        2
 90
      155
 90
        3
 90
      155
 90
      153
 90
        3
 90
        3
 90
        2
 90
        1
 90
      157
 90
        3
 90
      157
 90
      155
 90
        2
 90
        3
 90
        1
 90
        0
 90
      158
 90
        3
 90
      158
 90
      157
 90
        1
 90
        3
 90
        0
 90
        6
 90
      159
 90
        3
 90
      159
 90
      158
 90
        0
 90
        3
 90
        6
 90
        8
 90
      160
 90
        3
 90
      160
 90
      159
 90
        6
 90
        3
 90
        8
 90
       10
 90
      161
 90
        3
 90
      161
 90
      160
 90
        8
 90
        3
 90
       10
 90
       12
 90
      156
 90
        3
 90
      156
 90
      161
 90
       10
 90
        3
 90
       12
 90
       17
 90
      154
 90
        3
 90
      154
 90
      156
 90
       12
 90
        3
 90
       17
 90
       16
 90
      152
 90
        3
 90
      152
 90
      154
 90
       17
 90
        3
 90
       16
 90
       15
 90
      101
 90
        3
 90
      101
 90
      152
 90
       16
 90
        3
 90
       15
 90
       24
 90
       99
 90
        3
 90
       99
 90
      101
 90
       15
 90
        3
 90
       24
 90
       23
 90
      107
 90
        3
 90
      107
 90
       99
 90
       24
 90
        3
 90
       23
 90
       41
 90
      105
 90
        3
 90
      105
 90
      107
 90
       23
 90
        3
 90
       41
 90
       40
 90
      102
 90
        3
 90
      102
 90
      105
 90
       41
 90
        3
 90
       40
 90
       36
 90
      103
 90
        3
 90
      103
 90
      102
 90
       40
 90
        3
 90
       36
 90
       39
 90
      144
 90
        3
 90
      144
 90
      103
 90
       36
 90
        3
 90
       39
 90
       38
 90
      145
 90
        3
 90
      145
 90
      144
 90
       39
 90
        3
 90
       38
 90
       37
 90
      104
 90
        3
 90
      104
 90
      145
 90
       38
 90
        3
 90
       37
 90
       22
 90
      106
 90
        3
 90
      106
 90
      104
 90
       37
 90
        3
 90
       22
 90
       21
 90
      108
 90
        3
 90
      108
 90
      106
 90
       22
 90
        3
 90
       21
 90
       28
 90
      117
 90
        3
 90
      117
 90
      108
 90
       21
 90
        3
 90
       28
 90
       29
 90
      118
 90
        3
 90
      118
 90
      117
 90
       28
 90
        3
 90
       29
 90
       30
 90
      120
 90
        3
 90
      120
 90
      118
 90
       29
 90
        3
 90
       30
 90
       35
 90
      122
 90
        3
 90
      122
 90
      120
 90
       30
 90
        3
 90
       35
 90
       34
 90
      121
 90
        3
 90
      121
 90
      122
 90
       35
 90
        3
 90
       34
 90
       33
 90
      119
 90
        3
 90
      119
 90
      121
 90
       34
 90
        3
 90
       33
 90
       32
 90
      115
 90
        3
 90
      115
 90
      119
 90
       33
 90
        3
 90
       32
 90
       54
 90
      111
 90
        3
 90
      111
 90
      115
 90
       32
 90
        3
 90
       54
 90
       52
 90
      113
 90
        3
 90
      113
 90
      111
 90
       54
 90
        3
 90
       52
 90
       51
 90
      139
 90
        3
 90
      139
 90
      113
 90
       52
 90
        3
 90
       51
 90
       56
 90
      140
 90
        3
 90
      140
 90
      139
 90
       51
 90
        3
 90
       56
 90
       55
 90
      141
 90
        3
 90
      141
 90
      140
 90
       56
 90
        3
 90
       55
 90
       48
 90
      138
 90
        3
 90
      138
 90
      141
 90
       55
 90
        3
 90
       48
 90
       50
 90
      142
 90
        3
 90
      142
 90
      138
 90
       48
 90
        3
 90
       50
 90
       49
 90
      143
 90
        3
 90
      143
 90
      142
 90
       50
 90
        3
 90
       49
 90
       53
 90
      114
 90
        3
 90
      114
 90
      143
 90
       49
 90
        3
 90
       53
 90
       42
 90
      112
 90
        3
 90
      112
 90
      114
 90
       53
 90
        3
 90
       42
 90
       47
 90
      137
 90
        3
 90
      137
 90
      112
 90
       42
 90
        3
 90
       47
 90
       46
 90
      136
 90
        3
 90
      136
 90
      137
 90
       47
 90
        3
 90
       46
 90
       45
 90
      134
 90
        3
 90
      134
 90
      136
 90
       46
 90
        3
 90
       45
 90
       59
 90
      133
 90
        3
 90
      133
 90
      134
 90
       45
 90
        3
 90
       59
 90
       64
 90
      131
 90
        3
 90
      131
 90
      133
 90
       59
 90
        3
 90
       64
 90
       63
 90
      130
 90
        3
 90
      130
 90
      131
 90
       64
 90
        3
 90
       63
 90
       62
 90
      128
 90
        3
 90
      128
 90
      130
 90
       63
 90
        3
 90
       62
 90
       61
 90
      124
 90
        3
 90
      124
 90
      128
 90
       62
 90
        3
 90
       61
 90
       60
 90
      125
 90
        3
 90
      125
 90
      124
 90
       61
 90
        3
 90
       60
 90
       58
 90
      126
 90
        3
 90
      126
 90
      125
 90
       60
 90
        3
 90
       58
 90
       57
 90
      127
 90
        3
 90
      127
 90
      126
 90
       58
 90
        3
 90
       57
 90
       44
 90
      129
 90
        3
 90
      129
 90
      127
 90
       57
 90
        3
 90
       44
 90
       43
 90
      132
 90
        3
 90
      132
 90
      129
 90
       44
 90
        3
 90
       43
 90
       31
 90
      135
 90
        3
 90
      135
 90
      132
 90
       43
 90
        3
 90
       31
 90
       27
 90
      109
 90
        3
 90
      109
 90
      135
 90
       31
 90
        3
 90
       27
 90
       26
 90
      110
 90
        3
 90
      110
 90
      109
 90
       27
 90
        3
 90
       26
 90
       25
 90
      116
 90
        3
 90
      116
 90
      110
 90
       26
 90
        3
 90
       25
 90
       20
 90
      123
 90
        3
 90
      123
 90
      116
 90
       25
 90
        3
 90
       20
 90
       19
 90
       95
 90
        3
 90
       95
 90
      123
 90
       20
 90
        3
 90
       19
 90
       70
 90
       96
 90
        3
 90
       96
 90
       95
 90
       19
 90
        3
 90
       70
 90
       72
 90
       98
 90
        3
 90
       98
 90
       96
 90
       70
 90
        3
 90
       72
 90
       75
 90
       97
 90
        3
 90
       97
 90
       98
 90
       72
 90
        3
 90
       75
 90
       80
 90
       91
 90
        3
 90
       91
 90
       97
 90
       75
 90
        3
 90
       80
 90
       79
 90
       89
 90
        3
 90
       89
 90
       91
 90
       80
 90
        3
 90
       79
 90
       78
 90
       87
 90
        3
 90
       87
 90
       89
 90
       79
 90
        3
 90
       78
 90
       77
 90
       81
 90
        3
 90
       81
 90
       87
 90
       78
 90
        3
 90
       77
 90
       76
 90
       82
 90
        3
 90
       82
 90
       81
 90
       77
 90
        3
 90
       76
 90
       74
 90
       83
 90
        3
 90
       83
 90
       82
 90
       76
 90
        3
 90
       74
 90
       73
 90
       84
 90
        3
 90
       84
 90
       83
 90
       74
 90
        3
 90
       73
 90
       71
 90
       85
 90
        3
 90
       85
 90
       84
 90
       73
 90
        3
 90
       71
 90
       69
 90
       86
 90
        3
 90
       86
 90
       85
 90
       71
 90
        3
 90
       69
 90
       68
 90
       88
 90
        3
 90
       88
 90
       86
 90
       69
 90
        3
 90
       68
 90
       67
 90
       90
 90
        3
 90
       90
 90
       88
 90
       68
 90
        3
 90
       67
 90
       66
 90
       92
 90
        3
 90
       92
 90
       90
 90
       67
 90
        3
 90
       66
 90
       65
 90
       93
 90
        3
 90
       93
 90
       92
 90
       66
 90
        3
 90
       65
 90
       18
 90
       94
 90
        3
 90
       94
 90
       93
 90
       65
 90
        3
 90
       18
 90
       14
 90
      100
 90
        3
 90
      100
 90
       94
 90
       18
 94
      480
 90
        0
 90
        1
 90
        1
 90
        2
 90
        0
 90
        2
 90
        2
 90
        3
 90
        0
 90
        3
 90
        3
 90
        4
 90
        0
 90
        4
 90
        4
 90
        5
 90
        0
 90
        5
 90
        0
 90
        6
 90
        5
 90
        6
 90
        5
 90
        7
 90
        6
 90
        7
 90
        6
 90
        8
 90
        7
 90
        8
 90
        7
 90
        9
 90
        8
 90
        9
 90
        8
 90
       10
 90
        9
 90
       10
 90
        9
 90
       11
 90
       10
 90
       11
 90
       10
 90
       12
 90
       11
 90
       12
 90
       11
 90
       13
 90
       13
 90
       14
 90
       11
 90
       14
 90
       14
 90
       15
 90
       11
 90
       15
 90
       12
 90
       15
 90
       15
 90
       16
 90
       12
 90
       16
 90
       12
 90
       17
 90
       16
 90
       17
 90
       18
 90
       19
 90
       19
 90
       20
 90
       18
 90
       20
 90
       20
 90
       21
 90
       18
 90
       21
 90
       21
 90
       22
 90
       22
 90
       23
 90
       21
 90
       23
 90
       23
 90
       24
 90
       21
 90
       24
 90
       18
 90
       24
 90
       20
 90
       25
 90
       21
 90
       25
 90
       25
 90
       26
 90
       21
 90
       26
 90
       26
 90
       27
 90
       21
 90
       27
 90
       21
 90
       28
 90
       27
 90
       28
 90
       28
 90
       29
 90
       27
 90
       29
 90
       29
 90
       30
 90
       27
 90
       30
 90
       27
 90
       31
 90
       31
 90
       32
 90
       27
 90
       32
 90
       32
 90
       33
 90
       27
 90
       33
 90
       30
 90
       33
 90
       33
 90
       34
 90
       30
 90
       34
 90
       30
 90
       35
 90
       34
 90
       35
 90
       15
 90
       24
 90
       15
 90
       18
 90
       14
 90
       18
 90
       36
 90
       37
 90
       37
 90
       38
 90
       36
 90
       38
 90
       38
 90
       39
 90
       36
 90
       39
 90
       22
 90
       37
 90
       23
 90
       37
 90
       36
 90
       40
 90
       37
 90
       40
 90
       40
 90
       41
 90
       37
 90
       41
 90
       23
 90
       41
 90
       31
 90
       42
 90
       31
 90
       43
 90
       42
 90
       43
 90
       43
 90
       44
 90
       44
 90
       45
 90
       43
 90
       45
 90
       45
 90
       46
 90
       43
 90
       46
 90
       42
 90
       46
 90
       46
 90
       47
 90
       42
 90
       47
 90
       48
 90
       49
 90
       49
 90
       50
 90
       48
 90
       50
 90
       48
 90
       51
 90
       49
 90
       51
 90
       51
 90
       52
 90
       49
 90
       52
 90
       49
 90
       53
 90
       52
 90
       53
 90
       52
 90
       54
 90
       53
 90
       54
 90
       42
 90
       53
 90
       42
 90
       54
 90
       32
 90
       54
 90
       31
 90
       54
 90
       48
 90
       55
 90
       51
 90
       55
 90
       55
 90
       56
 90
       51
 90
       56
 90
       44
 90
       57
 90
       45
 90
       57
 90
       57
 90
       58
 90
       45
 90
       58
 90
       45
 90
       59
 90
       58
 90
       59
 90
       58
 90
       60
 90
       60
 90
       61
 90
       58
 90
       61
 90
       61
 90
       62
 90
       58
 90
       62
 90
       59
 90
       62
 90
       62
 90
       63
 90
       59
 90
       63
 90
       59
 90
       64
 90
       63
 90
       64
 90
       18
 90
       65
 90
       65
 90
       66
 90
       18
 90
       66
 90
       66
 90
       67
 90
       18
 90
       67
 90
       19
 90
       67
 90
       67
 90
       68
 90
       19
 90
       68
 90
       68
 90
       69
 90
       19
 90
       69
 90
       19
 90
       70
 90
       69
 90
       70
 90
       69
 90
       71
 90
       70
 90
       71
 90
       70
 90
       72
 90
       71
 90
       72
 90
       71
 90
       73
 90
       72
 90
       73
 90
       73
 90
       74
 90
       72
 90
       74
 90
       72
 90
       75
 90
       74
 90
       75
 90
       74
 90
       76
 90
       76
 90
       77
 90
       74
 90
       77
 90
       77
 90
       78
 90
       74
 90
       78
 90
       75
 90
       78
 90
       78
 90
       79
 90
       75
 90
       79
 90
       75
 90
       80
 90
       79
 90
       80
 90
       81
 90
       82
 90
       82
 90
       83
 90
       81
 90
       83
 90
       83
 90
       84
 90
       81
 90
       84
 90
       84
 90
       85
 90
       81
 90
       85
 90
       85
 90
       86
 90
       81
 90
       86
 90
       81
 90
       87
 90
       86
 90
       87
 90
       86
 90
       88
 90
       87
 90
       88
 90
       87
 90
       89
 90
       88
 90
       89
 90
       88
 90
       90
 90
       89
 90
       90
 90
       89
 90
       91
 90
       90
 90
       91
 90
       90
 90
       92
 90
       91
 90
       92
 90
       92
 90
       93
 90
       93
 90
       94
 90
       92
 90
       94
 90
       94
 90
       95
 90
       92
 90
       95
 90
       91
 90
       95
 90
       95
 90
       96
 90
       91
 90
       96
 90
       91
 90
       97
 90
       96
 90
       97
 90
       96
 90
       98
 90
       97
 90
       98
 90
       94
 90
       99
 90
       94
 90
      100
 90
       99
 90
      100
 90
      100
 90
      101
 90
       99
 90
      101
 90
      102
 90
      103
 90
      103
 90
      104
 90
      102
 90
      104
 90
      102
 90
      105
 90
      104
 90
      105
 90
      104
 90
      106
 90
      106
 90
      107
 90
      104
 90
      107
 90
      105
 90
      107
 90
       99
 90
      108
 90
       99
 90
      107
 90
      107
 90
      108
 90
      106
 90
      108
 90
      109
 90
      110
 90
      110
 90
      111
 90
      109
 90
      111
 90
      109
 90
      112
 90
      111
 90
      112
 90
      111
 90
      113
 90
      113
 90
      114
 90
      111
 90
      114
 90
      112
 90
      114
 90
      111
 90
      115
 90
      110
 90
      115
 90
      110
 90
      116
 90
      108
 90
      116
 90
      108
 90
      110
 90
      108
 90
      117
 90
      110
 90
      117
 90
      115
 90
      117
 90
      117
 90
      118
 90
      115
 90
      118
 90
      115
 90
      119
 90
      118
 90
      119
 90
      118
 90
      120
 90
      119
 90
      120
 90
      119
 90
      121
 90
      120
 90
      121
 90
      120
 90
      122
 90
      121
 90
      122
 90
      116
 90
      123
 90
      108
 90
      123
 90
       99
 90
      123
 90
       95
 90
      123
 90
       94
 90
      123
 90
      124
 90
      125
 90
      125
 90
      126
 90
      124
 90
      126
 90
      126
 90
      127
 90
      124
 90
      127
 90
      124
 90
      128
 90
      127
 90
      128
 90
      127
 90
      129
 90
      128
 90
      129
 90
      128
 90
      130
 90
      129
 90
      130
 90
      130
 90
      131
 90
      129
 90
      131
 90
      129
 90
      132
 90
      131
 90
      132
 90
      131
 90
      133
 90
      132
 90
      133
 90
      133
 90
      134
 90
      132
 90
      134
 90
      132
 90
      135
 90
      134
 90
      135
 90
      134
 90
      136
 90
      135
 90
      136
 90
      136
 90
      137
 90
      135
 90
      137
 90
      109
 90
      135
 90
      112
 90
      135
 90
      112
 90
      137
 90
      138
 90
      139
 90
      139
 90
      140
 90
      138
 90
      140
 90
      140
 90
      141
 90
      138
 90
      141
 90
      113
 90
      139
 90
      114
 90
      139
 90
      138
 90
      142
 90
      139
 90
      142
 90
      142
 90
      143
 90
      139
 90
      143
 90
      114
 90
      143
 90
      103
 90
      144
 90
      104
 90
      144
 90
      144
 90
      145
 90
      104
 90
      145
 90
      100
 90
      146
 90
      146
 90
      147
 90
      100
 90
      147
 90
      147
 90
      148
 90
      100
 90
      148
 90
      101
 90
      148
 90
      148
 90
      149
 90
      101
 90
      149
 90
      149
 90
      150
 90
      101
 90
      150
 90
      150
 90
      151
 90
      101
 90
      151
 90
      101
 90
      152
 90
      151
 90
      152
 90
      151
 90
      153
 90
      152
 90
      153
 90
      152
 90
      154
 90
      153
 90
      154
 90
      153
 90
      155
 90
      154
 90
      155
 90
      154
 90
      156
 90
      155
 90
      156
 90
      155
 90
      157
 90
      157
 90
      158
 90
      155
 90
      158
 90
      158
 90
      159
 90
      155
 90
      159
 90
      156
 90
      159
 90
      159
 90
      160
 90
      156
 90
      160
 90
      156
 90
      161
 90
      160
 90
      161
 90
       13
 90
      146
 90
       14
 90
      146
 90
       14
 90
      100
 90
       11
 90
      147
 90
       13
 90
      147
 90
        9
 90
      148
 90
       11
 90
      148
 90
        7
 90
      149
 90
        9
 90
      149
 90
        5
 90
      150
 90
        7
 90
      150
 90
        4
 90
      151
 90
        5
 90
      151
 90
        3
 90
      153
 90
        4
 90
      153
 90
        2
 90
      155
 90
        3
 90
      155
 90
        1
 90
      157
 90
        2
 90
      157
 90
        0
 90
      158
 90
        1
 90
      158
 90
        6
 90
      159
 90
        0
 90
      159
 90
        8
 90
      160
 90
        6
 90
      160
 90
       10
 90
      161
 90
        8
 90
      161
 90
       12
 90
      156
 90
       10
 90
      156
 90
       17
 90
      154
 90
       12
 90
      154
 90
       16
 90
      152
 90
       17
 90
      152
 90
       15
 90
      101
 90
       16
 90
      101
 90
       24
 90
       99
 90
       15
 90
       99
 90
       23
 90
      107
 90
       24
 90
      107
 90
       41
 90
      105
 90
       23
 90
      105
 90
       40
 90
      102
 90
       41
 90
      102
 90
       36
 90
      103
 90
       40
 90
      103
 90
       39
 90
      144
 90
       36
 90
      144
 90
       38
 90
      145
 90
       39
 90
      145
 90
       37
 90
      104
 90
       38
 90
      104
 90
       22
 90
      106
 90
       37
 90
      106
 90
       21
 90
      108
 90
       22
 90
      108
 90
       28
 90
      117
 90
       21
 90
      117
 90
       29
 90
      118
 90
       28
 90
      118
 90
       30
 90
      120
 90
       29
 90
      120
 90
       35
 90
      122
 90
       30
 90
      122
 90
       34
 90
      121
 90
       35
 90
      121
 90
       33
 90
      119
 90
       34
 90
      119
 90
       32
 90
      115
 90
       33
 90
      115
 90
       54
 90
      111
 90
       32
 90
      111
 90
       52
 90
      113
 90
       54
 90
      113
 90
       51
 90
      139
 90
       52
 90
      139
 90
       56
 90
      140
 90
       51
 90
      140
 90
       55
 90
      141
 90
       56
 90
      141
 90
       48
 90
      138
 90
       55
 90
      138
 90
       50
 90
      142
 90
       48
 90
      142
 90
       49
 90
      143
 90
       50
 90
      143
 90
       53
 90
      114
 90
       49
 90
      114
 90
       42
 90
      112
 90
       53
 90
      112
 90
       47
 90
      137
 90
       42
 90
      137
 90
       46
 90
      136
 90
       47
 90
      136
 90
       45
 90
      134
 90
       46
 90
      134
 90
       59
 90
      133
 90
       45
 90
      133
 90
       64
 90
      131
 90
       59
 90
      131
 90
       63
 90
      130
 90
       64
 90
      130
 90
       62
 90
      128
 90
       63
 90
      128
 90
       61
 90
      124
 90
       62
 90
      124
 90
       60
 90
      125
 90
       61
 90
      125
 90
       58
 90
      126
 90
       60
 90
      126
 90
       57
 90
      127
 90
       58
 90
      127
 90
       44
 90
      129
 90
       57
 90
      129
 90
       43
 90
      132
 90
       44
 90
      132
 90
       31
 90
      135
 90
       43
 90
      135
 90
       27
 90
      109
 90
       31
 90
      109
 90
       26
 90
      110
 90
       27
 90
      110
 90
       25
 90
      116
 90
       26
 90
      116
 90
       20
 90
      123
 90
       25
 90
      123
 90
       19
 90
       95
 90
       20
 90
       95
 90
       70
 90
       96
 90
       19
 90
       96
 90
       72
 90
       98
 90
       70
 90
       98
 90
       75
 90
       97
 90
       72
 90
       97
 90
       80
 90
       91
 90
       75
 90
       91
 90
       79
 90
       89
 90
       80
 90
       89
 90
       78
 90
       87
 90
       79
 90
       87
 90
       77
 90
       81
 90
       78
 90
       81
 90
       76
 90
       82
 90
       77
 90
       82
 90
       74
 90
       83
 90
       76
 90
       83
 90
       73
 90
       84
 90
       74
 90
       84
 90
       71
 90
       85
 90
       73
 90
       85
 90
       69
 90
       86
 90
       71
 90
       86
 90
       68
 90
       88
 90
       69
 90
       88
 90
       67
 90
       90
 90
       68
 90
       90
 90
       66
 90
       92
 90
       67
 90
       92
 90
       65
 90
       93
 90
       66
 90
       93
 90
       18
 90
       94
 90
       65
 90
       94
 90
       18
 90
      100
 95
      480
140
0.0
140
0.0
140
0.0
140
0.0
140
0.0
140
0.0
140
0.0
140
0.0
140
0.0
140
0.0
140
0.0
140
0.0
140
0.0
140
0.0
140
0.0
140
0.0
140
0.0
140
0.0
140
0.0
140
0.0
140
0.0
140
0.0
140
0.0
140
0.0
140
0.0
140
0.0
140
0.0
140
0.0
140
0.0
140
0.0
140
0.0
140
0.0
140
0.0
140
0.0
140
0.0
140
0.0
140
0.0
140
0.0
140
0.0
140
0.0
140
0.0
140
0.0
140
0.0
140
0.0
140
0.0
140
0.0
140
0.0
140
0.0
140
0.0
140
0.0
140
0.0
140
0.0
140
0.0
140
0.0
140
0.0
140
0.0
140
0.0
140
0.0
140
0.0
140
0.0
140
0.0
140
0.0
140
0.0
140
0.0
140
0.0
140
0.0
140
0.0
140
0.0
140
0.0
140
0.0
140
0.0
140
0.0
140
0.0
140
0.0
140
0.0
140
0.0
140
0.0
140
0.0
140
0.0
140
0.0
140
0.0
140
0.0
140
0.0
140
0.0
140
0.0
140
0.0
140
0.0
140
0.0
140
0.0
140
0.0
140
0.0
140
0.0
140
0.0
140
0.0
140
0.0
140
0.0
140
0.0
140
0.0
140
0.0
140
0.0
140
0.0
140
0.0
140
0.0
140
0.0
140
0.0
140
0.0
140
0.0
140
0.0
140
0.0
140
0.0
140
0.0
140
0.0
140
0.0
140
0.0
140
0.0
140
0.0
140
0.0
140
0.0
140
0.0
140
0.0
140
0.0
140
0.0
140
0.0
140
0.0
140
0.0
140
0.0
140
0.0
140
0.0
140
0.0
140
0.0
140
0.0
140
0.0
140
0.0
140
0.0
140
0.0
140
0.0
140
0.0
140
0.0
140
0.0
140
0.0
140
0.0
140
0.0
140
0.0
140
0.0
140
0.0
140
0.0
140
0.0
140
0.0
140
0.0
140
0.0
140
0.0
140
0.0
140
0.0
140
0.0
140
0.0
140
0.0
140
0.0
140
0.0
140
0.0
140
0.0
140
0.0
140
0.0
140
0.0
140
0.0
140
0.0
140
0.0
140
0.0
140
0.0
140
0.0
140
0.0
140
0.0
140
0.0
140
0.0
140
0.0
140
0.0
140
0.0
140
0.0
140
0.0
140
0.0
140
0.0
140
0.0
140
0.0
140
0.0
140
0.0
140
0.0
140
0.0
140
0.0
140
0.0
140
0.0
140
0.0
140
0.0
140
0.0
140
0.0
140
0.0
140
0.0
140
0.0
140
0.0
140
0.0
140
0.0
140
0.0
140
0.0
140
0.0
140
0.0
140
0.0
140
0.0
140
0.0
140
0.0
140
0.0
140
0.0
140
0.0
140
0.0
140
0.0
140
0.0
140
0.0
140
0.0
140
0.0
140
0.0
140
0.0
140
0.0
140
0.0
140
0.0
140
0.0
140
0.0
140
0.0
140
0.0
140
0.0
140
0.0
140
0.0
140
0.0
140
0.0
140
0.0
140
0.0
140
0.0
140
0.0
140
0.0
140
0.0
140
0.0
140
0.0
140
0.0
140
0.0
140
0.0
140
0.0
140
0.0
140
0.0
140
0.0
140
0.0
140
0.0
140
0.0
140
0.0
140
0.0
140
0.0
140
0.0
140
0.0
140
0.0
140
0.0
140
0.0
140
0.0
140
0.0
140
0.0
140
0.0
140
0.0
140
0.0
140
0.0
140
0.0
140
0.0
140
0.0
140
0.0
140
0.0
140
0.0
140
0.0
140
0.0
140
0.0
140
0.0
140
0.0
140
0.0
140
0.0
140
0.0
140
0.0
140
0.0
140
0.0
140
0.0
140
0.0
140
0.0
140
0.0
140
0.0
140
0.0
140
0.0
140
0.0
140
0.0
140
0.0
140
0.0
140
0.0
140
0.0
140
0.0
140
0.0
140
0.0
140
0.0
140
0.0
140
0.0
140
0.0
140
0.0
140
0.0
140
0.0
140
0.0
140
0.0
140
0.0
140
0.0
140
0.0
140
0.0
140
0.0
140
0.0
140
0.0
140
0.0
140
0.0
140
0.0
140
0.0
140
0.0
140
0.0
140
0.0
140
0.0
140
0.0
140
0.0
140
0.0
140
0.0
140
0.0
140
0.0
140
0.0
140
0.0
140
0.0
140
0.0
140
0.0
140
0.0
140
0.0
140
0.0
140
0.0
140
0.0
140
0.0
140
0.0
140
0.0
140
0.0
140
0.0
140
0.0
140
0.0
140
0.0
140
0.0
140
0.0
140
0.0
140
0.0
140
0.0
140
0.0
140
0.0
140
0.0
140
0.0
140
0.0
140
0.0
140
0.0
140
0.0
140
0.0
140
0.0
140
0.0
140
0.0
140
0.0
140
0.0
140
0.0
140
0.0
140
0.0
140
0.0
140
0.0
140
0.0
140
0.0
140
0.0
140
0.0
140
0.0
140
0.0
140
0.0
140
0.0
140
0.0
140
0.0
140
0.0
140
0.0
140
0.0
140
0.0
140
0.0
140
0.0
140
0.0
140
0.0
140
0.0
140
0.0
140
0.0
140
0.0
140
0.0
140
0.0
140
0.0
140
0.0
140
0.0
140
0.0
140
0.0
140
0.0
140
0.0
140
0.0
140
0.0
140
0.0
140
0.0
140
0.0
140
0.0
140
0.0
140
0.0
140
0.0
140
0.0
140
0.0
140
0.0
140
0.0
140
0.0
140
0.0
140
0.0
140
0.0
140
0.0
140
0.0
140
0.0
140
0.0
140
0.0
140
0.0
140
0.0
140
0.0
140
0.0
140
0.0
140
0.0
140
0.0
140
0.0
140
0.0
140
0.0
140
0.0
140
0.0
140
0.0
140
0.0
140
0.0
140
0.0
140
0.0
140
0.0
140
0.0
140
0.0
140
0.0
140
0.0
140
0.0
140
0.0
140
0.0
140
0.0
140
0.0
140
0.0
140
0.0
140
0.0
140
0.0
140
0.0
140
0.0
140
0.0
140
0.0
140
0.0
140
0.0
140
0.0
140
0.0
140
0.0
140
0.0
140
0.0
140
0.0
140
0.0
140
0.0
140
0.0
140
0.0
140
0.0
140
0.0
140
0.0
140
0.0
140
0.0
140
0.0
140
0.0
140
0.0
140
0.0
140
0.0
140
0.0
140
0.0
 90
        0
  0
ENDSEC
  0
SECTION
  2
OBJECTS
  0
DICTIONARY
  5
C
330
0
100
AcDbDictionary
281
     1
  3
ACAD_COLOR
350
DC
  3
ACAD_DETAILVIEWSTYLE
350
F5
  3
ACAD_GROUP
350
D
  3
ACAD_LAYOUT
350
1A
  3
ACAD_MATERIAL
350
AA
  3
ACAD_MLEADERSTYLE
350
F1
  3
ACAD_MLINESTYLE
350
17
  3
ACAD_PLOTSETTINGS
350
19
  3
ACAD_PLOTSTYLENAME
350
E
  3
ACAD_SCALELIST
350
DF
  3
ACAD_SECTIONVIEWSTYLE
350
F3
  3
ACAD_TABLESTYLE
350
DD
  3
ACAD_VISUALSTYLE
350
C3
  3
ACDB_RECOMPOSE_DATA
350
18B
  3
AcDbVariableDictionary
350
17F
  0
DICTIONARY
  5
DC
102
{ACAD_REACTORS
330
C
102
}
330
C
100
AcDbDictionary
281
     1
  0
DICTIONARY
  5
F5
102
{ACAD_REACTORS
330
C
102
}
330
C
100
AcDbDictionary
281
     1
  3
Imperial24
350
F6
  0
DICTIONARY
  5
D
102
{ACAD_REACTORS
330
C
102
}
330
C
100
AcDbDictionary
281
     1
  0
DICTIONARY
  5
1A
102
{ACAD_REACTORS
330
C
102
}
330
C
100
AcDbDictionary
281
     1
  3
Layout1
350
1E
  3
Layout2
350
26
  3
Model
350
22
  0
DICTIONARY
  5
AA
102
{ACAD_REACTORS
330
C
102
}
330
C
100
AcDbDictionary
281
     1
  3
ByBlock
350
B3
  3
ByLayer
350
AB
  3
Global
350
BB
  0
DICTIONARY
  5
F1
102
{ACAD_REACTORS
330
C
102
}
330
C
100
AcDbDictionary
281
     1
  3
Standard
350
F2
  0
DICTIONARY
  5
17
102
{ACAD_REACTORS
330
C
102
}
330
C
100
AcDbDictionary
281
     1
  3
Standard
350
18
  0
DICTIONARY
  5
19
102
{ACAD_REACTORS
330
C
102
}
330
C
100
AcDbDictionary
281
     1
  0
ACDBDICTIONARYWDFLT
  5
E
102
{ACAD_REACTORS
330
C
102
}
330
C
100
AcDbDictionary
281
     1
  3
ByLayer
350
2D
  3
Normal
350
F
100
AcDbDictionaryWithDefault
340
F
  0
DICTIONARY
  5
DF
102
{ACAD_REACTORS
330
C
102
}
330
C
100
AcDbDictionary
281
     1
  3
A0
350
E0
  3
A1
350
E1
  3
A2
350
E2
  3
A3
350
E3
  3
A4
350
E4
  3
A5
350
E5
  3
A6
350
E6
  3
A7
350
E7
  3
A8
350
E8
  3
A9
350
E9
  3
B0
350
EA
  3
B1
350
EB
  3
B2
350
EC
  3
B3
350
ED
  3
B4
350
EE
  3
B5
350
EF
  3
B6
350
F0
  0
DICTIONARY
  5
F3
102
{ACAD_REACTORS
330
C
102
}
330
C
100
AcDbDictionary
281
     1
  3
Imperial24
350
F4
  0
DICTIONARY
  5
DD
102
{ACAD_REACTORS
330
C
102
}
330
C
100
AcDbDictionary
281
     1
  3
Standard
350
DE
  0
DICTIONARY
  5
C3
102
{ACAD_REACTORS
330
C
102
}
330
C
100
AcDbDictionary
281
     1
  3
2dWireframe
350
C9
  3
Basic
350
C8
  3
Brighten
350
CF
  3
ColorChange
350
D3
  3
Conceptual
350
CC
  3
Dim
350
CE
  3
EdgeColorOff
350
DB
  3
Facepattern
350
D2
  3
Flat
350
C4
  3
FlatWithEdges
350
C5
  3
Gouraud
350
C6
  3
GouraudWithEdges
350
C7
  3
Hidden
350
CB
  3
JitterOff
350
D9
  3
Linepattern
350
D1
  3
OverhangOff
350
DA
  3
Realistic
350
CD
  3
Shaded
350
D8
  3
Shaded with edges
350
D7
  3
Shades of Gray
350
D4
  3
Sketchy
350
D5
  3
Thicken
350
D0
  3
Wireframe
350
CA
  3
X-Ray
350
D6
  0
XRECORD
  5
18B
102
{ACAD_REACTORS
330
C
102
}
330
C
100
AcDbXrecord
280
     1
 90
        1
330
DE
  0
DICTIONARY
  5
17F
102
{ACAD_REACTORS
330
C
102
}
330
C
100
AcDbDictionary
281
     1
  3
CANNOSCALE
350
185
  3
CMLEADERSTYLE
350
181
  3
CTABLESTYLE
350
180
  3
CVIEWDETAILSTYLE
350
182
  3
CVIEWSECTIONSTYLE
350
183
  3
LAYEREVAL
350
187
  3
LAYERNOTIFY
350
188
  3
LIGHTINGUNITS
350
186
  3
MSLTSCALE
350
184
  0
ACDBDETAILVIEWSTYLE
  5
F6
102
{ACAD_XDICTIONARY
360
1C0
102
}
102
{ACAD_REACTORS
330
F5
102
}
330
F5
100
AcDbModelDocViewStyle
 70
     0
  3
Imperial24
290
     0
100
AcDbDetailViewStyle
 70
     0
 71
     0
 90
        3
 71
     1
340
11
 62
   256
 40
0.24
340
0
 62
   256
 40
0.24
300

 40
0.36
280
     3
 71
     2
340
16
 90
       25
 62
   256
 71
     3
340
11
 62
   256
 40
0.24
 90
        1
 40
0.75
 90
        1
300
%<\AcVar ViewType \f "%tc1">% %<\AcVar ViewDetailId>%\PSCALE %<\AcVar ViewScale \f "%sn">%
 71
     4
340
16
 90
       25
 62
   256
340
16
 90
       25
 62
   256
280
     0
  0
LAYOUT
  5
1E
102
{ACAD_REACTORS
330
1A
102
}
330
1A
100
AcDbPlotSettings
  1

  2
\\KTXNTBDC\CASF2PN1
  4

  6

 40
0.0
 41
0.0
 42
0.0
 43
0.0
 44
0.0
 45
0.0
 46
0.0
 47
0.0
 48
0.0
 49
0.0
140
0.0
141
0.0
142
1.0
143
1.0
 70
   688
 72
     0
 73
     0
 74
     5
  7

 75
    16
147
1.0
 76
     0
 77
     2
 78
   300
148
0.0
149
0.0
100
AcDbLayout
  1
Layout1
 70
     1
 71
     1
 10
0.0
 20
0.0
 11
12.0
 21
9.0
 12
0.0
 22
0.0
 32
0.0
 14
1.000000000000000E+20
 24
1.000000000000000E+20
 34
1.000000000000000E+20
 15
-1.000000000000000E+20
 25
-1.000000000000000E+20
 35
-1.000000000000000E+20
146
0.0
 13
0.0
 23
0.0
 33
0.0
 16
1.0
 26
0.0
 36
0.0
 17
0.0
 27
1.0
 37
0.0
 76
     0
330
1B
  0
LAYOUT
  5
26
102
{ACAD_REACTORS
330
1A
102
}
330
1A
100
AcDbPlotSettings
  1

  2
\\KTXNTBDC\CASF2PN1
  4

  6

 40
0.0
 41
0.0
 42
0.0
 43
0.0
 44
0.0
 45
0.0
 46
0.0
 47
0.0
 48
0.0
 49
0.0
140
0.0
141
0.0
142
1.0
143
1.0
 70
   688
 72
     0
 73
     0
 74
     5
  7

 75
    16
147
1.0
 76
     0
 77
     2
 78
   300
148
0.0
149
0.0
100
AcDbLayout
  1
Layout2
 70
     1
 71
     2
 10
0.0
 20
0.0
 11
12.0
 21
9.0
 12
0.0
 22
0.0
 32
0.0
 14
0.0
 24
0.0
 34
0.0
 15
0.0
 25
0.0
 35
0.0
146
0.0
 13
0.0
 23
0.0
 33
0.0
 16
1.0
 26
0.0
 36
0.0
 17
0.0
 27
1.0
 37
0.0
 76
     0
330
23
  0
LAYOUT
  5
22
102
{ACAD_REACTORS
330
1A
102
}
330
1A
100
AcDbPlotSettings
  1

  2
\\KTXNTBDC\CASF2PN1
  4

  6

 40
0.0
 41
0.0
 42
0.0
 43
0.0
 44
0.0
 45
0.0
 46
0.0
 47
0.0
 48
0.0
 49
0.0
140
0.0
141
0.0
142
1.0
143
1.0
 70
  1712
 72
     0
 73
     0
 74
     0
  7

 75
     0
147
1.0
 76
     0
 77
     2
 78
   300
148
0.0
149
0.0
100
AcDbLayout
  1
Model
 70
     1
 71
     0
 10
0.0
 20
0.0
 11
12.0
 21
9.0
 12
0.0
 22
0.0
 32
0.0
 14
0.0
 24
0.0
 34
0.0
 15
0.0
 25
0.0
 35
0.0
146
0.0
 13
0.0
 23
0.0
 33
0.0
 16
1.0
 26
0.0
 36
0.0
 17
0.0
 27
1.0
 37
0.0
 76
     0
330
1F
  0
MATERIAL
  5
B3
102
{ACAD_XDICTIONARY
360
B4
102
}
102
{ACAD_REACTORS
330
AA
102
}
330
AA
100
AcDbMaterial
  1
ByBlock
 72
     0
 43
0.0208333333333333
 43
0.0
 43
0.0
 43
0.0
 43
0.0
 43
0.0208333333333333
 43
0.0
 43
0.0
 43
0.0
 43
0.0
 43
1.0
 43
0.0
 43
0.0
 43
0.0
 43
0.0
 43
1.0
 77
     0
 47
0.0208333333333333
 47
0.0
 47
0.0
 47
0.0
 47
0.0
 47
0.0208333333333333
 47
0.0
 47
0.0
 47
0.0
 47
0.0
 47
1.0
 47
0.0
 47
0.0
 47
0.0
 47
0.0
 47
1.0
171
     0
 49
0.0208333333333333
 49
0.0
 49
0.0
 49
0.0
 49
0.0
 49
0.0208333333333333
 49
0.0
 49
0.0
 49
0.0
 49
0.0
 49
1.0
 49
0.0
 49
0.0
 49
0.0
 49
0.0
 49
1.0
175
     0
142
0.0208333333333333
142
0.0
142
0.0
142
0.0
142
0.0
142
0.0208333333333333
142
0.0
142
0.0
142
0.0
142
0.0
142
1.0
142
0.0
142
0.0
142
0.0
142
0.0
142
1.0
179
     0
144
0.0208333333333333
144
0.0
144
0.0
144
0.0
144
0.0
144
0.0208333333333333
144
0.0
144
0.0
144
0.0
144
0.0
144
1.0
144
0.0
144
0.0
144
0.0
144
0.0
144
1.0
147
0.0208333333333333
147
0.0
147
0.0
147
0.0
147
0.0
147
0.0208333333333333
147
0.0
147
0.0
147
0.0
147
0.0
147
1.0
147
0.0
147
0.0
147
0.0
147
0.0
147
1.0
  0
MATERIAL
  5
AB
102
{ACAD_XDICTIONARY
360
AC
102
}
102
{ACAD_REACTORS
330
AA
102
}
330
AA
100
AcDbMaterial
  1
ByLayer
 72
     0
 43
0.0208333333333333
 43
0.0
 43
0.0
 43
0.0
 43
0.0
 43
0.0208333333333333
 43
0.0
 43
0.0
 43
0.0
 43
0.0
 43
1.0
 43
0.0
 43
0.0
 43
0.0
 43
0.0
 43
1.0
 77
     0
 47
0.0208333333333333
 47
0.0
 47
0.0
 47
0.0
 47
0.0
 47
0.0208333333333333
 47
0.0
 47
0.0
 47
0.0
 47
0.0
 47
1.0
 47
0.0
 47
0.0
 47
0.0
 47
0.0
 47
1.0
171
     0
 49
0.0208333333333333
 49
0.0
 49
0.0
 49
0.0
 49
0.0
 49
0.0208333333333333
 49
0.0
 49
0.0
 49
0.0
 49
0.0
 49
1.0
 49
0.0
 49
0.0
 49
0.0
 49
0.0
 49
1.0
175
     0
142
0.0208333333333333
142
0.0
142
0.0
142
0.0
142
0.0
142
0.0208333333333333
142
0.0
142
0.0
142
0.0
142
0.0
142
1.0
142
0.0
142
0.0
142
0.0
142
0.0
142
1.0
179
     0
144
0.0208333333333333
144
0.0
144
0.0
144
0.0
144
0.0
144
0.0208333333333333
144
0.0
144
0.0
144
0.0
144
0.0
144
1.0
144
0.0
144
0.0
144
0.0
144
0.0
144
1.0
147
0.0208333333333333
147
0.0
147
0.0
147
0.0
147
0.0
147
0.0208333333333333
147
0.0
147
0.0
147
0.0
147
0.0
147
1.0
147
0.0
147
0.0
147
0.0
147
0.0
147
1.0
  0
MATERIAL
  5
BB
102
{ACAD_XDICTIONARY
360
BC
102
}
102
{ACAD_REACTORS
330
AA
102
}
330
AA
100
AcDbMaterial
  1
Global
 72
     0
 43
0.0208333333333333
 43
0.0
 43
0.0
 43
0.0
 43
0.0
 43
0.0208333333333333
 43
0.0
 43
0.0
 43
0.0
 43
0.0
 43
1.0
 43
0.0
 43
0.0
 43
0.0
 43
0.0
 43
1.0
 77
     0
 47
0.0208333333333333
 47
0.0
 47
0.0
 47
0.0
 47
0.0
 47
0.0208333333333333
 47
0.0
 47
0.0
 47
0.0
 47
0.0
 47
1.0
 47
0.0
 47
0.0
 47
0.0
 47
0.0
 47
1.0
171
     0
 49
0.0208333333333333
 49
0.0
 49
0.0
 49
0.0
 49
0.0
 49
0.0208333333333333
 49
0.0
 49
0.0
 49
0.0
 49
0.0
 49
1.0
 49
0.0
 49
0.0
 49
0.0
 49
0.0
 49
1.0
175
     0
142
0.0208333333333333
142
0.0
142
0.0
142
0.0
142
0.0
142
0.0208333333333333
142
0.0
142
0.0
142
0.0
142
0.0
142
1.0
142
0.0
142
0.0
142
0.0
142
0.0
142
1.0
179
     0
144
0.0208333333333333
144
0.0
144
0.0
144
0.0
144
0.0
144
0.0208333333333333
144
0.0
144
0.0
144
0.0
144
0.0
144
1.0
144
0.0
144
0.0
144
0.0
144
0.0
144
1.0
147
0.0208333333333333
147
0.0
147
0.0
147
0.0
147
0.0
147
0.0208333333333333
147
0.0
147
0.0
147
0.0
147
0.0
147
1.0
147
0.0
147
0.0
147
0.0
147
0.0
147
1.0
  0
MLEADERSTYLE
  5
F2
102
{ACAD_XDICTIONARY
360
1BC
102
}
102
{ACAD_REACTORS
330
F1
102
}
330
F1
100
AcDbMLeaderStyle
179
     2
170
     2
171
     1
172
     0
 90
        2
 40
0.0
 41
0.0
173
     1
 91
-1056964608
340
14
 92
       -2
290
     1
 42
0.09
291
     1
 43
0.36
  3
Standard
 44
0.18
300

342
11
174
     1
178
     6
175
     1
176
     0
 93
-1056964608
 45
0.18
292
     0
297
     0
 46
0.18
 94
-1056964608
 47
1.0
 49
1.0
140
1.0
293
     1
141
0.0
294
     1
177
     0
142
1.0
295
     0
296
     0
143
0.125
271
     0
272
     9
273
     9
  0
MLINESTYLE
  5
18
102
{ACAD_REACTORS
330
17
102
}
330
17
100
AcDbMlineStyle
  2
STANDARD
 70
     0
  3

 62
   256
 51
90.0
 52
90.0
 71
     2
 49
0.5
 62
   256
  6
BYLAYER
 49
-0.5
 62
   256
  6
BYLAYER
  0
ACDBPLACEHOLDER
  5
2D
102
{ACAD_REACTORS
330
E
102
}
330
E
  0
ACDBPLACEHOLDER
  5
F
102
{ACAD_REACTORS
330
E
102
}
330
E
  0
SCALE
  5
E0
102
{ACAD_REACTORS
330
DF
102
}
330
DF
100
AcDbScale
 70
     0
300
1:1
140
1.0
141
1.0
290
     1
  0
SCALE
  5
E1
102
{ACAD_REACTORS
330
DF
102
}
330
DF
100
AcDbScale
 70
     0
300
1/128" = 1'-0"
140
0.0078125
141
12.0
290
     0
  0
SCALE
  5
E2
102
{ACAD_REACTORS
330
DF
102
}
330
DF
100
AcDbScale
 70
     0
300
1/64" = 1'-0"
140
0.015625
141
12.0
290
     0
  0
SCALE
  5
E3
102
{ACAD_REACTORS
330
DF
102
}
330
DF
100
AcDbScale
 70
     0
300
1/32" = 1'-0"
140
0.03125
141
12.0
290
     0
  0
SCALE
  5
E4
102
{ACAD_REACTORS
330
DF
102
}
330
DF
100
AcDbScale
 70
     0
300
1/16" = 1'-0"
140
0.0625
141
12.0
290
     0
  0
SCALE
  5
E5
102
{ACAD_REACTORS
330
DF
102
}
330
DF
100
AcDbScale
 70
     0
300
3/32" = 1'-0"
140
0.09375
141
12.0
290
     0
  0
SCALE
  5
E6
102
{ACAD_REACTORS
330
DF
102
}
330
DF
100
AcDbScale
 70
     0
300
1/8" = 1'-0"
140
0.125
141
12.0
290
     0
  0
SCALE
  5
E7
102
{ACAD_REACTORS
330
DF
102
}
330
DF
100
AcDbScale
 70
     0
300
3/16" = 1'-0"
140
0.1875
141
12.0
290
     0
  0
SCALE
  5
E8
102
{ACAD_REACTORS
330
DF
102
}
330
DF
100
AcDbScale
 70
     0
300
1/4" = 1'-0"
140
0.25
141
12.0
290
     0
  0
SCALE
  5
E9
102
{ACAD_REACTORS
330
DF
102
}
330
DF
100
AcDbScale
 70
     0
300
3/8" = 1'-0"
140
0.375
141
12.0
290
     0
  0
SCALE
  5
EA
102
{ACAD_REACTORS
330
DF
102
}
330
DF
100
AcDbScale
 70
     0
300
1/2" = 1'-0"
140
0.5
141
12.0
290
     0
  0
SCALE
  5
EB
102
{ACAD_REACTORS
330
DF
102
}
330
DF
100
AcDbScale
 70
     0
300
3/4" = 1'-0"
140
0.75
141
12.0
290
     0
  0
SCALE
  5
EC
102
{ACAD_REACTORS
330
DF
102
}
330
DF
100
AcDbScale
 70
     0
300
1" = 1'-0"
140
1.0
141
12.0
290
     0
  0
SCALE
  5
ED
102
{ACAD_REACTORS
330
DF
102
}
330
DF
100
AcDbScale
 70
     0
300
1-1/2" = 1'-0"
140
1.5
141
12.0
290
     0
  0
SCALE
  5
EE
102
{ACAD_REACTORS
330
DF
102
}
330
DF
100
AcDbScale
 70
     0
300
3" = 1'-0"
140
3.0
141
12.0
290
     0
  0
SCALE
  5
EF
102
{ACAD_REACTORS
330
DF
102
}
330
DF
100
AcDbScale
 70
     0
300
6" = 1'-0"
140
6.0
141
12.0
290
     0
  0
SCALE
  5
F0
102
{ACAD_REACTORS
330
DF
102
}
330
DF
100
AcDbScale
 70
     0
300
1'-0" = 1'-0"
140
12.0
141
12.0
290
     0
  0
ACDBSECTIONVIEWSTYLE
  5
F4
102
{ACAD_XDICTIONARY
360
1BE
102
}
102
{ACAD_REACTORS
330
F3
102
}
330
F3
100
AcDbModelDocViewStyle
 70
     0
  3
Imperial24
290
     0
100
AcDbSectionViewStyle
 70
     0
 71
     0
 90
       78
 71
     1
340
11
 62
   256
 40
0.24
340
0
340
0
 62
   256
 40
0.24
300
I, O, Q, S, X, Z
 40
0.48
 90
        3
 40
0.18
 90
        1
 71
     2
340
16
 90
       25
 62
   256
340
16
 90
       50
 62
   256
 40
0.24
 40
0.0
 40
0.24
 71
     3
340
11
 62
   256
 40
0.24
 90
        1
 40
0.75
 90
        1
300
%<\AcVar ViewType \f "%tc1">% %<\AcVar ViewSectionStartId>%-%<\AcVar ViewSectionEndId>%\PSCALE %<\AcVar ViewScale \f "%sn">%
 71
     4
 62
   256
 62
   257
300
ANSI31
 40
1.0
 90
        0
290
     0
290
     0
 90
        6
 40
0.0
 40
1.570796326794896
 40
0.2617993877991494
 40
1.308996938995747
 40
-0.2617993877991494
 40
1.832595714594046
  0
TABLESTYLE
  5
DE
102
{ACAD_XDICTIONARY
360
189
102
}
102
{ACAD_REACTORS
330
DD
102
}
330
DD
100
AcDbTableStyle
280
     0
  3
Standard
 70
     0
 71
     0
 40
0.06
 41
0.06
280
     0
281
     0
  7
Standard
140
0.18
170
     2
 62
     0
 63
     7
283
     0
 90
      512
 91
        0
  1

274
    -2
284
     1
 64
     0
275
    -2
285
     1
 65
     0
276
    -2
286
     1
 66
     0
277
    -2
287
     1
 67
     0
278
    -2
288
     1
 68
     0
279
    -2
289
     1
 69
     0
  7
Standard
140
0.25
170
     5
 62
     0
 63
     7
283
     0
 90
      512
 91
        0
  1

274
    -2
284
     1
 64
     0
275
    -2
285
     1
 65
     0
276
    -2
286
     1
 66
     0
277
    -2
287
     1
 67
     0
278
    -2
288
     1
 68
     0
279
    -2
289
     1
 69
     0
  7
Standard
140
0.18
170
     5
 62
     0
 63
     7
283
     0
 90
      512
 91
        0
  1

274
    -2
284
     1
 64
     0
275
    -2
285
     1
 65
     0
276
    -2
286
     1
 66
     0
277
    -2
287
     1
 67
     0
278
    -2
288
     1
 68
     0
279
    -2
289
     1
 69
     0
  0
VISUALSTYLE
  5
C9
102
{ACAD_XDICTIONARY
360
196
102
}
102
{ACAD_REACTORS
330
C3
102
}
330
C3
100
AcDbVisualStyle
  2
2dWireframe
 70
     4
177
     2
291
     0
 71
     0
176
     1
 72
     2
176
     1
 73
     0
176
     1
 90
        0
176
     1
 40
0.6
176
     1
 41
30.0
176
     1
 63
     7
421
 16777215
176
     1
 74
     1
176
     1
 91
        4
176
     1
 64
     7
176
     1
 65
   257
176
     1
 75
     1
176
     1
175
     1
176
     1
 42
1.0
176
     1
 92
        0
176
     1
 66
   257
176
     1
 43
1.0
176
     1
 76
     1
176
     1
 77
     6
176
     1
 78
     2
176
     1
 67
     7
176
     1
 79
     5
176
     1
170
     0
176
     1
171
     0
176
     1
290
     0
176
     1
 93
        1
176
     1
 44
0.0
176
     1
173
     0
176
     1
1001
ACAD
1000
AcDbSavedByObjectVersion
1070
     0
  0
VISUALSTYLE
  5
C8
102
{ACAD_XDICTIONARY
360
194
102
}
102
{ACAD_REACTORS
330
C3
102
}
330
C3
100
AcDbVisualStyle
  2
Basic
 70
     7
177
     2
291
     1
 71
     1
176
     1
 72
     0
176
     1
 73
     1
176
     1
 90
        0
176
     1
 40
0.6
176
     1
 41
30.0
176
     1
 63
     7
421
 16777215
176
     1
 74
     0
176
     1
 91
        4
176
     1
 64
     7
176
     1
 65
   257
176
     1
 75
     1
176
     1
175
     1
176
     1
 42
1.0
176
     1
 92
        8
176
     1
 66
     7
176
     1
 43
1.0
176
     1
 76
     1
176
     1
 77
     6
176
     1
 78
     2
176
     1
 67
     7
176
     1
 79
     5
176
     1
170
     0
176
     1
171
     0
176
     1
290
     0
176
     1
 93
        1
176
     1
 44
0.0
176
     1
173
     0
176
     1
1001
ACAD
1000
AcDbSavedByObjectVersion
1070
     0
  0
VISUALSTYLE
  5
CF
102
{ACAD_XDICTIONARY
360
1A2
102
}
102
{ACAD_REACTORS
330
C3
102
}
330
C3
100
AcDbVisualStyle
  2
Brighten
 70
    12
177
     2
291
     1
 71
     2
176
     1
 72
     2
176
     1
 73
     0
176
     1
 90
        0
176
     1
 40
0.6
176
     1
 41
30.0
176
     1
 63
     7
421
 16777215
176
     1
 74
     1
176
     1
 91
        4
176
     1
 64
     7
176
     1
 65
   257
176
     1
 75
     1
176
     1
175
     1
176
     1
 42
1.0
176
     1
 92
        8
176
     1
 66
     7
176
     1
 43
1.0
176
     1
 76
     1
176
     1
 77
     6
176
     1
 78
     2
176
     1
 67
     7
176
     1
 79
     5
176
     1
170
     0
176
     1
171
     0
176
     1
290
     0
176
     1
 93
        1
176
     1
 44
50.0
176
     1
173
     0
176
     1
1001
ACAD
1000
AcDbSavedByObjectVersion
1070
     0
  0
VISUALSTYLE
  5
D3
102
{ACAD_XDICTIONARY
360
1AA
102
}
102
{ACAD_REACTORS
330
C3
102
}
330
C3
100
AcDbVisualStyle
  2
ColorChange
 70
    16
177
     2
291
     1
 71
     2
176
     1
 72
     2
176
     1
 73
     3
176
     1
 90
        0
176
     1
 40
0.6
176
     1
 41
30.0
176
     1
 63
     8
421
  8421504
176
     1
 74
     1
176
     1
 91
        4
176
     1
 64
     7
176
     1
 65
   257
176
     1
 75
     1
176
     1
175
     1
176
     1
 42
1.0
176
     1
 92
        8
176
     1
 66
     8
424
  8421504
176
     1
 43
1.0
176
     1
 76
     1
176
     1
 77
     6
176
     1
 78
     2
176
     1
 67
     7
176
     1
 79
     5
176
     1
170
     0
176
     1
171
     0
176
     1
290
     0
176
     1
 93
        1
176
     1
 44
0.0
176
     1
173
     0
176
     1
1001
ACAD
1000
AcDbSavedByObjectVersion
1070
     0
  0
VISUALSTYLE
  5
CC
102
{ACAD_XDICTIONARY
360
19C
102
}
102
{ACAD_REACTORS
330
C3
102
}
330
C3
100
AcDbVisualStyle
  2
Conceptual
 70
     9
177
     2
291
     0
 71
     3
176
     1
 72
     2
176
     1
 73
     0
176
     1
 90
        0
176
     1
 40
0.6
176
     1
 41
30.0
176
     1
 63
     7
421
 16777215
176
     1
 74
     2
176
     1
 91
        2
176
     1
 64
     7
176
     1
 65
   257
176
     1
 75
     1
176
     1
175
     1
176
     1
 42
179.0
176
     1
 92
        8
176
     1
 66
     7
176
     1
 43
1.0
176
     1
 76
     1
176
     1
 77
     6
176
     1
 78
     2
176
     1
 67
     7
176
     1
 79
     3
176
     1
170
     0
176
     1
171
     0
176
     1
290
     0
176
     1
 93
        1
176
     1
 44
0.0
176
     1
173
     0
176
     1
1001
ACAD
1000
AcDbSavedByObjectVersion
1070
     0
  0
VISUALSTYLE
  5
CE
102
{ACAD_XDICTIONARY
360
1A0
102
}
102
{ACAD_REACTORS
330
C3
102
}
330
C3
100
AcDbVisualStyle
  2
Dim
 70
    11
177
     2
291
     1
 71
     2
176
     1
 72
     2
176
     1
 73
     0
176
     1
 90
        0
176
     1
 40
0.6
176
     1
 41
30.0
176
     1
 63
     7
421
 16777215
176
     1
 74
     1
176
     1
 91
        4
176
     1
 64
     7
176
     1
 65
   257
176
     1
 75
     1
176
     1
175
     1
176
     1
 42
1.0
176
     1
 92
        8
176
     1
 66
     7
176
     1
 43
1.0
176
     1
 76
     1
176
     1
 77
     6
176
     1
 78
     2
176
     1
 67
     7
176
     1
 79
     5
176
     1
170
     0
176
     1
171
     0
176
     1
290
     0
176
     1
 93
        1
176
     1
 44
-50.0
176
     1
173
     0
176
     1
1001
ACAD
1000
AcDbSavedByObjectVersion
1070
     0
  0
VISUALSTYLE
  5
DB
102
{ACAD_XDICTIONARY
360
1BA
102
}
102
{ACAD_REACTORS
330
C3
102
}
330
C3
100
AcDbVisualStyle
  2
EdgeColorOff
 70
    22
177
     2
291
     1
 71
     2
176
     0
 72
     2
176
     0
 73
     0
176
     0
 90
        0
176
     0
 40
0.6
176
     0
 41
30.0
176
     0
 63
     7
421
 16777215
176
     0
 74
     1
176
     0
 91
        4
176
     0
 64
     7
176
     0
 65
   257
176
     0
 75
     1
176
     0
175
     1
176
     0
 42
1.0
176
     0
 92
        8
176
     2
 66
     7
176
     0
 43
1.0
176
     0
 76
     1
176
     0
 77
     6
176
     0
 78
     2
176
     0
 67
     7
176
     0
 79
     5
176
     0
170
     0
176
     0
171
     0
176
     0
290
     0
176
     0
 93
        1
176
     0
 44
0.0
176
     0
173
     0
176
     0
1001
ACAD
1000
AcDbSavedByObjectVersion
1070
     0
  0
VISUALSTYLE
  5
D2
102
{ACAD_XDICTIONARY
360
1A8
102
}
102
{ACAD_REACTORS
330
C3
102
}
330
C3
100
AcDbVisualStyle
  2
Facepattern
 70
    15
177
     2
291
     1
 71
     2
176
     1
 72
     2
176
     1
 73
     0
176
     1
 90
        0
176
     1
 40
0.6
176
     1
 41
30.0
176
     1
 63
     7
421
 16777215
176
     1
 74
     1
176
     1
 91
        4
176
     1
 64
     7
176
     1
 65
   257
176
     1
 75
     1
176
     1
175
     1
176
     1
 42
1.0
176
     1
 92
        8
176
     1
 66
     7
176
     1
 43
1.0
176
     1
 76
     1
176
     1
 77
     6
176
     1
 78
     2
176
     1
 67
     7
176
     1
 79
     5
176
     1
170
     0
176
     1
171
     0
176
     1
290
     0
176
     1
 93
        1
176
     1
 44
0.0
176
     1
173
     0
176
     1
1001
ACAD
1000
AcDbSavedByObjectVersion
1070
     0
  0
VISUALSTYLE
  5
C4
102
{ACAD_XDICTIONARY
360
18C
102
}
102
{ACAD_REACTORS
330
C3
102
}
330
C3
100
AcDbVisualStyle
  2
Flat
 70
     0
177
     2
291
     1
 71
     2
176
     1
 72
     1
176
     1
 73
     1
176
     1
 90
        2
176
     1
 40
0.6
176
     1
 41
30.0
176
     1
 63
     7
421
 16777215
176
     1
 74
     0
176
     1
 91
        0
176
     1
 64
     7
176
     1
 65
   257
176
     1
 75
     1
176
     1
175
     1
176
     1
 42
1.0
176
     1
 92
        8
176
     1
 66
     7
176
     1
 43
1.0
176
     1
 76
     1
176
     1
 77
     6
176
     1
 78
     2
176
     1
 67
     7
176
     1
 79
     5
176
     1
170
     0
176
     1
171
     0
176
     1
290
     0
176
     1
 93
       13
176
     1
 44
0.0
176
     1
173
     0
176
     1
1001
ACAD
1000
AcDbSavedByObjectVersion
1070
     0
  0
VISUALSTYLE
  5
C5
102
{ACAD_XDICTIONARY
360
18E
102
}
102
{ACAD_REACTORS
330
C3
102
}
330
C3
100
AcDbVisualStyle
  2
FlatWithEdges
 70
     1
177
     2
291
     1
 71
     2
176
     1
 72
     1
176
     1
 73
     1
176
     1
 90
        2
176
     1
 40
0.6
176
     1
 41
30.0
176
     1
 63
     7
421
 16777215
176
     1
 74
     1
176
     1
 91
        0
176
     1
 64
     7
176
     1
 65
   257
176
     1
 75
     1
176
     1
175
     1
176
     1
 42
1.0
176
     1
 92
        0
176
     1
 66
   257
176
     1
 43
1.0
176
     1
 76
     1
176
     1
 77
     6
176
     1
 78
     2
176
     1
 67
     7
176
     1
 79
     5
176
     1
170
     0
176
     1
171
     0
176
     1
290
     0
176
     1
 93
       13
176
     1
 44
0.0
176
     1
173
     0
176
     1
1001
ACAD
1000
AcDbSavedByObjectVersion
1070
     0
  0
VISUALSTYLE
  5
C6
102
{ACAD_XDICTIONARY
360
190
102
}
102
{ACAD_REACTORS
330
C3
102
}
330
C3
100
AcDbVisualStyle
  2
Gouraud
 70
     2
177
     2
291
     1
 71
     2
176
     1
 72
     2
176
     1
 73
     1
176
     1
 90
        2
176
     1
 40
0.6
176
     1
 41
30.0
176
     1
 63
     7
421
 16777215
176
     1
 74
     0
176
     1
 91
        0
176
     1
 64
     7
176
     1
 65
   257
176
     1
 75
     1
176
     1
175
     1
176
     1
 42
1.0
176
     1
 92
        0
176
     1
 66
     7
176
     1
 43
1.0
176
     1
 76
     1
176
     1
 77
     6
176
     1
 78
     2
176
     1
 67
     7
176
     1
 79
     5
176
     1
170
     0
176
     1
171
     0
176
     1
290
     0
176
     1
 93
       13
176
     1
 44
0.0
176
     1
173
     0
176
     1
1001
ACAD
1000
AcDbSavedByObjectVersion
1070
     0
  0
VISUALSTYLE
  5
C7
102
{ACAD_XDICTIONARY
360
192
102
}
102
{ACAD_REACTORS
330
C3
102
}
330
C3
100
AcDbVisualStyle
  2
GouraudWithEdges
 70
     3
177
     2
291
     1
 71
     2
176
     1
 72
     2
176
     1
 73
     1
176
     1
 90
        2
176
     1
 40
0.6
176
     1
 41
30.0
176
     1
 63
     7
421
 16777215
176
     1
 74
     1
176
     1
 91
        0
176
     1
 64
     7
176
     1
 65
   257
176
     1
 75
     1
176
     1
175
     1
176
     1
 42
1.0
176
     1
 92
        0
176
     1
 66
   257
176
     1
 43
1.0
176
     1
 76
     1
176
     1
 77
     6
176
     1
 78
     2
176
     1
 67
     7
176
     1
 79
     5
176
     1
170
     0
176
     1
171
     0
176
     1
290
     0
176
     1
 93
       13
176
     1
 44
0.0
176
     1
173
     0
176
     1
1001
ACAD
1000
AcDbSavedByObjectVersion
1070
     0
  0
VISUALSTYLE
  5
CB
102
{ACAD_XDICTIONARY
360
19A
102
}
102
{ACAD_REACTORS
330
C3
102
}
330
C3
100
AcDbVisualStyle
  2
Hidden
 70
     6
177
     2
291
     0
 71
     1
176
     1
 72
     2
176
     1
 73
     2
176
     1
 90
        0
176
     1
 40
0.6
176
     1
 41
30.0
176
     1
 63
     7
421
 16777215
176
     1
 74
     2
176
     1
 91
        2
176
     1
 64
     7
176
     1
 65
   257
176
     1
 75
     2
176
     1
175
     1
176
     1
 42
40.0
176
     1
 92
        0
176
     1
 66
   257
176
     1
 43
1.0
176
     1
 76
     1
176
     1
 77
     6
176
     1
 78
     2
176
     1
 67
     7
176
     1
 79
     3
176
     1
170
     0
176
     1
171
     0
176
     1
290
     0
176
     1
 93
        1
176
     1
 44
0.0
176
     1
173
     0
176
     1
1001
ACAD
1000
AcDbSavedByObjectVersion
1070
     0
  0
VISUALSTYLE
  5
D9
102
{ACAD_XDICTIONARY
360
1B6
102
}
102
{ACAD_REACTORS
330
C3
102
}
330
C3
100
AcDbVisualStyle
  2
JitterOff
 70
    20
177
     2
291
     1
 71
     2
176
     0
 72
     2
176
     0
 73
     0
176
     0
 90
        0
176
     0
 40
0.6
176
     0
 41
30.0
176
     0
 63
     7
421
 16777215
176
     0
 74
     1
176
     0
 91
        4
176
     0
 64
     7
176
     0
 65
   257
176
     0
 75
     1
176
     0
175
     1
176
     0
 42
1.0
176
     0
 92
       10
176
     2
 66
     7
176
     0
 43
1.0
176
     0
 76
     1
176
     0
 77
     6
176
     0
 78
     2
176
     0
 67
     7
176
     0
 79
     5
176
     0
170
     0
176
     0
171
     0
176
     0
290
     0
176
     0
 93
        1
176
     0
 44
0.0
176
     0
173
     0
176
     0
1001
ACAD
1000
AcDbSavedByObjectVersion
1070
     0
  0
VISUALSTYLE
  5
D1
102
{ACAD_XDICTIONARY
360
1A6
102
}
102
{ACAD_REACTORS
330
C3
102
}
330
C3
100
AcDbVisualStyle
  2
Linepattern
 70
    14
177
     2
291
     1
 71
     2
176
     1
 72
     2
176
     1
 73
     0
176
     1
 90
        0
176
     1
 40
0.6
176
     1
 41
30.0
176
     1
 63
     7
421
 16777215
176
     1
 74
     1
176
     1
 91
        4
176
     1
 64
     7
176
     1
 65
   257
176
     1
 75
     7
176
     1
175
     7
176
     1
 42
1.0
176
     1
 92
        8
176
     1
 66
     7
176
     1
 43
1.0
176
     1
 76
     1
176
     1
 77
     6
176
     1
 78
     2
176
     1
 67
     7
176
     1
 79
     5
176
     1
170
     0
176
     1
171
     0
176
     1
290
     0
176
     1
 93
        1
176
     1
 44
0.0
176
     1
173
     0
176
     1
1001
ACAD
1000
AcDbSavedByObjectVersion
1070
     0
  0
VISUALSTYLE
  5
DA
102
{ACAD_XDICTIONARY
360
1B8
102
}
102
{ACAD_REACTORS
330
C3
102
}
330
C3
100
AcDbVisualStyle
  2
OverhangOff
 70
    21
177
     2
291
     1
 71
     2
176
     0
 72
     2
176
     0
 73
     0
176
     0
 90
        0
176
     0
 40
0.6
176
     0
 41
30.0
176
     0
 63
     7
421
 16777215
176
     0
 74
     1
176
     0
 91
        4
176
     0
 64
     7
176
     0
 65
   257
176
     0
 75
     1
176
     0
175
     1
176
     0
 42
1.0
176
     0
 92
        9
176
     2
 66
     7
176
     0
 43
1.0
176
     0
 76
     1
176
     0
 77
     6
176
     0
 78
     2
176
     0
 67
     7
176
     0
 79
     5
176
     0
170
     0
176
     0
171
     0
176
     0
290
     0
176
     0
 93
        1
176
     0
 44
0.0
176
     0
173
     0
176
     0
1001
ACAD
1000
AcDbSavedByObjectVersion
1070
     0
  0
VISUALSTYLE
  5
CD
102
{ACAD_XDICTIONARY
360
19E
102
}
102
{ACAD_REACTORS
330
C3
102
}
330
C3
100
AcDbVisualStyle
  2
Realistic
 70
     8
177
     2
291
     0
 71
     2
176
     1
 72
     3
176
     1
 73
     0
176
     1
 90
        2
176
     1
 40
0.6
176
     1
 41
30.0
176
     1
 63
     7
421
 16777215
176
     1
 74
     0
176
     1
 91
        0
176
     1
 64
     7
176
     1
 65
   257
176
     1
 75
     1
176
     1
175
     1
176
     1
 42
1.0
176
     1
 92
        8
176
     1
 66
   257
176
     1
 43
1.0
176
     1
 76
     1
176
     1
 77
     6
176
     1
 78
     2
176
     1
 67
     7
176
     1
 79
     3
176
     1
170
     0
176
     1
171
     0
176
     1
290
     0
176
     1
 93
       13
176
     1
 44
0.0
176
     1
173
     0
176
     1
1001
ACAD
1000
AcDbSavedByObjectVersion
1070
     0
  0
VISUALSTYLE
  5
D8
102
{ACAD_XDICTIONARY
360
1B4
102
}
102
{ACAD_REACTORS
330
C3
102
}
330
C3
100
AcDbVisualStyle
  2
Shaded
 70
    27
177
     2
291
     0
 71
     2
176
     1
 72
     2
176
     1
 73
     1
176
     1
 90
        2
176
     1
 40
0.6
176
     1
 41
30.0
176
     1
 63
     7
421
 16777215
176
     1
 74
     0
176
     1
 91
        4
176
     1
 64
     7
176
     1
 65
   257
176
     1
 75
     1
176
     1
175
     1
176
     1
 42
1.0
176
     1
 92
        8
176
     1
 66
   257
176
     1
 43
1.0
176
     1
 76
     1
176
     1
 77
     6
176
     1
 78
     2
176
     1
 67
     8
425
  7895160
176
     1
 79
     3
176
     1
170
     0
176
     1
171
     0
176
     1
290
     0
176
     1
 93
        5
176
     1
 44
0.0
176
     1
173
     0
176
     1
1001
ACAD
1000
AcDbSavedByObjectVersion
1070
     0
  0
VISUALSTYLE
  5
D7
102
{ACAD_XDICTIONARY
360
1B2
102
}
102
{ACAD_REACTORS
330
C3
102
}
330
C3
100
AcDbVisualStyle
  2
Shaded with edges
 70
    26
177
     2
291
     0
 71
     2
176
     1
 72
     2
176
     1
 73
     1
176
     1
 90
        2
176
     1
 40
0.6
176
     1
 41
30.0
176
     1
 63
     7
421
 16777215
176
     1
 74
     1
176
     1
 91
        2
176
     1
 64
     7
176
     1
 65
   257
176
     1
 75
     2
176
     1
175
     1
176
     1
 42
1.0
176
     1
 92
        8
176
     1
 66
   257
176
     1
 43
1.0
176
     1
 76
     1
176
     1
 77
     6
176
     1
 78
     2
176
     1
 67
     7
176
     1
 79
     3
176
     1
170
     0
176
     1
171
     0
176
     1
290
     0
176
     1
 93
        5
176
     1
 44
0.0
176
     1
173
     0
176
     1
1001
ACAD
1000
AcDbSavedByObjectVersion
1070
     0
  0
VISUALSTYLE
  5
D4
102
{ACAD_XDICTIONARY
360
1AC
102
}
102
{ACAD_REACTORS
330
C3
102
}
330
C3
100
AcDbVisualStyle
  2
Shades of Gray
 70
    23
177
     2
291
     0
 71
     2
176
     1
 72
     2
176
     1
 73
     3
176
     1
 90
        0
176
     1
 40
0.6
176
     1
 41
30.0
176
     1
 63
     7
421
 16777215
176
     1
 74
     2
176
     1
 91
        2
176
     1
 64
     7
176
     1
 65
     7
176
     1
 75
     1
176
     1
175
     1
176
     1
 42
40.0
176
     1
 92
        8
176
     1
 66
     7
176
     1
 43
1.0
176
     1
 76
     1
176
     1
 77
     6
176
     1
 78
     2
176
     1
 67
     7
176
     1
 79
     3
176
     1
170
     0
176
     1
171
     0
176
     1
290
     0
176
     1
 93
        1
176
     1
 44
0.0
176
     1
173
     0
176
     1
1001
ACAD
1000
AcDbSavedByObjectVersion
1070
     0
  0
VISUALSTYLE
  5
D5
102
{ACAD_XDICTIONARY
360
1AE
102
}
102
{ACAD_REACTORS
330
C3
102
}
330
C3
100
AcDbVisualStyle
  2
Sketchy
 70
    24
177
     2
291
     0
 71
     1
176
     1
 72
     2
176
     1
 73
     2
176
     1
 90
        0
176
     1
 40
0.6
176
     1
 41
30.0
176
     1
 63
     7
421
 16777215
176
     1
 74
     2
176
     1
 91
        2
176
     1
 64
     7
176
     1
 65
     7
176
     1
 75
     1
176
     1
175
     1
176
     1
 42
40.0
176
     1
 92
       11
176
     1
 66
     7
176
     1
 43
1.0
176
     1
 76
     1
176
     1
 77
     6
176
     1
 78
     2
176
     1
 67
     7
176
     1
 79
     6
176
     1
170
     0
176
     1
171
     0
176
     1
290
     0
176
     1
 93
        1
176
     1
 44
0.0
176
     1
173
     0
176
     1
1001
ACAD
1000
AcDbSavedByObjectVersion
1070
     0
  0
VISUALSTYLE
  5
D0
102
{ACAD_XDICTIONARY
360
1A4
102
}
102
{ACAD_REACTORS
330
C3
102
}
330
C3
100
AcDbVisualStyle
  2
Thicken
 70
    13
177
     2
291
     1
 71
     2
176
     1
 72
     2
176
     1
 73
     0
176
     1
 90
        0
176
     1
 40
0.6
176
     1
 41
30.0
176
     1
 63
     7
421
 16777215
176
     1
 74
     1
176
     1
 91
        4
176
     1
 64
     7
176
     1
 65
   257
176
     1
 75
     1
176
     1
175
     1
176
     1
 42
1.0
176
     1
 92
       12
176
     1
 66
     7
176
     1
 43
1.0
176
     1
 76
     1
176
     1
 77
     6
176
     1
 78
     2
176
     1
 67
     7
176
     1
 79
     5
176
     1
170
     0
176
     1
171
     0
176
     1
290
     0
176
     1
 93
        1
176
     1
 44
0.0
176
     1
173
     0
176
     1
1001
ACAD
1000
AcDbSavedByObjectVersion
1070
     0
  0
VISUALSTYLE
  5
CA
102
{ACAD_XDICTIONARY
360
198
102
}
102
{ACAD_REACTORS
330
C3
102
}
330
C3
100
AcDbVisualStyle
  2
Wireframe
 70
     5
177
     2
291
     0
 71
     0
176
     1
 72
     2
176
     1
 73
     0
176
     1
 90
        0
176
     1
 40
0.6
176
     1
 41
30.0
176
     1
 63
     7
421
 16777215
176
     1
 74
     1
176
     1
 91
        4
176
     1
 64
     7
176
     1
 65
   257
176
     1
 75
     1
176
     1
175
     1
176
     1
 42
1.0
176
     1
 92
        0
176
     1
 66
   257
176
     1
 43
1.0
176
     1
 76
     1
176
     1
 77
     6
176
     1
 78
     2
176
     1
 67
     7
176
     1
 79
     3
176
     1
170
     0
176
     1
171
     0
176
     1
290
     0
176
     1
 93
        1
176
     1
 44
0.0
176
     1
173
     0
176
     1
1001
ACAD
1000
AcDbSavedByObjectVersion
1070
     0
  0
VISUALSTYLE
  5
D6
102
{ACAD_XDICTIONARY
360
1B0
102
}
102
{ACAD_REACTORS
330
C3
102
}
330
C3
100
AcDbVisualStyle
  2
X-Ray
 70
    25
177
     2
291
     0
 71
     2
176
     1
 72
     2
176
     1
 73
     1
176
     1
 90
        1
176
     1
 40
0.5
176
     1
 41
30.0
176
     1
 63
     7
421
 16777215
176
     1
 74
     1
176
     1
 91
        0
176
     1
 64
     7
176
     1
 65
   257
176
     1
 75
     1
176
     1
175
     1
176
     1
 42
1.0
176
     1
 92
        8
176
     1
 66
     7
176
     1
 43
1.0
176
     1
 76
     1
176
     1
 77
     6
176
     1
 78
     2
176
     1
 67
     7
176
     1
 79
     3
176
     1
170
     0
176
     1
171
     0
176
     1
290
     0
176
     1
 93
       13
176
     1
 44
0.0
176
     1
173
     0
176
     1
1001
ACAD
1000
AcDbSavedByObjectVersion
1070
     0
  0
DICTIONARYVAR
  5
185
102
{ACAD_REACTORS
330
17F
102
}
330
17F
100
DictionaryVariables
280
     0
  1
1:1
  0
DICTIONARYVAR
  5
181
102
{ACAD_REACTORS
330
17F
102
}
330
17F
100
DictionaryVariables
280
     0
  1
STANDARD
  0
DICTIONARYVAR
  5
180
102
{ACAD_REACTORS
330
17F
102
}
330
17F
100
DictionaryVariables
280
     0
  1
STANDARD
  0
DICTIONARYVAR
  5
182
102
{ACAD_REACTORS
330
17F
102
}
330
17F
100
DictionaryVariables
280
     0
  1
Imperial24
  0
DICTIONARYVAR
  5
183
102
{ACAD_REACTORS
330
17F
102
}
330
17F
100
DictionaryVariables
280
     0
  1
Imperial24
  0
DICTIONARYVAR
  5
187
102
{ACAD_REACTORS
330
17F
102
}
330
17F
100
DictionaryVariables
280
     0
  1
1
  0
DICTIONARYVAR
  5
188
102
{ACAD_REACTORS
330
17F
102
}
330
17F
100
DictionaryVariables
280
     0
  1
15
  0
DICTIONARYVAR
  5
186
102
{ACAD_REACTORS
330
17F
102
}
330
17F
100
DictionaryVariables
280
     0
  1
0
  0
DICTIONARYVAR
  5
184
102
{ACAD_REACTORS
330
17F
102
}
330
17F
100
DictionaryVariables
280
     0
  1
0
  0
DICTIONARY
  5
1C0
330
F6
100
AcDbDictionary
280
     1
281
     1
  3
ACAD_XREC_ROUNDTRIP
360
1C1
  0
DICTIONARY
  5
B4
330
B3
100
AcDbDictionary
280
     1
281
     1
  3
BUMPTILE
360
B6
  3
DIFFUSETILE
360
B5
  3
OPACITYTILE
360
B9
  3
REFLECTIONTILE
360
B8
  3
REFRACTIONTILE
360
BA
  3
SPECULARTILE
360
B7
  0
DICTIONARY
  5
AC
330
AB
100
AcDbDictionary
280
     1
281
     1
  3
BUMPTILE
360
AE
  3
DIFFUSETILE
360
AD
  3
OPACITYTILE
360
B1
  3
REFLECTIONTILE
360
B0
  3
REFRACTIONTILE
360
B2
  3
SPECULARTILE
360
AF
  0
DICTIONARY
  5
BC
330
BB
100
AcDbDictionary
280
     1
281
     1
  3
BUMPTILE
360
BE
  3
DIFFUSETILE
360
BD
  3
OPACITYTILE
360
C1
  3
REFLECTIONTILE
360
C0
  3
REFRACTIONTILE
360
C2
  3
SPECULARTILE
360
BF
  0
DICTIONARY
  5
1BC
330
F2
100
AcDbDictionary
280
     1
281
     1
  3
ACAD_XREC_ROUNDTRIP
360
1BD
  0
DICTIONARY
  5
1BE
330
F4
100
AcDbDictionary
280
     1
281
     1
  3
ACAD_XREC_ROUNDTRIP
360
1BF
  0
DICTIONARY
  5
189
330
DE
100
AcDbDictionary
280
     1
281
     1
  3
ACAD_ROUNDTRIP_2008_TABLESTYLE_CELLSTYLEMAP
360
18A
  0
DICTIONARY
  5
196
330
C9
100
AcDbDictionary
280
     1
281
     1
  3
ACAD_XREC_ROUNDTRIP
360
197
  0
DICTIONARY
  5
194
330
C8
100
AcDbDictionary
280
     1
281
     1
  3
ACAD_XREC_ROUNDTRIP
360
195
  0
DICTIONARY
  5
1A2
330
CF
100
AcDbDictionary
280
     1
281
     1
  3
ACAD_XREC_ROUNDTRIP
360
1A3
  0
DICTIONARY
  5
1AA
330
D3
100
AcDbDictionary
280
     1
281
     1
  3
ACAD_XREC_ROUNDTRIP
360
1AB
  0
DICTIONARY
  5
19C
330
CC
100
AcDbDictionary
280
     1
281
     1
  3
ACAD_XREC_ROUNDTRIP
360
19D
  0
DICTIONARY
  5
1A0
330
CE
100
AcDbDictionary
280
     1
281
     1
  3
ACAD_XREC_ROUNDTRIP
360
1A1
  0
DICTIONARY
  5
1BA
330
DB
100
AcDbDictionary
280
     1
281
     1
  3
ACAD_XREC_ROUNDTRIP
360
1BB
  0
DICTIONARY
  5
1A8
330
D2
100
AcDbDictionary
280
     1
281
     1
  3
ACAD_XREC_ROUNDTRIP
360
1A9
  0
DICTIONARY
  5
18C
330
C4
100
AcDbDictionary
280
     1
281
     1
  3
ACAD_XREC_ROUNDTRIP
360
18D
  0
DICTIONARY
  5
18E
330
C5
100
AcDbDictionary
280
     1
281
     1
  3
ACAD_XREC_ROUNDTRIP
360
18F
  0
DICTIONARY
  5
190
330
C6
100
AcDbDictionary
280
     1
281
     1
  3
ACAD_XREC_ROUNDTRIP
360
191
  0
DICTIONARY
  5
192
330
C7
100
AcDbDictionary
280
     1
281
     1
  3
ACAD_XREC_ROUNDTRIP
360
193
  0
DICTIONARY
  5
19A
330
CB
100
AcDbDictionary
280
     1
281
     1
  3
ACAD_XREC_ROUNDTRIP
360
19B
  0
DICTIONARY
  5
1B6
330
D9
100
AcDbDictionary
280
     1
281
     1
  3
ACAD_XREC_ROUNDTRIP
360
1B7
  0
DICTIONARY
  5
1A6
330
D1
100
AcDbDictionary
280
     1
281
     1
  3
ACAD_XREC_ROUNDTRIP
360
1A7
  0
DICTIONARY
  5
1B8
330
DA
100
AcDbDictionary
280
     1
281
     1
  3
ACAD_XREC_ROUNDTRIP
360
1B9
  0
DICTIONARY
  5
19E
330
CD
100
AcDbDictionary
280
     1
281
     1
  3
ACAD_XREC_ROUNDTRIP
360
19F
  0
DICTIONARY
  5
1B4
330
D8
100
AcDbDictionary
280
     1
281
     1
  3
ACAD_XREC_ROUNDTRIP
360
1B5
  0
DICTIONARY
  5
1B2
330
D7
100
AcDbDictionary
280
     1
281
     1
  3
ACAD_XREC_ROUNDTRIP
360
1B3
  0
DICTIONARY
  5
1AC
330
D4
100
AcDbDictionary
280
     1
281
     1
  3
ACAD_XREC_ROUNDTRIP
360
1AD
  0
DICTIONARY
  5
1AE
330
D5
100
AcDbDictionary
280
     1
281
     1
  3
ACAD_XREC_ROUNDTRIP
360
1AF
  0
DICTIONARY
  5
1A4
330
D0
100
AcDbDictionary
280
     1
281
     1
  3
ACAD_XREC_ROUNDTRIP
360
1A5
  0
DICTIONARY
  5
198
330
CA
100
AcDbDictionary
280
     1
281
     1
  3
ACAD_XREC_ROUNDTRIP
360
199
  0
DICTIONARY
  5
1B0
330
D6
100
AcDbDictionary
280
     1
281
     1
  3
ACAD_XREC_ROUNDTRIP
360
1B1
  0
XRECORD
  5
1C1
102
{ACAD_REACTORS
330
1C0
102
}
330
1C0
100
AcDbXrecord
280
     1
102
DISPLAYNAME
  1
Imperial24
102
FLAGS
 90
        0
  0
XRECORD
  5
B6
102
{ACAD_REACTORS
330
B4
102
}
330
B4
100
AcDbXrecord
280
     1
270
     1
271
     1
  0
XRECORD
  5
B5
102
{ACAD_REACTORS
330
B4
102
}
330
B4
100
AcDbXrecord
280
     1
270
     1
271
     1
  0
XRECORD
  5
B9
102
{ACAD_REACTORS
330
B4
102
}
330
B4
100
AcDbXrecord
280
     1
270
     1
271
     1
  0
XRECORD
  5
B8
102
{ACAD_REACTORS
330
B4
102
}
330
B4
100
AcDbXrecord
280
     1
270
     1
271
     1
  0
XRECORD
  5
BA
102
{ACAD_REACTORS
330
B4
102
}
330
B4
100
AcDbXrecord
280
     1
270
     1
271
     1
  0
XRECORD
  5
B7
102
{ACAD_REACTORS
330
B4
102
}
330
B4
100
AcDbXrecord
280
     1
270
     1
271
     1
  0
XRECORD
  5
AE
102
{ACAD_REACTORS
330
AC
102
}
330
AC
100
AcDbXrecord
280
     1
270
     1
271
     1
  0
XRECORD
  5
AD
102
{ACAD_REACTORS
330
AC
102
}
330
AC
100
AcDbXrecord
280
     1
270
     1
271
     1
  0
XRECORD
  5
B1
102
{ACAD_REACTORS
330
AC
102
}
330
AC
100
AcDbXrecord
280
     1
270
     1
271
     1
  0
XRECORD
  5
B0
102
{ACAD_REACTORS
330
AC
102
}
330
AC
100
AcDbXrecord
280
     1
270
     1
271
     1
  0
XRECORD
  5
B2
102
{ACAD_REACTORS
330
AC
102
}
330
AC
100
AcDbXrecord
280
     1
270
     1
271
     1
  0
XRECORD
  5
AF
102
{ACAD_REACTORS
330
AC
102
}
330
AC
100
AcDbXrecord
280
     1
270
     1
271
     1
  0
XRECORD
  5
BE
102
{ACAD_REACTORS
330
BC
102
}
330
BC
100
AcDbXrecord
280
     1
270
     1
271
     1
  0
XRECORD
  5
BD
102
{ACAD_REACTORS
330
BC
102
}
330
BC
100
AcDbXrecord
280
     1
270
     1
271
     1
  0
XRECORD
  5
C1
102
{ACAD_REACTORS
330
BC
102
}
330
BC
100
AcDbXrecord
280
     1
270
     1
271
     1
  0
XRECORD
  5
C0
102
{ACAD_REACTORS
330
BC
102
}
330
BC
100
AcDbXrecord
280
     1
270
     1
271
     1
  0
XRECORD
  5
C2
102
{ACAD_REACTORS
330
BC
102
}
330
BC
100
AcDbXrecord
280
     1
270
     1
271
     1
  0
XRECORD
  5
BF
102
{ACAD_REACTORS
330
BC
102
}
330
BC
100
AcDbXrecord
280
     1
270
     1
271
     1
  0
XRECORD
  5
1BD
102
{ACAD_REACTORS
330
1BC
102
}
330
1BC
100
AcDbXrecord
280
     1
102
ACAD_ROUNDTRIP_2012_MLEADER_STYLE
298
     1
  0
XRECORD
  5
1BF
102
{ACAD_REACTORS
330
1BE
102
}
330
1BE
100
AcDbXrecord
280
     1
102
DISPLAYNAME
  1
Imperial24
102
FLAGS
 90
        0
  0
CELLSTYLEMAP
  5
18A
102
{ACAD_REACTORS
330
189
102
}
330
189
100
AcDbCellStyleMap
 90
        3
300
CELLSTYLE
  1
TABLEFORMAT_BEGIN
 90
        5
170
     1
 91
        0
 92
    32768
 62
   257
 93
        1
300
CONTENTFORMAT
  1
CONTENTFORMAT_BEGIN
 90
        0
 91
        0
 92
      512
 93
        0
300

 40
0.0
140
1.0
 94
        5
 62
     0
340
11
144
0.25
309
CONTENTFORMAT_END
171
     0
 94
        0
309
TABLEFORMAT_END
  1
CELLSTYLE_BEGIN
 90
        1
 91
        1
300
_TITLE
309
CELLSTYLE_END
300
CELLSTYLE
  1
TABLEFORMAT_BEGIN
 90
        5
170
     1
 91
        0
 92
        0
 62
   257
 93
        1
300
CONTENTFORMAT
  1
CONTENTFORMAT_BEGIN
 90
        0
 91
        0
 92
      512
 93
        0
300

 40
0.0
140
1.0
 94
        5
 62
     0
340
11
144
0.18
309
CONTENTFORMAT_END
171
     0
 94
        0
309
TABLEFORMAT_END
  1
CELLSTYLE_BEGIN
 90
        2
 91
        1
300
_HEADER
309
CELLSTYLE_END
300
CELLSTYLE
  1
TABLEFORMAT_BEGIN
 90
        5
170
     1
 91
        0
 92
        0
 62
   257
 93
        1
300
CONTENTFORMAT
  1
CONTENTFORMAT_BEGIN
 90
        0
 91
        0
 92
      512
 93
        0
300

 40
0.0
140
1.0
 94
        2
 62
     0
340
11
144
0.18
309
CONTENTFORMAT_END
171
     0
 94
        0
309
TABLEFORMAT_END
  1
CELLSTYLE_BEGIN
 90
        3
 91
        2
300
_DATA
309
CELLSTYLE_END
  0
XRECORD
  5
197
102
{ACAD_REACTORS
330
196
102
}
330
196
100
AcDbXrecord
280
     1
102
RTVSPost2010Prop28
280
     1
102
RTVSPost2010PropOp28
 70
     1
102
RTVSPost2010Prop29
280
     1
102
RTVSPost2010PropOp29
 70
     1
102
RTVSPost2010Prop30
280
     0
102
RTVSPost2010PropOp30
 70
     1
102
RTVSPost2010Prop31
280
     0
102
RTVSPost2010PropOp31
 70
     1
102
RTVSPost2010Prop32
280
     0
102
RTVSPost2010PropOp32
 70
     1
102
RTVSPost2010Prop33
280
     0
102
RTVSPost2010PropOp33
 70
     1
102
RTVSPost2010Prop34
280
     0
102
RTVSPost2010PropOp34
 70
     1
102
RTVSPost2010Prop35
280
     0
102
RTVSPost2010PropOp35
 70
     1
102
RTVSPost2010Prop36
280
     0
102
RTVSPost2010PropOp36
 70
     1
102
RTVSPost2010Prop37
 90
       50
102
RTVSPost2010PropOp37
 70
     1
102
RTVSPost2010Prop38
140
0.0
102
RTVSPost2010PropOp38
 70
     1
102
RTVSPost2010Prop39
140
1.0
102
RTVSPost2010PropOp39
 70
     1
102
RTVSPost2010Prop40
 90
        0
102
RTVSPost2010PropOp40
 70
     1
102
RTVSPost2010Prop41ColorIndex
 90
       18
102
RTVSPost2010Prop41ColorRGB
 90
        0
102
RTVSPost2010PropOp41
 70
     1
102
RTVSPost2010Prop42
 90
       50
102
RTVSPost2010PropOp42
 70
     1
102
RTVSPost2010Prop43
 90
        3
102
RTVSPost2010PropOp43
 70
     1
102
RTVSPost2010Prop44ColorIndex
 90
        5
102
RTVSPost2010Prop44ColorRGB
 90
      255
102
RTVSPost2010PropOp44
 70
     1
102
RTVSPost2010Prop45
280
     0
102
RTVSPost2010PropOp45
 70
     1
102
RTVSPost2010Prop46
 90
       50
102
RTVSPost2010PropOp46
 70
     1
102
RTVSPost2010Prop47
 90
       50
102
RTVSPost2010PropOp47
 70
     1
102
RTVSPost2010Prop48
 90
       50
102
RTVSPost2010PropOp48
 70
     1
102
RTVSPost2010Prop49
280
     0
102
RTVSPost2010PropOp49
 70
     1
102
RTVSPost2010Prop50
 90
       50
102
RTVSPost2010PropOp50
 70
     1
102
RTVSPost2010Prop51ColorIndex
 90
      256
102
RTVSPost2010Prop51ColorRGB
 90
-16777216
102
RTVSPost2010PropOp51
 70
     0
102
RTVSPost2010Prop52
140
1.0
102
RTVSPost2010PropOp52
 70
     0
102
RTVSPost2010Prop53
 90
        2
102
RTVSPost2010PropOp53
 70
     1
102
RTVSPost2010Prop54
  1
strokes_ogs.tif
102
RTVSPost2010PropOp54
 70
     1
102
RTVSPost2010Prop55
280
     0
102
RTVSPost2010PropOp55
 70
     1
102
RTVSPost2010Prop56
140
1.0
102
RTVSPost2010PropOp56
 70
     1
102
RTVSPost2010Prop57
140
1.0
102
RTVSPost2010PropOp57
 70
     1
  0
XRECORD
  5
195
102
{ACAD_REACTORS
330
194
102
}
330
194
100
AcDbXrecord
280
     1
102
RTVSPost2010Prop28
280
     0
102
RTVSPost2010PropOp28
 70
     1
102
RTVSPost2010Prop29
280
     1
102
RTVSPost2010PropOp29
 70
     1
102
RTVSPost2010Prop30
280
     1
102
RTVSPost2010PropOp30
 70
     1
102
RTVSPost2010Prop31
280
     0
102
RTVSPost2010PropOp31
 70
     1
102
RTVSPost2010Prop32
280
     0
102
RTVSPost2010PropOp32
 70
     1
102
RTVSPost2010Prop33
280
     0
102
RTVSPost2010PropOp33
 70
     1
102
RTVSPost2010Prop34
280
     0
102
RTVSPost2010PropOp34
 70
     1
102
RTVSPost2010Prop35
280
     0
102
RTVSPost2010PropOp35
 70
     1
102
RTVSPost2010Prop36
280
     0
102
RTVSPost2010PropOp36
 70
     1
102
RTVSPost2010Prop37
 90
       50
102
RTVSPost2010PropOp37
 70
     1
102
RTVSPost2010Prop38
140
0.0
102
RTVSPost2010PropOp38
 70
     1
102
RTVSPost2010Prop39
140
1.0
102
RTVSPost2010PropOp39
 70
     1
102
RTVSPost2010Prop40
 90
        0
102
RTVSPost2010PropOp40
 70
     1
102
RTVSPost2010Prop41ColorIndex
 90
       18
102
RTVSPost2010Prop41ColorRGB
 90
        0
102
RTVSPost2010PropOp41
 70
     1
102
RTVSPost2010Prop42
 90
       50
102
RTVSPost2010PropOp42
 70
     1
102
RTVSPost2010Prop43
 90
        3
102
RTVSPost2010PropOp43
 70
     1
102
RTVSPost2010Prop44ColorIndex
 90
        5
102
RTVSPost2010Prop44ColorRGB
 90
      255
102
RTVSPost2010PropOp44
 70
     1
102
RTVSPost2010Prop45
280
     0
102
RTVSPost2010PropOp45
 70
     1
102
RTVSPost2010Prop46
 90
       50
102
RTVSPost2010PropOp46
 70
     1
102
RTVSPost2010Prop47
 90
       50
102
RTVSPost2010PropOp47
 70
     1
102
RTVSPost2010Prop48
 90
       50
102
RTVSPost2010PropOp48
 70
     1
102
RTVSPost2010Prop49
280
     0
102
RTVSPost2010PropOp49
 70
     1
102
RTVSPost2010Prop50
 90
       50
102
RTVSPost2010PropOp50
 70
     1
102
RTVSPost2010Prop51ColorIndex
 90
      256
102
RTVSPost2010Prop51ColorRGB
 90
-16777216
102
RTVSPost2010PropOp51
 70
     0
102
RTVSPost2010Prop52
140
1.0
102
RTVSPost2010PropOp52
 70
     0
102
RTVSPost2010Prop53
 90
        2
102
RTVSPost2010PropOp53
 70
     1
102
RTVSPost2010Prop54
  1
strokes_ogs.tif
102
RTVSPost2010PropOp54
 70
     1
102
RTVSPost2010Prop55
280
     0
102
RTVSPost2010PropOp55
 70
     1
102
RTVSPost2010Prop56
140
1.0
102
RTVSPost2010PropOp56
 70
     1
102
RTVSPost2010Prop57
140
1.0
102
RTVSPost2010PropOp57
 70
     1
  0
XRECORD
  5
1A3
102
{ACAD_REACTORS
330
1A2
102
}
330
1A2
100
AcDbXrecord
280
     1
102
RTVSPost2010Prop28
280
     0
102
RTVSPost2010PropOp28
 70
     1
102
RTVSPost2010Prop29
280
     1
102
RTVSPost2010PropOp29
 70
     1
102
RTVSPost2010Prop30
280
     1
102
RTVSPost2010PropOp30
 70
     1
102
RTVSPost2010Prop31
280
     0
102
RTVSPost2010PropOp31
 70
     1
102
RTVSPost2010Prop32
280
     0
102
RTVSPost2010PropOp32
 70
     1
102
RTVSPost2010Prop33
280
     0
102
RTVSPost2010PropOp33
 70
     1
102
RTVSPost2010Prop34
280
     0
102
RTVSPost2010PropOp34
 70
     1
102
RTVSPost2010Prop35
280
     0
102
RTVSPost2010PropOp35
 70
     1
102
RTVSPost2010Prop36
280
     0
102
RTVSPost2010PropOp36
 70
     1
102
RTVSPost2010Prop37
 90
       50
102
RTVSPost2010PropOp37
 70
     1
102
RTVSPost2010Prop38
140
0.0
102
RTVSPost2010PropOp38
 70
     1
102
RTVSPost2010Prop39
140
1.0
102
RTVSPost2010PropOp39
 70
     1
102
RTVSPost2010Prop40
 90
        0
102
RTVSPost2010PropOp40
 70
     1
102
RTVSPost2010Prop41ColorIndex
 90
       18
102
RTVSPost2010Prop41ColorRGB
 90
        0
102
RTVSPost2010PropOp41
 70
     1
102
RTVSPost2010Prop42
 90
       50
102
RTVSPost2010PropOp42
 70
     1
102
RTVSPost2010Prop43
 90
        3
102
RTVSPost2010PropOp43
 70
     1
102
RTVSPost2010Prop44ColorIndex
 90
        5
102
RTVSPost2010Prop44ColorRGB
 90
      255
102
RTVSPost2010PropOp44
 70
     1
102
RTVSPost2010Prop45
280
     0
102
RTVSPost2010PropOp45
 70
     1
102
RTVSPost2010Prop46
 90
       50
102
RTVSPost2010PropOp46
 70
     1
102
RTVSPost2010Prop47
 90
       50
102
RTVSPost2010PropOp47
 70
     1
102
RTVSPost2010Prop48
 90
       50
102
RTVSPost2010PropOp48
 70
     1
102
RTVSPost2010Prop49
280
     0
102
RTVSPost2010PropOp49
 70
     1
102
RTVSPost2010Prop50
 90
       50
102
RTVSPost2010PropOp50
 70
     1
102
RTVSPost2010Prop51ColorIndex
 90
      256
102
RTVSPost2010Prop51ColorRGB
 90
-16777216
102
RTVSPost2010PropOp51
 70
     0
102
RTVSPost2010Prop52
140
1.0
102
RTVSPost2010PropOp52
 70
     0
102
RTVSPost2010Prop53
 90
        2
102
RTVSPost2010PropOp53
 70
     1
102
RTVSPost2010Prop54
  1
strokes_ogs.tif
102
RTVSPost2010PropOp54
 70
     1
102
RTVSPost2010Prop55
280
     0
102
RTVSPost2010PropOp55
 70
     1
102
RTVSPost2010Prop56
140
1.0
102
RTVSPost2010PropOp56
 70
     1
102
RTVSPost2010Prop57
140
1.0
102
RTVSPost2010PropOp57
 70
     1
  0
XRECORD
  5
1AB
102
{ACAD_REACTORS
330
1AA
102
}
330
1AA
100
AcDbXrecord
280
     1
102
RTVSPost2010Prop28
280
     0
102
RTVSPost2010PropOp28
 70
     1
102
RTVSPost2010Prop29
280
     1
102
RTVSPost2010PropOp29
 70
     1
102
RTVSPost2010Prop30
280
     1
102
RTVSPost2010PropOp30
 70
     1
102
RTVSPost2010Prop31
280
     0
102
RTVSPost2010PropOp31
 70
     1
102
RTVSPost2010Prop32
280
     0
102
RTVSPost2010PropOp32
 70
     1
102
RTVSPost2010Prop33
280
     0
102
RTVSPost2010PropOp33
 70
     1
102
RTVSPost2010Prop34
280
     0
102
RTVSPost2010PropOp34
 70
     1
102
RTVSPost2010Prop35
280
     0
102
RTVSPost2010PropOp35
 70
     1
102
RTVSPost2010Prop36
280
     0
102
RTVSPost2010PropOp36
 70
     1
102
RTVSPost2010Prop37
 90
       50
102
RTVSPost2010PropOp37
 70
     1
102
RTVSPost2010Prop38
140
0.0
102
RTVSPost2010PropOp38
 70
     1
102
RTVSPost2010Prop39
140
1.0
102
RTVSPost2010PropOp39
 70
     1
102
RTVSPost2010Prop40
 90
        0
102
RTVSPost2010PropOp40
 70
     1
102
RTVSPost2010Prop41ColorIndex
 90
       18
102
RTVSPost2010Prop41ColorRGB
 90
        0
102
RTVSPost2010PropOp41
 70
     1
102
RTVSPost2010Prop42
 90
       50
102
RTVSPost2010PropOp42
 70
     1
102
RTVSPost2010Prop43
 90
        3
102
RTVSPost2010PropOp43
 70
     1
102
RTVSPost2010Prop44ColorIndex
 90
        5
102
RTVSPost2010Prop44ColorRGB
 90
      255
102
RTVSPost2010PropOp44
 70
     1
102
RTVSPost2010Prop45
280
     0
102
RTVSPost2010PropOp45
 70
     1
102
RTVSPost2010Prop46
 90
       50
102
RTVSPost2010PropOp46
 70
     1
102
RTVSPost2010Prop47
 90
       50
102
RTVSPost2010PropOp47
 70
     1
102
RTVSPost2010Prop48
 90
       50
102
RTVSPost2010PropOp48
 70
     1
102
RTVSPost2010Prop49
280
     0
102
RTVSPost2010PropOp49
 70
     1
102
RTVSPost2010Prop50
 90
       50
102
RTVSPost2010PropOp50
 70
     1
102
RTVSPost2010Prop51ColorIndex
 90
      256
102
RTVSPost2010Prop51ColorRGB
 90
-16777216
102
RTVSPost2010PropOp51
 70
     0
102
RTVSPost2010Prop52
140
1.0
102
RTVSPost2010PropOp52
 70
     0
102
RTVSPost2010Prop53
 90
        2
102
RTVSPost2010PropOp53
 70
     1
102
RTVSPost2010Prop54
  1
strokes_ogs.tif
102
RTVSPost2010PropOp54
 70
     1
102
RTVSPost2010Prop55
280
     0
102
RTVSPost2010PropOp55
 70
     1
102
RTVSPost2010Prop56
140
1.0
102
RTVSPost2010PropOp56
 70
     1
102
RTVSPost2010Prop57
140
1.0
102
RTVSPost2010PropOp57
 70
     1
  0
XRECORD
  5
19D
102
{ACAD_REACTORS
330
19C
102
}
330
19C
100
AcDbXrecord
280
     1
102
RTVSPost2010Prop28
280
     0
102
RTVSPost2010PropOp28
 70
     1
102
RTVSPost2010Prop29
280
     1
102
RTVSPost2010PropOp29
 70
     1
102
RTVSPost2010Prop30
280
     1
102
RTVSPost2010PropOp30
 70
     1
102
RTVSPost2010Prop31
280
     0
102
RTVSPost2010PropOp31
 70
     1
102
RTVSPost2010Prop32
280
     0
102
RTVSPost2010PropOp32
 70
     1
102
RTVSPost2010Prop33
280
     0
102
RTVSPost2010PropOp33
 70
     1
102
RTVSPost2010Prop34
280
     0
102
RTVSPost2010PropOp34
 70
     1
102
RTVSPost2010Prop35
280
     0
102
RTVSPost2010PropOp35
 70
     1
102
RTVSPost2010Prop36
280
     0
102
RTVSPost2010PropOp36
 70
     1
102
RTVSPost2010Prop37
 90
       50
102
RTVSPost2010PropOp37
 70
     1
102
RTVSPost2010Prop38
140
0.0
102
RTVSPost2010PropOp38
 70
     1
102
RTVSPost2010Prop39
140
1.0
102
RTVSPost2010PropOp39
 70
     1
102
RTVSPost2010Prop40
 90
        0
102
RTVSPost2010PropOp40
 70
     1
102
RTVSPost2010Prop41ColorIndex
 90
       18
102
RTVSPost2010Prop41ColorRGB
 90
        0
102
RTVSPost2010PropOp41
 70
     1
102
RTVSPost2010Prop42
 90
       50
102
RTVSPost2010PropOp42
 70
     1
102
RTVSPost2010Prop43
 90
        3
102
RTVSPost2010PropOp43
 70
     1
102
RTVSPost2010Prop44ColorIndex
 90
        5
102
RTVSPost2010Prop44ColorRGB
 90
      255
102
RTVSPost2010PropOp44
 70
     1
102
RTVSPost2010Prop45
280
     0
102
RTVSPost2010PropOp45
 70
     1
102
RTVSPost2010Prop46
 90
       50
102
RTVSPost2010PropOp46
 70
     1
102
RTVSPost2010Prop47
 90
       50
102
RTVSPost2010PropOp47
 70
     1
102
RTVSPost2010Prop48
 90
       50
102
RTVSPost2010PropOp48
 70
     1
102
RTVSPost2010Prop49
280
     0
102
RTVSPost2010PropOp49
 70
     1
102
RTVSPost2010Prop50
 90
       50
102
RTVSPost2010PropOp50
 70
     1
102
RTVSPost2010Prop51ColorIndex
 90
      256
102
RTVSPost2010Prop51ColorRGB
 90
-16777216
102
RTVSPost2010PropOp51
 70
     0
102
RTVSPost2010Prop52
140
1.0
102
RTVSPost2010PropOp52
 70
     0
102
RTVSPost2010Prop53
 90
        2
102
RTVSPost2010PropOp53
 70
     1
102
RTVSPost2010Prop54
  1
strokes_ogs.tif
102
RTVSPost2010PropOp54
 70
     1
102
RTVSPost2010Prop55
280
     0
102
RTVSPost2010PropOp55
 70
     1
102
RTVSPost2010Prop56
140
1.0
102
RTVSPost2010PropOp56
 70
     1
102
RTVSPost2010Prop57
140
1.0
102
RTVSPost2010PropOp57
 70
     1
  0
XRECORD
  5
1A1
102
{ACAD_REACTORS
330
1A0
102
}
330
1A0
100
AcDbXrecord
280
     1
102
RTVSPost2010Prop28
280
     0
102
RTVSPost2010PropOp28
 70
     1
102
RTVSPost2010Prop29
280
     1
102
RTVSPost2010PropOp29
 70
     1
102
RTVSPost2010Prop30
280
     1
102
RTVSPost2010PropOp30
 70
     1
102
RTVSPost2010Prop31
280
     0
102
RTVSPost2010PropOp31
 70
     1
102
RTVSPost2010Prop32
280
     0
102
RTVSPost2010PropOp32
 70
     1
102
RTVSPost2010Prop33
280
     0
102
RTVSPost2010PropOp33
 70
     1
102
RTVSPost2010Prop34
280
     0
102
RTVSPost2010PropOp34
 70
     1
102
RTVSPost2010Prop35
280
     0
102
RTVSPost2010PropOp35
 70
     1
102
RTVSPost2010Prop36
280
     0
102
RTVSPost2010PropOp36
 70
     1
102
RTVSPost2010Prop37
 90
       50
102
RTVSPost2010PropOp37
 70
     1
102
RTVSPost2010Prop38
140
0.0
102
RTVSPost2010PropOp38
 70
     1
102
RTVSPost2010Prop39
140
1.0
102
RTVSPost2010PropOp39
 70
     1
102
RTVSPost2010Prop40
 90
        0
102
RTVSPost2010PropOp40
 70
     1
102
RTVSPost2010Prop41ColorIndex
 90
       18
102
RTVSPost2010Prop41ColorRGB
 90
        0
102
RTVSPost2010PropOp41
 70
     1
102
RTVSPost2010Prop42
 90
       50
102
RTVSPost2010PropOp42
 70
     1
102
RTVSPost2010Prop43
 90
        3
102
RTVSPost2010PropOp43
 70
     1
102
RTVSPost2010Prop44ColorIndex
 90
        5
102
RTVSPost2010Prop44ColorRGB
 90
      255
102
RTVSPost2010PropOp44
 70
     1
102
RTVSPost2010Prop45
280
     0
102
RTVSPost2010PropOp45
 70
     1
102
RTVSPost2010Prop46
 90
       50
102
RTVSPost2010PropOp46
 70
     1
102
RTVSPost2010Prop47
 90
       50
102
RTVSPost2010PropOp47
 70
     1
102
RTVSPost2010Prop48
 90
       50
102
RTVSPost2010PropOp48
 70
     1
102
RTVSPost2010Prop49
280
     0
102
RTVSPost2010PropOp49
 70
     1
102
RTVSPost2010Prop50
 90
       50
102
RTVSPost2010PropOp50
 70
     1
102
RTVSPost2010Prop51ColorIndex
 90
      256
102
RTVSPost2010Prop51ColorRGB
 90
-16777216
102
RTVSPost2010PropOp51
 70
     0
102
RTVSPost2010Prop52
140
1.0
102
RTVSPost2010PropOp52
 70
     0
102
RTVSPost2010Prop53
 90
        2
102
RTVSPost2010PropOp53
 70
     1
102
RTVSPost2010Prop54
  1
strokes_ogs.tif
102
RTVSPost2010PropOp54
 70
     1
102
RTVSPost2010Prop55
280
     0
102
RTVSPost2010PropOp55
 70
     1
102
RTVSPost2010Prop56
140
1.0
102
RTVSPost2010PropOp56
 70
     1
102
RTVSPost2010Prop57
140
1.0
102
RTVSPost2010PropOp57
 70
     1
  0
XRECORD
  5
1BB
102
{ACAD_REACTORS
330
1BA
102
}
330
1BA
100
AcDbXrecord
280
     1
102
RTVSPost2010Prop28
280
     0
102
RTVSPost2010PropOp28
 70
     0
102
RTVSPost2010Prop29
280
     1
102
RTVSPost2010PropOp29
 70
     0
102
RTVSPost2010Prop30
280
     1
102
RTVSPost2010PropOp30
 70
     0
102
RTVSPost2010Prop31
280
     0
102
RTVSPost2010PropOp31
 70
     0
102
RTVSPost2010Prop32
280
     0
102
RTVSPost2010PropOp32
 70
     0
102
RTVSPost2010Prop33
280
     0
102
RTVSPost2010PropOp33
 70
     0
102
RTVSPost2010Prop34
280
     0
102
RTVSPost2010PropOp34
 70
     0
102
RTVSPost2010Prop35
280
     0
102
RTVSPost2010PropOp35
 70
     0
102
RTVSPost2010Prop36
280
     0
102
RTVSPost2010PropOp36
 70
     0
102
RTVSPost2010Prop37
 90
       50
102
RTVSPost2010PropOp37
 70
     0
102
RTVSPost2010Prop38
140
0.0
102
RTVSPost2010PropOp38
 70
     0
102
RTVSPost2010Prop39
140
1.0
102
RTVSPost2010PropOp39
 70
     0
102
RTVSPost2010Prop40
 90
        0
102
RTVSPost2010PropOp40
 70
     0
102
RTVSPost2010Prop41ColorIndex
 90
       18
102
RTVSPost2010Prop41ColorRGB
 90
        0
102
RTVSPost2010PropOp41
 70
     0
102
RTVSPost2010Prop42
 90
       50
102
RTVSPost2010PropOp42
 70
     0
102
RTVSPost2010Prop43
 90
        3
102
RTVSPost2010PropOp43
 70
     0
102
RTVSPost2010Prop44ColorIndex
 90
        5
102
RTVSPost2010Prop44ColorRGB
 90
      255
102
RTVSPost2010PropOp44
 70
     0
102
RTVSPost2010Prop45
280
     0
102
RTVSPost2010PropOp45
 70
     0
102
RTVSPost2010Prop46
 90
       50
102
RTVSPost2010PropOp46
 70
     0
102
RTVSPost2010Prop47
 90
       50
102
RTVSPost2010PropOp47
 70
     0
102
RTVSPost2010Prop48
 90
       50
102
RTVSPost2010PropOp48
 70
     0
102
RTVSPost2010Prop49
280
     0
102
RTVSPost2010PropOp49
 70
     0
102
RTVSPost2010Prop50
 90
       50
102
RTVSPost2010PropOp50
 70
     0
102
RTVSPost2010Prop51ColorIndex
 90
      256
102
RTVSPost2010Prop51ColorRGB
 90
-16777216
102
RTVSPost2010PropOp51
 70
     0
102
RTVSPost2010Prop52
140
1.0
102
RTVSPost2010PropOp52
 70
     0
102
RTVSPost2010Prop53
 90
        2
102
RTVSPost2010PropOp53
 70
     0
102
RTVSPost2010Prop54
  1
strokes_ogs.tif
102
RTVSPost2010PropOp54
 70
     0
102
RTVSPost2010Prop55
280
     0
102
RTVSPost2010PropOp55
 70
     0
102
RTVSPost2010Prop56
140
1.0
102
RTVSPost2010PropOp56
 70
     0
102
RTVSPost2010Prop57
140
1.0
102
RTVSPost2010PropOp57
 70
     0
  0
XRECORD
  5
1A9
102
{ACAD_REACTORS
330
1A8
102
}
330
1A8
100
AcDbXrecord
280
     1
102
RTVSPost2010Prop28
280
     0
102
RTVSPost2010PropOp28
 70
     1
102
RTVSPost2010Prop29
280
     1
102
RTVSPost2010PropOp29
 70
     1
102
RTVSPost2010Prop30
280
     1
102
RTVSPost2010PropOp30
 70
     1
102
RTVSPost2010Prop31
280
     0
102
RTVSPost2010PropOp31
 70
     1
102
RTVSPost2010Prop32
280
     0
102
RTVSPost2010PropOp32
 70
     1
102
RTVSPost2010Prop33
280
     0
102
RTVSPost2010PropOp33
 70
     1
102
RTVSPost2010Prop34
280
     0
102
RTVSPost2010PropOp34
 70
     1
102
RTVSPost2010Prop35
280
     0
102
RTVSPost2010PropOp35
 70
     1
102
RTVSPost2010Prop36
280
     0
102
RTVSPost2010PropOp36
 70
     1
102
RTVSPost2010Prop37
 90
       50
102
RTVSPost2010PropOp37
 70
     1
102
RTVSPost2010Prop38
140
0.0
102
RTVSPost2010PropOp38
 70
     1
102
RTVSPost2010Prop39
140
1.0
102
RTVSPost2010PropOp39
 70
     1
102
RTVSPost2010Prop40
 90
        0
102
RTVSPost2010PropOp40
 70
     1
102
RTVSPost2010Prop41ColorIndex
 90
       18
102
RTVSPost2010Prop41ColorRGB
 90
        0
102
RTVSPost2010PropOp41
 70
     1
102
RTVSPost2010Prop42
 90
       50
102
RTVSPost2010PropOp42
 70
     1
102
RTVSPost2010Prop43
 90
        3
102
RTVSPost2010PropOp43
 70
     1
102
RTVSPost2010Prop44ColorIndex
 90
        5
102
RTVSPost2010Prop44ColorRGB
 90
      255
102
RTVSPost2010PropOp44
 70
     1
102
RTVSPost2010Prop45
280
     0
102
RTVSPost2010PropOp45
 70
     1
102
RTVSPost2010Prop46
 90
       50
102
RTVSPost2010PropOp46
 70
     1
102
RTVSPost2010Prop47
 90
       50
102
RTVSPost2010PropOp47
 70
     1
102
RTVSPost2010Prop48
 90
       50
102
RTVSPost2010PropOp48
 70
     1
102
RTVSPost2010Prop49
280
     0
102
RTVSPost2010PropOp49
 70
     1
102
RTVSPost2010Prop50
 90
       50
102
RTVSPost2010PropOp50
 70
     1
102
RTVSPost2010Prop51ColorIndex
 90
      256
102
RTVSPost2010Prop51ColorRGB
 90
-16777216
102
RTVSPost2010PropOp51
 70
     0
102
RTVSPost2010Prop52
140
1.0
102
RTVSPost2010PropOp52
 70
     0
102
RTVSPost2010Prop53
 90
        2
102
RTVSPost2010PropOp53
 70
     1
102
RTVSPost2010Prop54
  1
strokes_ogs.tif
102
RTVSPost2010PropOp54
 70
     1
102
RTVSPost2010Prop55
280
     0
102
RTVSPost2010PropOp55
 70
     1
102
RTVSPost2010Prop56
140
1.0
102
RTVSPost2010PropOp56
 70
     1
102
RTVSPost2010Prop57
140
1.0
102
RTVSPost2010PropOp57
 70
     1
  0
XRECORD
  5
18D
102
{ACAD_REACTORS
330
18C
102
}
330
18C
100
AcDbXrecord
280
     1
102
RTVSPost2010Prop28
280
     0
102
RTVSPost2010PropOp28
 70
     1
102
RTVSPost2010Prop29
280
     1
102
RTVSPost2010PropOp29
 70
     1
102
RTVSPost2010Prop30
280
     1
102
RTVSPost2010PropOp30
 70
     1
102
RTVSPost2010Prop31
280
     0
102
RTVSPost2010PropOp31
 70
     1
102
RTVSPost2010Prop32
280
     0
102
RTVSPost2010PropOp32
 70
     1
102
RTVSPost2010Prop33
280
     0
102
RTVSPost2010PropOp33
 70
     1
102
RTVSPost2010Prop34
280
     0
102
RTVSPost2010PropOp34
 70
     1
102
RTVSPost2010Prop35
280
     0
102
RTVSPost2010PropOp35
 70
     1
102
RTVSPost2010Prop36
280
     0
102
RTVSPost2010PropOp36
 70
     1
102
RTVSPost2010Prop37
 90
       50
102
RTVSPost2010PropOp37
 70
     1
102
RTVSPost2010Prop38
140
0.0
102
RTVSPost2010PropOp38
 70
     1
102
RTVSPost2010Prop39
140
1.0
102
RTVSPost2010PropOp39
 70
     1
102
RTVSPost2010Prop40
 90
        0
102
RTVSPost2010PropOp40
 70
     1
102
RTVSPost2010Prop41ColorIndex
 90
       18
102
RTVSPost2010Prop41ColorRGB
 90
        0
102
RTVSPost2010PropOp41
 70
     1
102
RTVSPost2010Prop42
 90
       50
102
RTVSPost2010PropOp42
 70
     1
102
RTVSPost2010Prop43
 90
        3
102
RTVSPost2010PropOp43
 70
     1
102
RTVSPost2010Prop44ColorIndex
 90
        5
102
RTVSPost2010Prop44ColorRGB
 90
      255
102
RTVSPost2010PropOp44
 70
     1
102
RTVSPost2010Prop45
280
     0
102
RTVSPost2010PropOp45
 70
     1
102
RTVSPost2010Prop46
 90
       50
102
RTVSPost2010PropOp46
 70
     1
102
RTVSPost2010Prop47
 90
       50
102
RTVSPost2010PropOp47
 70
     1
102
RTVSPost2010Prop48
 90
       50
102
RTVSPost2010PropOp48
 70
     1
102
RTVSPost2010Prop49
280
     0
102
RTVSPost2010PropOp49
 70
     1
102
RTVSPost2010Prop50
 90
       50
102
RTVSPost2010PropOp50
 70
     1
102
RTVSPost2010Prop51ColorIndex
 90
      256
102
RTVSPost2010Prop51ColorRGB
 90
-16777216
102
RTVSPost2010PropOp51
 70
     0
102
RTVSPost2010Prop52
140
1.0
102
RTVSPost2010PropOp52
 70
     0
102
RTVSPost2010Prop53
 90
        2
102
RTVSPost2010PropOp53
 70
     1
102
RTVSPost2010Prop54
  1
strokes_ogs.tif
102
RTVSPost2010PropOp54
 70
     1
102
RTVSPost2010Prop55
280
     0
102
RTVSPost2010PropOp55
 70
     1
102
RTVSPost2010Prop56
140
1.0
102
RTVSPost2010PropOp56
 70
     1
102
RTVSPost2010Prop57
140
1.0
102
RTVSPost2010PropOp57
 70
     1
  0
XRECORD
  5
18F
102
{ACAD_REACTORS
330
18E
102
}
330
18E
100
AcDbXrecord
280
     1
102
RTVSPost2010Prop28
280
     0
102
RTVSPost2010PropOp28
 70
     1
102
RTVSPost2010Prop29
280
     1
102
RTVSPost2010PropOp29
 70
     1
102
RTVSPost2010Prop30
280
     1
102
RTVSPost2010PropOp30
 70
     1
102
RTVSPost2010Prop31
280
     0
102
RTVSPost2010PropOp31
 70
     1
102
RTVSPost2010Prop32
280
     0
102
RTVSPost2010PropOp32
 70
     1
102
RTVSPost2010Prop33
280
     0
102
RTVSPost2010PropOp33
 70
     1
102
RTVSPost2010Prop34
280
     0
102
RTVSPost2010PropOp34
 70
     1
102
RTVSPost2010Prop35
280
     0
102
RTVSPost2010PropOp35
 70
     1
102
RTVSPost2010Prop36
280
     0
102
RTVSPost2010PropOp36
 70
     1
102
RTVSPost2010Prop37
 90
       50
102
RTVSPost2010PropOp37
 70
     1
102
RTVSPost2010Prop38
140
0.0
102
RTVSPost2010PropOp38
 70
     1
102
RTVSPost2010Prop39
140
1.0
102
RTVSPost2010PropOp39
 70
     1
102
RTVSPost2010Prop40
 90
        0
102
RTVSPost2010PropOp40
 70
     1
102
RTVSPost2010Prop41ColorIndex
 90
       18
102
RTVSPost2010Prop41ColorRGB
 90
        0
102
RTVSPost2010PropOp41
 70
     1
102
RTVSPost2010Prop42
 90
       50
102
RTVSPost2010PropOp42
 70
     1
102
RTVSPost2010Prop43
 90
        3
102
RTVSPost2010PropOp43
 70
     1
102
RTVSPost2010Prop44ColorIndex
 90
        5
102
RTVSPost2010Prop44ColorRGB
 90
      255
102
RTVSPost2010PropOp44
 70
     1
102
RTVSPost2010Prop45
280
     0
102
RTVSPost2010PropOp45
 70
     1
102
RTVSPost2010Prop46
 90
       50
102
RTVSPost2010PropOp46
 70
     1
102
RTVSPost2010Prop47
 90
       50
102
RTVSPost2010PropOp47
 70
     1
102
RTVSPost2010Prop48
 90
       50
102
RTVSPost2010PropOp48
 70
     1
102
RTVSPost2010Prop49
280
     0
102
RTVSPost2010PropOp49
 70
     1
102
RTVSPost2010Prop50
 90
       50
102
RTVSPost2010PropOp50
 70
     1
102
RTVSPost2010Prop51ColorIndex
 90
      256
102
RTVSPost2010Prop51ColorRGB
 90
-16777216
102
RTVSPost2010PropOp51
 70
     0
102
RTVSPost2010Prop52
140
1.0
102
RTVSPost2010PropOp52
 70
     0
102
RTVSPost2010Prop53
 90
        2
102
RTVSPost2010PropOp53
 70
     1
102
RTVSPost2010Prop54
  1
strokes_ogs.tif
102
RTVSPost2010PropOp54
 70
     1
102
RTVSPost2010Prop55
280
     0
102
RTVSPost2010PropOp55
 70
     1
102
RTVSPost2010Prop56
140
1.0
102
RTVSPost2010PropOp56
 70
     1
102
RTVSPost2010Prop57
140
1.0
102
RTVSPost2010PropOp57
 70
     1
  0
XRECORD
  5
191
102
{ACAD_REACTORS
330
190
102
}
330
190
100
AcDbXrecord
280
     1
102
RTVSPost2010Prop28
280
     0
102
RTVSPost2010PropOp28
 70
     1
102
RTVSPost2010Prop29
280
     1
102
RTVSPost2010PropOp29
 70
     1
102
RTVSPost2010Prop30
280
     1
102
RTVSPost2010PropOp30
 70
     1
102
RTVSPost2010Prop31
280
     0
102
RTVSPost2010PropOp31
 70
     1
102
RTVSPost2010Prop32
280
     0
102
RTVSPost2010PropOp32
 70
     1
102
RTVSPost2010Prop33
280
     0
102
RTVSPost2010PropOp33
 70
     1
102
RTVSPost2010Prop34
280
     0
102
RTVSPost2010PropOp34
 70
     1
102
RTVSPost2010Prop35
280
     0
102
RTVSPost2010PropOp35
 70
     1
102
RTVSPost2010Prop36
280
     0
102
RTVSPost2010PropOp36
 70
     1
102
RTVSPost2010Prop37
 90
       50
102
RTVSPost2010PropOp37
 70
     1
102
RTVSPost2010Prop38
140
0.0
102
RTVSPost2010PropOp38
 70
     1
102
RTVSPost2010Prop39
140
1.0
102
RTVSPost2010PropOp39
 70
     1
102
RTVSPost2010Prop40
 90
        0
102
RTVSPost2010PropOp40
 70
     1
102
RTVSPost2010Prop41ColorIndex
 90
       18
102
RTVSPost2010Prop41ColorRGB
 90
        0
102
RTVSPost2010PropOp41
 70
     1
102
RTVSPost2010Prop42
 90
       50
102
RTVSPost2010PropOp42
 70
     1
102
RTVSPost2010Prop43
 90
        3
102
RTVSPost2010PropOp43
 70
     1
102
RTVSPost2010Prop44ColorIndex
 90
        5
102
RTVSPost2010Prop44ColorRGB
 90
      255
102
RTVSPost2010PropOp44
 70
     1
102
RTVSPost2010Prop45
280
     0
102
RTVSPost2010PropOp45
 70
     1
102
RTVSPost2010Prop46
 90
       50
102
RTVSPost2010PropOp46
 70
     1
102
RTVSPost2010Prop47
 90
       50
102
RTVSPost2010PropOp47
 70
     1
102
RTVSPost2010Prop48
 90
       50
102
RTVSPost2010PropOp48
 70
     1
102
RTVSPost2010Prop49
280
     0
102
RTVSPost2010PropOp49
 70
     1
102
RTVSPost2010Prop50
 90
       50
102
RTVSPost2010PropOp50
 70
     1
102
RTVSPost2010Prop51ColorIndex
 90
      256
102
RTVSPost2010Prop51ColorRGB
 90
-16777216
102
RTVSPost2010PropOp51
 70
     0
102
RTVSPost2010Prop52
140
1.0
102
RTVSPost2010PropOp52
 70
     0
102
RTVSPost2010Prop53
 90
        2
102
RTVSPost2010PropOp53
 70
     1
102
RTVSPost2010Prop54
  1
strokes_ogs.tif
102
RTVSPost2010PropOp54
 70
     1
102
RTVSPost2010Prop55
280
     0
102
RTVSPost2010PropOp55
 70
     1
102
RTVSPost2010Prop56
140
1.0
102
RTVSPost2010PropOp56
 70
     1
102
RTVSPost2010Prop57
140
1.0
102
RTVSPost2010PropOp57
 70
     1
  0
XRECORD
  5
193
102
{ACAD_REACTORS
330
192
102
}
330
192
100
AcDbXrecord
280
     1
102
RTVSPost2010Prop28
280
     0
102
RTVSPost2010PropOp28
 70
     1
102
RTVSPost2010Prop29
280
     1
102
RTVSPost2010PropOp29
 70
     1
102
RTVSPost2010Prop30
280
     1
102
RTVSPost2010PropOp30
 70
     1
102
RTVSPost2010Prop31
280
     0
102
RTVSPost2010PropOp31
 70
     1
102
RTVSPost2010Prop32
280
     0
102
RTVSPost2010PropOp32
 70
     1
102
RTVSPost2010Prop33
280
     0
102
RTVSPost2010PropOp33
 70
     1
102
RTVSPost2010Prop34
280
     0
102
RTVSPost2010PropOp34
 70
     1
102
RTVSPost2010Prop35
280
     0
102
RTVSPost2010PropOp35
 70
     1
102
RTVSPost2010Prop36
280
     0
102
RTVSPost2010PropOp36
 70
     1
102
RTVSPost2010Prop37
 90
       50
102
RTVSPost2010PropOp37
 70
     1
102
RTVSPost2010Prop38
140
0.0
102
RTVSPost2010PropOp38
 70
     1
102
RTVSPost2010Prop39
140
1.0
102
RTVSPost2010PropOp39
 70
     1
102
RTVSPost2010Prop40
 90
        0
102
RTVSPost2010PropOp40
 70
     1
102
RTVSPost2010Prop41ColorIndex
 90
       18
102
RTVSPost2010Prop41ColorRGB
 90
        0
102
RTVSPost2010PropOp41
 70
     1
102
RTVSPost2010Prop42
 90
       50
102
RTVSPost2010PropOp42
 70
     1
102
RTVSPost2010Prop43
 90
        3
102
RTVSPost2010PropOp43
 70
     1
102
RTVSPost2010Prop44ColorIndex
 90
        5
102
RTVSPost2010Prop44ColorRGB
 90
      255
102
RTVSPost2010PropOp44
 70
     1
102
RTVSPost2010Prop45
280
     0
102
RTVSPost2010PropOp45
 70
     1
102
RTVSPost2010Prop46
 90
       50
102
RTVSPost2010PropOp46
 70
     1
102
RTVSPost2010Prop47
 90
       50
102
RTVSPost2010PropOp47
 70
     1
102
RTVSPost2010Prop48
 90
       50
102
RTVSPost2010PropOp48
 70
     1
102
RTVSPost2010Prop49
280
     0
102
RTVSPost2010PropOp49
 70
     1
102
RTVSPost2010Prop50
 90
       50
102
RTVSPost2010PropOp50
 70
     1
102
RTVSPost2010Prop51ColorIndex
 90
      256
102
RTVSPost2010Prop51ColorRGB
 90
-16777216
102
RTVSPost2010PropOp51
 70
     0
102
RTVSPost2010Prop52
140
1.0
102
RTVSPost2010PropOp52
 70
     0
102
RTVSPost2010Prop53
 90
        2
102
RTVSPost2010PropOp53
 70
     1
102
RTVSPost2010Prop54
  1
strokes_ogs.tif
102
RTVSPost2010PropOp54
 70
     1
102
RTVSPost2010Prop55
280
     0
102
RTVSPost2010PropOp55
 70
     1
102
RTVSPost2010Prop56
140
1.0
102
RTVSPost2010PropOp56
 70
     1
102
RTVSPost2010Prop57
140
1.0
102
RTVSPost2010PropOp57
 70
     1
  0
XRECORD
  5
19B
102
{ACAD_REACTORS
330
19A
102
}
330
19A
100
AcDbXrecord
280
     1
102
RTVSPost2010Prop28
280
     0
102
RTVSPost2010PropOp28
 70
     1
102
RTVSPost2010Prop29
280
     1
102
RTVSPost2010PropOp29
 70
     1
102
RTVSPost2010Prop30
280
     1
102
RTVSPost2010PropOp30
 70
     1
102
RTVSPost2010Prop31
280
     0
102
RTVSPost2010PropOp31
 70
     1
102
RTVSPost2010Prop32
280
     0
102
RTVSPost2010PropOp32
 70
     1
102
RTVSPost2010Prop33
280
     0
102
RTVSPost2010PropOp33
 70
     1
102
RTVSPost2010Prop34
280
     0
102
RTVSPost2010PropOp34
 70
     1
102
RTVSPost2010Prop35
280
     0
102
RTVSPost2010PropOp35
 70
     1
102
RTVSPost2010Prop36
280
     0
102
RTVSPost2010PropOp36
 70
     1
102
RTVSPost2010Prop37
 90
       50
102
RTVSPost2010PropOp37
 70
     1
102
RTVSPost2010Prop38
140
0.0
102
RTVSPost2010PropOp38
 70
     1
102
RTVSPost2010Prop39
140
1.0
102
RTVSPost2010PropOp39
 70
     1
102
RTVSPost2010Prop40
 90
        0
102
RTVSPost2010PropOp40
 70
     1
102
RTVSPost2010Prop41ColorIndex
 90
       18
102
RTVSPost2010Prop41ColorRGB
 90
        0
102
RTVSPost2010PropOp41
 70
     1
102
RTVSPost2010Prop42
 90
       50
102
RTVSPost2010PropOp42
 70
     1
102
RTVSPost2010Prop43
 90
        3
102
RTVSPost2010PropOp43
 70
     1
102
RTVSPost2010Prop44ColorIndex
 90
        5
102
RTVSPost2010Prop44ColorRGB
 90
      255
102
RTVSPost2010PropOp44
 70
     1
102
RTVSPost2010Prop45
280
     0
102
RTVSPost2010PropOp45
 70
     1
102
RTVSPost2010Prop46
 90
       50
102
RTVSPost2010PropOp46
 70
     1
102
RTVSPost2010Prop47
 90
       50
102
RTVSPost2010PropOp47
 70
     1
102
RTVSPost2010Prop48
 90
       50
102
RTVSPost2010PropOp48
 70
     1
102
RTVSPost2010Prop49
280
     0
102
RTVSPost2010PropOp49
 70
     1
102
RTVSPost2010Prop50
 90
       50
102
RTVSPost2010PropOp50
 70
     1
102
RTVSPost2010Prop51ColorIndex
 90
      256
102
RTVSPost2010Prop51ColorRGB
 90
-16777216
102
RTVSPost2010PropOp51
 70
     0
102
RTVSPost2010Prop52
140
1.0
102
RTVSPost2010PropOp52
 70
     0
102
RTVSPost2010Prop53
 90
        2
102
RTVSPost2010PropOp53
 70
     1
102
RTVSPost2010Prop54
  1
strokes_ogs.tif
102
RTVSPost2010PropOp54
 70
     1
102
RTVSPost2010Prop55
280
     0
102
RTVSPost2010PropOp55
 70
     1
102
RTVSPost2010Prop56
140
1.0
102
RTVSPost2010PropOp56
 70
     1
102
RTVSPost2010Prop57
140
1.0
102
RTVSPost2010PropOp57
 70
     1
  0
XRECORD
  5
1B7
102
{ACAD_REACTORS
330
1B6
102
}
330
1B6
100
AcDbXrecord
280
     1
102
RTVSPost2010Prop28
280
     0
102
RTVSPost2010PropOp28
 70
     0
102
RTVSPost2010Prop29
280
     1
102
RTVSPost2010PropOp29
 70
     0
102
RTVSPost2010Prop30
280
     1
102
RTVSPost2010PropOp30
 70
     0
102
RTVSPost2010Prop31
280
     0
102
RTVSPost2010PropOp31
 70
     0
102
RTVSPost2010Prop32
280
     0
102
RTVSPost2010PropOp32
 70
     0
102
RTVSPost2010Prop33
280
     0
102
RTVSPost2010PropOp33
 70
     0
102
RTVSPost2010Prop34
280
     0
102
RTVSPost2010PropOp34
 70
     0
102
RTVSPost2010Prop35
280
     0
102
RTVSPost2010PropOp35
 70
     0
102
RTVSPost2010Prop36
280
     0
102
RTVSPost2010PropOp36
 70
     0
102
RTVSPost2010Prop37
 90
       50
102
RTVSPost2010PropOp37
 70
     0
102
RTVSPost2010Prop38
140
0.0
102
RTVSPost2010PropOp38
 70
     0
102
RTVSPost2010Prop39
140
1.0
102
RTVSPost2010PropOp39
 70
     0
102
RTVSPost2010Prop40
 90
        0
102
RTVSPost2010PropOp40
 70
     0
102
RTVSPost2010Prop41ColorIndex
 90
       18
102
RTVSPost2010Prop41ColorRGB
 90
        0
102
RTVSPost2010PropOp41
 70
     0
102
RTVSPost2010Prop42
 90
       50
102
RTVSPost2010PropOp42
 70
     0
102
RTVSPost2010Prop43
 90
        3
102
RTVSPost2010PropOp43
 70
     0
102
RTVSPost2010Prop44ColorIndex
 90
        5
102
RTVSPost2010Prop44ColorRGB
 90
      255
102
RTVSPost2010PropOp44
 70
     0
102
RTVSPost2010Prop45
280
     0
102
RTVSPost2010PropOp45
 70
     0
102
RTVSPost2010Prop46
 90
       50
102
RTVSPost2010PropOp46
 70
     0
102
RTVSPost2010Prop47
 90
       50
102
RTVSPost2010PropOp47
 70
     0
102
RTVSPost2010Prop48
 90
       50
102
RTVSPost2010PropOp48
 70
     0
102
RTVSPost2010Prop49
280
     0
102
RTVSPost2010PropOp49
 70
     0
102
RTVSPost2010Prop50
 90
       50
102
RTVSPost2010PropOp50
 70
     0
102
RTVSPost2010Prop51ColorIndex
 90
      256
102
RTVSPost2010Prop51ColorRGB
 90
-16777216
102
RTVSPost2010PropOp51
 70
     0
102
RTVSPost2010Prop52
140
1.0
102
RTVSPost2010PropOp52
 70
     0
102
RTVSPost2010Prop53
 90
        2
102
RTVSPost2010PropOp53
 70
     0
102
RTVSPost2010Prop54
  1
strokes_ogs.tif
102
RTVSPost2010PropOp54
 70
     0
102
RTVSPost2010Prop55
280
     0
102
RTVSPost2010PropOp55
 70
     0
102
RTVSPost2010Prop56
140
1.0
102
RTVSPost2010PropOp56
 70
     0
102
RTVSPost2010Prop57
140
1.0
102
RTVSPost2010PropOp57
 70
     0
  0
XRECORD
  5
1A7
102
{ACAD_REACTORS
330
1A6
102
}
330
1A6
100
AcDbXrecord
280
     1
102
RTVSPost2010Prop28
280
     0
102
RTVSPost2010PropOp28
 70
     1
102
RTVSPost2010Prop29
280
     1
102
RTVSPost2010PropOp29
 70
     1
102
RTVSPost2010Prop30
280
     1
102
RTVSPost2010PropOp30
 70
     1
102
RTVSPost2010Prop31
280
     0
102
RTVSPost2010PropOp31
 70
     1
102
RTVSPost2010Prop32
280
     0
102
RTVSPost2010PropOp32
 70
     1
102
RTVSPost2010Prop33
280
     0
102
RTVSPost2010PropOp33
 70
     1
102
RTVSPost2010Prop34
280
     0
102
RTVSPost2010PropOp34
 70
     1
102
RTVSPost2010Prop35
280
     0
102
RTVSPost2010PropOp35
 70
     1
102
RTVSPost2010Prop36
280
     0
102
RTVSPost2010PropOp36
 70
     1
102
RTVSPost2010Prop37
 90
       50
102
RTVSPost2010PropOp37
 70
     1
102
RTVSPost2010Prop38
140
0.0
102
RTVSPost2010PropOp38
 70
     1
102
RTVSPost2010Prop39
140
1.0
102
RTVSPost2010PropOp39
 70
     1
102
RTVSPost2010Prop40
 90
        0
102
RTVSPost2010PropOp40
 70
     1
102
RTVSPost2010Prop41ColorIndex
 90
       18
102
RTVSPost2010Prop41ColorRGB
 90
        0
102
RTVSPost2010PropOp41
 70
     1
102
RTVSPost2010Prop42
 90
       50
102
RTVSPost2010PropOp42
 70
     1
102
RTVSPost2010Prop43
 90
        3
102
RTVSPost2010PropOp43
 70
     1
102
RTVSPost2010Prop44ColorIndex
 90
        5
102
RTVSPost2010Prop44ColorRGB
 90
      255
102
RTVSPost2010PropOp44
 70
     1
102
RTVSPost2010Prop45
280
     0
102
RTVSPost2010PropOp45
 70
     1
102
RTVSPost2010Prop46
 90
       50
102
RTVSPost2010PropOp46
 70
     1
102
RTVSPost2010Prop47
 90
       50
102
RTVSPost2010PropOp47
 70
     1
102
RTVSPost2010Prop48
 90
       50
102
RTVSPost2010PropOp48
 70
     1
102
RTVSPost2010Prop49
280
     0
102
RTVSPost2010PropOp49
 70
     1
102
RTVSPost2010Prop50
 90
       50
102
RTVSPost2010PropOp50
 70
     1
102
RTVSPost2010Prop51ColorIndex
 90
      256
102
RTVSPost2010Prop51ColorRGB
 90
-16777216
102
RTVSPost2010PropOp51
 70
     0
102
RTVSPost2010Prop52
140
1.0
102
RTVSPost2010PropOp52
 70
     0
102
RTVSPost2010Prop53
 90
        2
102
RTVSPost2010PropOp53
 70
     1
102
RTVSPost2010Prop54
  1
strokes_ogs.tif
102
RTVSPost2010PropOp54
 70
     1
102
RTVSPost2010Prop55
280
     0
102
RTVSPost2010PropOp55
 70
     1
102
RTVSPost2010Prop56
140
1.0
102
RTVSPost2010PropOp56
 70
     1
102
RTVSPost2010Prop57
140
1.0
102
RTVSPost2010PropOp57
 70
     1
  0
XRECORD
  5
1B9
102
{ACAD_REACTORS
330
1B8
102
}
330
1B8
100
AcDbXrecord
280
     1
102
RTVSPost2010Prop28
280
     0
102
RTVSPost2010PropOp28
 70
     0
102
RTVSPost2010Prop29
280
     1
102
RTVSPost2010PropOp29
 70
     0
102
RTVSPost2010Prop30
280
     1
102
RTVSPost2010PropOp30
 70
     0
102
RTVSPost2010Prop31
280
     0
102
RTVSPost2010PropOp31
 70
     0
102
RTVSPost2010Prop32
280
     0
102
RTVSPost2010PropOp32
 70
     0
102
RTVSPost2010Prop33
280
     0
102
RTVSPost2010PropOp33
 70
     0
102
RTVSPost2010Prop34
280
     0
102
RTVSPost2010PropOp34
 70
     0
102
RTVSPost2010Prop35
280
     0
102
RTVSPost2010PropOp35
 70
     0
102
RTVSPost2010Prop36
280
     0
102
RTVSPost2010PropOp36
 70
     0
102
RTVSPost2010Prop37
 90
       50
102
RTVSPost2010PropOp37
 70
     0
102
RTVSPost2010Prop38
140
0.0
102
RTVSPost2010PropOp38
 70
     0
102
RTVSPost2010Prop39
140
1.0
102
RTVSPost2010PropOp39
 70
     0
102
RTVSPost2010Prop40
 90
        0
102
RTVSPost2010PropOp40
 70
     0
102
RTVSPost2010Prop41ColorIndex
 90
       18
102
RTVSPost2010Prop41ColorRGB
 90
        0
102
RTVSPost2010PropOp41
 70
     0
102
RTVSPost2010Prop42
 90
       50
102
RTVSPost2010PropOp42
 70
     0
102
RTVSPost2010Prop43
 90
        3
102
RTVSPost2010PropOp43
 70
     0
102
RTVSPost2010Prop44ColorIndex
 90
        5
102
RTVSPost2010Prop44ColorRGB
 90
      255
102
RTVSPost2010PropOp44
 70
     0
102
RTVSPost2010Prop45
280
     0
102
RTVSPost2010PropOp45
 70
     0
102
RTVSPost2010Prop46
 90
       50
102
RTVSPost2010PropOp46
 70
     0
102
RTVSPost2010Prop47
 90
       50
102
RTVSPost2010PropOp47
 70
     0
102
RTVSPost2010Prop48
 90
       50
102
RTVSPost2010PropOp48
 70
     0
102
RTVSPost2010Prop49
280
     0
102
RTVSPost2010PropOp49
 70
     0
102
RTVSPost2010Prop50
 90
       50
102
RTVSPost2010PropOp50
 70
     0
102
RTVSPost2010Prop51ColorIndex
 90
      256
102
RTVSPost2010Prop51ColorRGB
 90
-16777216
102
RTVSPost2010PropOp51
 70
     0
102
RTVSPost2010Prop52
140
1.0
102
RTVSPost2010PropOp52
 70
     0
102
RTVSPost2010Prop53
 90
        2
102
RTVSPost2010PropOp53
 70
     0
102
RTVSPost2010Prop54
  1
strokes_ogs.tif
102
RTVSPost2010PropOp54
 70
     0
102
RTVSPost2010Prop55
280
     0
102
RTVSPost2010PropOp55
 70
     0
102
RTVSPost2010Prop56
140
1.0
102
RTVSPost2010PropOp56
 70
     0
102
RTVSPost2010Prop57
140
1.0
102
RTVSPost2010PropOp57
 70
     0
  0
XRECORD
  5
19F
102
{ACAD_REACTORS
330
19E
102
}
330
19E
100
AcDbXrecord
280
     1
102
RTVSPost2010Prop28
280
     0
102
RTVSPost2010PropOp28
 70
     1
102
RTVSPost2010Prop29
280
     1
102
RTVSPost2010PropOp29
 70
     1
102
RTVSPost2010Prop30
280
     1
102
RTVSPost2010PropOp30
 70
     1
102
RTVSPost2010Prop31
280
     0
102
RTVSPost2010PropOp31
 70
     1
102
RTVSPost2010Prop32
280
     0
102
RTVSPost2010PropOp32
 70
     1
102
RTVSPost2010Prop33
280
     0
102
RTVSPost2010PropOp33
 70
     1
102
RTVSPost2010Prop34
280
     0
102
RTVSPost2010PropOp34
 70
     1
102
RTVSPost2010Prop35
280
     0
102
RTVSPost2010PropOp35
 70
     1
102
RTVSPost2010Prop36
280
     0
102
RTVSPost2010PropOp36
 70
     1
102
RTVSPost2010Prop37
 90
       50
102
RTVSPost2010PropOp37
 70
     1
102
RTVSPost2010Prop38
140
0.0
102
RTVSPost2010PropOp38
 70
     1
102
RTVSPost2010Prop39
140
1.0
102
RTVSPost2010PropOp39
 70
     1
102
RTVSPost2010Prop40
 90
        0
102
RTVSPost2010PropOp40
 70
     1
102
RTVSPost2010Prop41ColorIndex
 90
       18
102
RTVSPost2010Prop41ColorRGB
 90
        0
102
RTVSPost2010PropOp41
 70
     1
102
RTVSPost2010Prop42
 90
       50
102
RTVSPost2010PropOp42
 70
     1
102
RTVSPost2010Prop43
 90
        3
102
RTVSPost2010PropOp43
 70
     1
102
RTVSPost2010Prop44ColorIndex
 90
        5
102
RTVSPost2010Prop44ColorRGB
 90
      255
102
RTVSPost2010PropOp44
 70
     1
102
RTVSPost2010Prop45
280
     0
102
RTVSPost2010PropOp45
 70
     1
102
RTVSPost2010Prop46
 90
       50
102
RTVSPost2010PropOp46
 70
     1
102
RTVSPost2010Prop47
 90
       50
102
RTVSPost2010PropOp47
 70
     1
102
RTVSPost2010Prop48
 90
       50
102
RTVSPost2010PropOp48
 70
     1
102
RTVSPost2010Prop49
280
     0
102
RTVSPost2010PropOp49
 70
     1
102
RTVSPost2010Prop50
 90
       50
102
RTVSPost2010PropOp50
 70
     1
102
RTVSPost2010Prop51ColorIndex
 90
      256
102
RTVSPost2010Prop51ColorRGB
 90
-16777216
102
RTVSPost2010PropOp51
 70
     0
102
RTVSPost2010Prop52
140
1.0
102
RTVSPost2010PropOp52
 70
     0
102
RTVSPost2010Prop53
 90
        2
102
RTVSPost2010PropOp53
 70
     1
102
RTVSPost2010Prop54
  1
strokes_ogs.tif
102
RTVSPost2010PropOp54
 70
     1
102
RTVSPost2010Prop55
280
     0
102
RTVSPost2010PropOp55
 70
     1
102
RTVSPost2010Prop56
140
1.0
102
RTVSPost2010PropOp56
 70
     1
102
RTVSPost2010Prop57
140
1.0
102
RTVSPost2010PropOp57
 70
     1
  0
XRECORD
  5
1B5
102
{ACAD_REACTORS
330
1B4
102
}
330
1B4
100
AcDbXrecord
280
     1
102
RTVSPost2010Prop28
280
     0
102
RTVSPost2010PropOp28
 70
     1
102
RTVSPost2010Prop29
280
     1
102
RTVSPost2010PropOp29
 70
     1
102
RTVSPost2010Prop30
280
     1
102
RTVSPost2010PropOp30
 70
     1
102
RTVSPost2010Prop31
280
     0
102
RTVSPost2010PropOp31
 70
     1
102
RTVSPost2010Prop32
280
     0
102
RTVSPost2010PropOp32
 70
     1
102
RTVSPost2010Prop33
280
     0
102
RTVSPost2010PropOp33
 70
     1
102
RTVSPost2010Prop34
280
     0
102
RTVSPost2010PropOp34
 70
     1
102
RTVSPost2010Prop35
280
     0
102
RTVSPost2010PropOp35
 70
     1
102
RTVSPost2010Prop36
280
     0
102
RTVSPost2010PropOp36
 70
     1
102
RTVSPost2010Prop37
 90
       50
102
RTVSPost2010PropOp37
 70
     1
102
RTVSPost2010Prop38
140
0.0
102
RTVSPost2010PropOp38
 70
     1
102
RTVSPost2010Prop39
140
1.0
102
RTVSPost2010PropOp39
 70
     1
102
RTVSPost2010Prop40
 90
        0
102
RTVSPost2010PropOp40
 70
     1
102
RTVSPost2010Prop41ColorIndex
 90
       18
102
RTVSPost2010Prop41ColorRGB
 90
        0
102
RTVSPost2010PropOp41
 70
     1
102
RTVSPost2010Prop42
 90
       50
102
RTVSPost2010PropOp42
 70
     1
102
RTVSPost2010Prop43
 90
        3
102
RTVSPost2010PropOp43
 70
     1
102
RTVSPost2010Prop44ColorIndex
 90
        5
102
RTVSPost2010Prop44ColorRGB
 90
      255
102
RTVSPost2010PropOp44
 70
     1
102
RTVSPost2010Prop45
280
     0
102
RTVSPost2010PropOp45
 70
     1
102
RTVSPost2010Prop46
 90
       50
102
RTVSPost2010PropOp46
 70
     1
102
RTVSPost2010Prop47
 90
       50
102
RTVSPost2010PropOp47
 70
     1
102
RTVSPost2010Prop48
 90
       50
102
RTVSPost2010PropOp48
 70
     1
102
RTVSPost2010Prop49
280
     0
102
RTVSPost2010PropOp49
 70
     1
102
RTVSPost2010Prop50
 90
       50
102
RTVSPost2010PropOp50
 70
     1
102
RTVSPost2010Prop51ColorIndex
 90
      256
102
RTVSPost2010Prop51ColorRGB
 90
-16777216
102
RTVSPost2010PropOp51
 70
     0
102
RTVSPost2010Prop52
140
1.0
102
RTVSPost2010PropOp52
 70
     0
102
RTVSPost2010Prop53
 90
        2
102
RTVSPost2010PropOp53
 70
     1
102
RTVSPost2010Prop54
  1
strokes_ogs.tif
102
RTVSPost2010PropOp54
 70
     1
102
RTVSPost2010Prop55
280
     0
102
RTVSPost2010PropOp55
 70
     1
102
RTVSPost2010Prop56
140
1.0
102
RTVSPost2010PropOp56
 70
     1
102
RTVSPost2010Prop57
140
1.0
102
RTVSPost2010PropOp57
 70
     1
  0
XRECORD
  5
1B3
102
{ACAD_REACTORS
330
1B2
102
}
330
1B2
100
AcDbXrecord
280
     1
102
RTVSPost2010Prop28
280
     0
102
RTVSPost2010PropOp28
 70
     1
102
RTVSPost2010Prop29
280
     1
102
RTVSPost2010PropOp29
 70
     1
102
RTVSPost2010Prop30
280
     1
102
RTVSPost2010PropOp30
 70
     1
102
RTVSPost2010Prop31
280
     0
102
RTVSPost2010PropOp31
 70
     1
102
RTVSPost2010Prop32
280
     0
102
RTVSPost2010PropOp32
 70
     1
102
RTVSPost2010Prop33
280
     0
102
RTVSPost2010PropOp33
 70
     1
102
RTVSPost2010Prop34
280
     0
102
RTVSPost2010PropOp34
 70
     1
102
RTVSPost2010Prop35
280
     0
102
RTVSPost2010PropOp35
 70
     1
102
RTVSPost2010Prop36
280
     0
102
RTVSPost2010PropOp36
 70
     1
102
RTVSPost2010Prop37
 90
       50
102
RTVSPost2010PropOp37
 70
     1
102
RTVSPost2010Prop38
140
0.0
102
RTVSPost2010PropOp38
 70
     1
102
RTVSPost2010Prop39
140
1.0
102
RTVSPost2010PropOp39
 70
     1
102
RTVSPost2010Prop40
 90
        0
102
RTVSPost2010PropOp40
 70
     1
102
RTVSPost2010Prop41ColorIndex
 90
       18
102
RTVSPost2010Prop41ColorRGB
 90
        0
102
RTVSPost2010PropOp41
 70
     1
102
RTVSPost2010Prop42
 90
       50
102
RTVSPost2010PropOp42
 70
     1
102
RTVSPost2010Prop43
 90
        3
102
RTVSPost2010PropOp43
 70
     1
102
RTVSPost2010Prop44ColorIndex
 90
        5
102
RTVSPost2010Prop44ColorRGB
 90
      255
102
RTVSPost2010PropOp44
 70
     1
102
RTVSPost2010Prop45
280
     0
102
RTVSPost2010PropOp45
 70
     1
102
RTVSPost2010Prop46
 90
       50
102
RTVSPost2010PropOp46
 70
     1
102
RTVSPost2010Prop47
 90
       50
102
RTVSPost2010PropOp47
 70
     1
102
RTVSPost2010Prop48
 90
       50
102
RTVSPost2010PropOp48
 70
     1
102
RTVSPost2010Prop49
280
     0
102
RTVSPost2010PropOp49
 70
     1
102
RTVSPost2010Prop50
 90
       50
102
RTVSPost2010PropOp50
 70
     1
102
RTVSPost2010Prop51ColorIndex
 90
      256
102
RTVSPost2010Prop51ColorRGB
 90
-16777216
102
RTVSPost2010PropOp51
 70
     0
102
RTVSPost2010Prop52
140
1.0
102
RTVSPost2010PropOp52
 70
     0
102
RTVSPost2010Prop53
 90
        2
102
RTVSPost2010PropOp53
 70
     1
102
RTVSPost2010Prop54
  1
strokes_ogs.tif
102
RTVSPost2010PropOp54
 70
     1
102
RTVSPost2010Prop55
280
     0
102
RTVSPost2010PropOp55
 70
     1
102
RTVSPost2010Prop56
140
1.0
102
RTVSPost2010PropOp56
 70
     1
102
RTVSPost2010Prop57
140
1.0
102
RTVSPost2010PropOp57
 70
     1
  0
XRECORD
  5
1AD
102
{ACAD_REACTORS
330
1AC
102
}
330
1AC
100
AcDbXrecord
280
     1
102
RTVSPost2010Prop28
280
     0
102
RTVSPost2010PropOp28
 70
     1
102
RTVSPost2010Prop29
280
     1
102
RTVSPost2010PropOp29
 70
     1
102
RTVSPost2010Prop30
280
     1
102
RTVSPost2010PropOp30
 70
     1
102
RTVSPost2010Prop31
280
     0
102
RTVSPost2010PropOp31
 70
     1
102
RTVSPost2010Prop32
280
     0
102
RTVSPost2010PropOp32
 70
     1
102
RTVSPost2010Prop33
280
     0
102
RTVSPost2010PropOp33
 70
     1
102
RTVSPost2010Prop34
280
     0
102
RTVSPost2010PropOp34
 70
     1
102
RTVSPost2010Prop35
280
     0
102
RTVSPost2010PropOp35
 70
     1
102
RTVSPost2010Prop36
280
     0
102
RTVSPost2010PropOp36
 70
     1
102
RTVSPost2010Prop37
 90
       50
102
RTVSPost2010PropOp37
 70
     1
102
RTVSPost2010Prop38
140
0.0
102
RTVSPost2010PropOp38
 70
     1
102
RTVSPost2010Prop39
140
1.0
102
RTVSPost2010PropOp39
 70
     1
102
RTVSPost2010Prop40
 90
        0
102
RTVSPost2010PropOp40
 70
     1
102
RTVSPost2010Prop41ColorIndex
 90
       18
102
RTVSPost2010Prop41ColorRGB
 90
        0
102
RTVSPost2010PropOp41
 70
     1
102
RTVSPost2010Prop42
 90
       50
102
RTVSPost2010PropOp42
 70
     1
102
RTVSPost2010Prop43
 90
        3
102
RTVSPost2010PropOp43
 70
     1
102
RTVSPost2010Prop44ColorIndex
 90
        5
102
RTVSPost2010Prop44ColorRGB
 90
      255
102
RTVSPost2010PropOp44
 70
     1
102
RTVSPost2010Prop45
280
     0
102
RTVSPost2010PropOp45
 70
     1
102
RTVSPost2010Prop46
 90
       50
102
RTVSPost2010PropOp46
 70
     1
102
RTVSPost2010Prop47
 90
       50
102
RTVSPost2010PropOp47
 70
     1
102
RTVSPost2010Prop48
 90
       50
102
RTVSPost2010PropOp48
 70
     1
102
RTVSPost2010Prop49
280
     0
102
RTVSPost2010PropOp49
 70
     1
102
RTVSPost2010Prop50
 90
       50
102
RTVSPost2010PropOp50
 70
     1
102
RTVSPost2010Prop51ColorIndex
 90
      256
102
RTVSPost2010Prop51ColorRGB
 90
-16777216
102
RTVSPost2010PropOp51
 70
     0
102
RTVSPost2010Prop52
140
1.0
102
RTVSPost2010PropOp52
 70
     0
102
RTVSPost2010Prop53
 90
        2
102
RTVSPost2010PropOp53
 70
     1
102
RTVSPost2010Prop54
  1
strokes_ogs.tif
102
RTVSPost2010PropOp54
 70
     1
102
RTVSPost2010Prop55
280
     0
102
RTVSPost2010PropOp55
 70
     1
102
RTVSPost2010Prop56
140
1.0
102
RTVSPost2010PropOp56
 70
     1
102
RTVSPost2010Prop57
140
1.0
102
RTVSPost2010PropOp57
 70
     1
  0
XRECORD
  5
1AF
102
{ACAD_REACTORS
330
1AE
102
}
330
1AE
100
AcDbXrecord
280
     1
102
RTVSPost2010Prop28
280
     0
102
RTVSPost2010PropOp28
 70
     1
102
RTVSPost2010Prop29
280
     1
102
RTVSPost2010PropOp29
 70
     1
102
RTVSPost2010Prop30
280
     1
102
RTVSPost2010PropOp30
 70
     1
102
RTVSPost2010Prop31
280
     0
102
RTVSPost2010PropOp31
 70
     1
102
RTVSPost2010Prop32
280
     0
102
RTVSPost2010PropOp32
 70
     1
102
RTVSPost2010Prop33
280
     0
102
RTVSPost2010PropOp33
 70
     1
102
RTVSPost2010Prop34
280
     0
102
RTVSPost2010PropOp34
 70
     1
102
RTVSPost2010Prop35
280
     0
102
RTVSPost2010PropOp35
 70
     1
102
RTVSPost2010Prop36
280
     0
102
RTVSPost2010PropOp36
 70
     1
102
RTVSPost2010Prop37
 90
       50
102
RTVSPost2010PropOp37
 70
     1
102
RTVSPost2010Prop38
140
0.0
102
RTVSPost2010PropOp38
 70
     1
102
RTVSPost2010Prop39
140
1.0
102
RTVSPost2010PropOp39
 70
     1
102
RTVSPost2010Prop40
 90
        0
102
RTVSPost2010PropOp40
 70
     1
102
RTVSPost2010Prop41ColorIndex
 90
       18
102
RTVSPost2010Prop41ColorRGB
 90
        0
102
RTVSPost2010PropOp41
 70
     1
102
RTVSPost2010Prop42
 90
       50
102
RTVSPost2010PropOp42
 70
     1
102
RTVSPost2010Prop43
 90
        3
102
RTVSPost2010PropOp43
 70
     1
102
RTVSPost2010Prop44ColorIndex
 90
        5
102
RTVSPost2010Prop44ColorRGB
 90
      255
102
RTVSPost2010PropOp44
 70
     1
102
RTVSPost2010Prop45
280
     0
102
RTVSPost2010PropOp45
 70
     1
102
RTVSPost2010Prop46
 90
       50
102
RTVSPost2010PropOp46
 70
     1
102
RTVSPost2010Prop47
 90
       50
102
RTVSPost2010PropOp47
 70
     1
102
RTVSPost2010Prop48
 90
       50
102
RTVSPost2010PropOp48
 70
     1
102
RTVSPost2010Prop49
280
     0
102
RTVSPost2010PropOp49
 70
     1
102
RTVSPost2010Prop50
 90
       50
102
RTVSPost2010PropOp50
 70
     1
102
RTVSPost2010Prop51ColorIndex
 90
      256
102
RTVSPost2010Prop51ColorRGB
 90
-16777216
102
RTVSPost2010PropOp51
 70
     0
102
RTVSPost2010Prop52
140
1.0
102
RTVSPost2010PropOp52
 70
     0
102
RTVSPost2010Prop53
 90
        2
102
RTVSPost2010PropOp53
 70
     1
102
RTVSPost2010Prop54
  1
strokes_ogs.tif
102
RTVSPost2010PropOp54
 70
     1
102
RTVSPost2010Prop55
280
     0
102
RTVSPost2010PropOp55
 70
     1
102
RTVSPost2010Prop56
140
1.0
102
RTVSPost2010PropOp56
 70
     1
102
RTVSPost2010Prop57
140
1.0
102
RTVSPost2010PropOp57
 70
     1
  0
XRECORD
  5
1A5
102
{ACAD_REACTORS
330
1A4
102
}
330
1A4
100
AcDbXrecord
280
     1
102
RTVSPost2010Prop28
280
     0
102
RTVSPost2010PropOp28
 70
     1
102
RTVSPost2010Prop29
280
     1
102
RTVSPost2010PropOp29
 70
     1
102
RTVSPost2010Prop30
280
     1
102
RTVSPost2010PropOp30
 70
     1
102
RTVSPost2010Prop31
280
     0
102
RTVSPost2010PropOp31
 70
     1
102
RTVSPost2010Prop32
280
     0
102
RTVSPost2010PropOp32
 70
     1
102
RTVSPost2010Prop33
280
     0
102
RTVSPost2010PropOp33
 70
     1
102
RTVSPost2010Prop34
280
     0
102
RTVSPost2010PropOp34
 70
     1
102
RTVSPost2010Prop35
280
     0
102
RTVSPost2010PropOp35
 70
     1
102
RTVSPost2010Prop36
280
     0
102
RTVSPost2010PropOp36
 70
     1
102
RTVSPost2010Prop37
 90
       50
102
RTVSPost2010PropOp37
 70
     1
102
RTVSPost2010Prop38
140
0.0
102
RTVSPost2010PropOp38
 70
     1
102
RTVSPost2010Prop39
140
1.0
102
RTVSPost2010PropOp39
 70
     1
102
RTVSPost2010Prop40
 90
        0
102
RTVSPost2010PropOp40
 70
     1
102
RTVSPost2010Prop41ColorIndex
 90
       18
102
RTVSPost2010Prop41ColorRGB
 90
        0
102
RTVSPost2010PropOp41
 70
     1
102
RTVSPost2010Prop42
 90
       50
102
RTVSPost2010PropOp42
 70
     1
102
RTVSPost2010Prop43
 90
        3
102
RTVSPost2010PropOp43
 70
     1
102
RTVSPost2010Prop44ColorIndex
 90
        5
102
RTVSPost2010Prop44ColorRGB
 90
      255
102
RTVSPost2010PropOp44
 70
     1
102
RTVSPost2010Prop45
280
     0
102
RTVSPost2010PropOp45
 70
     1
102
RTVSPost2010Prop46
 90
       50
102
RTVSPost2010PropOp46
 70
     1
102
RTVSPost2010Prop47
 90
       50
102
RTVSPost2010PropOp47
 70
     1
102
RTVSPost2010Prop48
 90
       50
102
RTVSPost2010PropOp48
 70
     1
102
RTVSPost2010Prop49
280
     0
102
RTVSPost2010PropOp49
 70
     1
102
RTVSPost2010Prop50
 90
       50
102
RTVSPost2010PropOp50
 70
     1
102
RTVSPost2010Prop51ColorIndex
 90
      256
102
RTVSPost2010Prop51ColorRGB
 90
-16777216
102
RTVSPost2010PropOp51
 70
     0
102
RTVSPost2010Prop52
140
1.0
102
RTVSPost2010PropOp52
 70
     0
102
RTVSPost2010Prop53
 90
        2
102
RTVSPost2010PropOp53
 70
     1
102
RTVSPost2010Prop54
  1
strokes_ogs.tif
102
RTVSPost2010PropOp54
 70
     1
102
RTVSPost2010Prop55
280
     0
102
RTVSPost2010PropOp55
 70
     1
102
RTVSPost2010Prop56
140
1.0
102
RTVSPost2010PropOp56
 70
     1
102
RTVSPost2010Prop57
140
1.0
102
RTVSPost2010PropOp57
 70
     1
  0
XRECORD
  5
199
102
{ACAD_REACTORS
330
198
102
}
330
198
100
AcDbXrecord
280
     1
102
RTVSPost2010Prop28
280
     0
102
RTVSPost2010PropOp28
 70
     1
102
RTVSPost2010Prop29
280
     1
102
RTVSPost2010PropOp29
 70
     1
102
RTVSPost2010Prop30
280
     1
102
RTVSPost2010PropOp30
 70
     1
102
RTVSPost2010Prop31
280
     0
102
RTVSPost2010PropOp31
 70
     1
102
RTVSPost2010Prop32
280
     0
102
RTVSPost2010PropOp32
 70
     1
102
RTVSPost2010Prop33
280
     0
102
RTVSPost2010PropOp33
 70
     1
102
RTVSPost2010Prop34
280
     0
102
RTVSPost2010PropOp34
 70
     1
102
RTVSPost2010Prop35
280
     0
102
RTVSPost2010PropOp35
 70
     1
102
RTVSPost2010Prop36
280
     0
102
RTVSPost2010PropOp36
 70
     1
102
RTVSPost2010Prop37
 90
       50
102
RTVSPost2010PropOp37
 70
     1
102
RTVSPost2010Prop38
140
0.0
102
RTVSPost2010PropOp38
 70
     1
102
RTVSPost2010Prop39
140
1.0
102
RTVSPost2010PropOp39
 70
     1
102
RTVSPost2010Prop40
 90
        0
102
RTVSPost2010PropOp40
 70
     1
102
RTVSPost2010Prop41ColorIndex
 90
       18
102
RTVSPost2010Prop41ColorRGB
 90
        0
102
RTVSPost2010PropOp41
 70
     1
102
RTVSPost2010Prop42
 90
       50
102
RTVSPost2010PropOp42
 70
     1
102
RTVSPost2010Prop43
 90
        3
102
RTVSPost2010PropOp43
 70
     1
102
RTVSPost2010Prop44ColorIndex
 90
        5
102
RTVSPost2010Prop44ColorRGB
 90
      255
102
RTVSPost2010PropOp44
 70
     1
102
RTVSPost2010Prop45
280
     0
102
RTVSPost2010PropOp45
 70
     1
102
RTVSPost2010Prop46
 90
       50
102
RTVSPost2010PropOp46
 70
     1
102
RTVSPost2010Prop47
 90
       50
102
RTVSPost2010PropOp47
 70
     1
102
RTVSPost2010Prop48
 90
       50
102
RTVSPost2010PropOp48
 70
     1
102
RTVSPost2010Prop49
280
     0
102
RTVSPost2010PropOp49
 70
     1
102
RTVSPost2010Prop50
 90
       50
102
RTVSPost2010PropOp50
 70
     1
102
RTVSPost2010Prop51ColorIndex
 90
      256
102
RTVSPost2010Prop51ColorRGB
 90
-16777216
102
RTVSPost2010PropOp51
 70
     0
102
RTVSPost2010Prop52
140
1.0
102
RTVSPost2010PropOp52
 70
     0
102
RTVSPost2010Prop53
 90
        2
102
RTVSPost2010PropOp53
 70
     1
102
RTVSPost2010Prop54
  1
strokes_ogs.tif
102
RTVSPost2010PropOp54
 70
     1
102
RTVSPost2010Prop55
280
     0
102
RTVSPost2010PropOp55
 70
     1
102
RTVSPost2010Prop56
140
1.0
102
RTVSPost2010PropOp56
 70
     1
102
RTVSPost2010Prop57
140
1.0
102
RTVSPost2010PropOp57
 70
     1
  0
XRECORD
  5
1B1
102
{ACAD_REACTORS
330
1B0
102
}
330
1B0
100
AcDbXrecord
280
     1
102
RTVSPost2010Prop28
280
     0
102
RTVSPost2010PropOp28
 70
     1
102
RTVSPost2010Prop29
280
     1
102
RTVSPost2010PropOp29
 70
     1
102
RTVSPost2010Prop30
280
     1
102
RTVSPost2010PropOp30
 70
     1
102
RTVSPost2010Prop31
280
     0
102
RTVSPost2010PropOp31
 70
     1
102
RTVSPost2010Prop32
280
     0
102
RTVSPost2010PropOp32
 70
     1
102
RTVSPost2010Prop33
280
     0
102
RTVSPost2010PropOp33
 70
     1
102
RTVSPost2010Prop34
280
     0
102
RTVSPost2010PropOp34
 70
     1
102
RTVSPost2010Prop35
280
     0
102
RTVSPost2010PropOp35
 70
     1
102
RTVSPost2010Prop36
280
     0
102
RTVSPost2010PropOp36
 70
     1
102
RTVSPost2010Prop37
 90
       50
102
RTVSPost2010PropOp37
 70
     1
102
RTVSPost2010Prop38
140
0.0
102
RTVSPost2010PropOp38
 70
     1
102
RTVSPost2010Prop39
140
1.0
102
RTVSPost2010PropOp39
 70
     1
102
RTVSPost2010Prop40
 90
        0
102
RTVSPost2010PropOp40
 70
     1
102
RTVSPost2010Prop41ColorIndex
 90
       18
102
RTVSPost2010Prop41ColorRGB
 90
        0
102
RTVSPost2010PropOp41
 70
     1
102
RTVSPost2010Prop42
 90
       50
102
RTVSPost2010PropOp42
 70
     1
102
RTVSPost2010Prop43
 90
        3
102
RTVSPost2010PropOp43
 70
     1
102
RTVSPost2010Prop44ColorIndex
 90
        5
102
RTVSPost2010Prop44ColorRGB
 90
      255
102
RTVSPost2010PropOp44
 70
     1
102
RTVSPost2010Prop45
280
     0
102
RTVSPost2010PropOp45
 70
     1
102
RTVSPost2010Prop46
 90
       50
102
RTVSPost2010PropOp46
 70
     1
102
RTVSPost2010Prop47
 90
       50
102
RTVSPost2010PropOp47
 70
     1
102
RTVSPost2010Prop48
 90
       50
102
RTVSPost2010PropOp48
 70
     1
102
RTVSPost2010Prop49
280
     0
102
RTVSPost2010PropOp49
 70
     1
102
RTVSPost2010Prop50
 90
       50
102
RTVSPost2010PropOp50
 70
     1
102
RTVSPost2010Prop51ColorIndex
 90
      256
102
RTVSPost2010Prop51ColorRGB
 90
-16777216
102
RTVSPost2010PropOp51
 70
     0
102
RTVSPost2010Prop52
140
1.0
102
RTVSPost2010PropOp52
 70
     0
102
RTVSPost2010Prop53
 90
        2
102
RTVSPost2010PropOp53
 70
     1
102
RTVSPost2010Prop54
  1
strokes_ogs.tif
102
RTVSPost2010PropOp54
 70
     1
102
RTVSPost2010Prop55
280
     0
102
RTVSPost2010PropOp55
 70
     1
102
RTVSPost2010Prop56
140
1.0
102
RTVSPost2010PropOp56
 70
     1
102
RTVSPost2010Prop57
140
1.0
102
RTVSPost2010PropOp57
 70
     1
  0
ENDSEC
  0
EOF
